  0
SECTION
  2
HEADER
  9
$ACADVER
  1
AC1015
  9
$ACADMAINTVER
 70
    13
  9
$DWGCODEPAGE
  3
ANSI_1252
  9
$INSBASE
 10
0.0
 20
0.0
 30
0.0
  9
$EXTMIN
 10
9.991340637207057
 20
191.1096775790996
 30
0.0
  9
$EXTMAX
 10
534.0277099609375
 20
549.6813343124251
 30
0.0
  9
$LIMMIN
 10
9.991340637207031
 20
182.9130859374999
  9
$LIMMAX
 10
534.0277099609375
 20
549.4852905273437
  9
$ORTHOMODE
 70
     0
  9
$REGENMODE
 70
     1
  9
$FILLMODE
 70
     1
  9
$QTEXTMODE
 70
     0
  9
$MIRRTEXT
 70
     1
  9
$LTSCALE
 40
1.0
  9
$ATTMODE
 70
     1
  9
$TEXTSIZE
 40
2.5
  9
$TRACEWID
 40
1.0
  9
$TEXTSTYLE
  7
Standard
  9
$CLAYER
  8
0
  9
$CELTYPE
  6
ByLayer
  9
$CECOLOR
 62
   256
  9
$CELTSCALE
 40
1.0
  9
$DISPSILH
 70
     0
  9
$DIMSCALE
 40
1.0
  9
$DIMASZ
 40
2.5
  9
$DIMEXO
 40
0.625
  9
$DIMDLI
 40
3.75
  9
$DIMRND
 40
0.0
  9
$DIMDLE
 40
0.0
  9
$DIMEXE
 40
1.25
  9
$DIMTP
 40
0.0
  9
$DIMTM
 40
0.0
  9
$DIMTXT
 40
2.5
  9
$DIMCEN
 40
2.5
  9
$DIMTSZ
 40
0.0
  9
$DIMTOL
 70
     0
  9
$DIMLIM
 70
     0
  9
$DIMTIH
 70
     0
  9
$DIMTOH
 70
     0
  9
$DIMSE1
 70
     0
  9
$DIMSE2
 70
     0
  9
$DIMTAD
 70
     1
  9
$DIMZIN
 70
     8
  9
$DIMBLK
  1

  9
$DIMASO
 70
     1
  9
$DIMSHO
 70
     1
  9
$DIMPOST
  1

  9
$DIMAPOST
  1

  9
$DIMALT
 70
     0
  9
$DIMALTD
 70
     3
  9
$DIMALTF
 40
0.03937007874016
  9
$DIMLFAC
 40
1.0
  9
$DIMTOFL
 70
     1
  9
$DIMTVP
 40
0.0
  9
$DIMTIX
 70
     0
  9
$DIMSOXD
 70
     0
  9
$DIMSAH
 70
     0
  9
$DIMBLK1
  1

  9
$DIMBLK2
  1

  9
$DIMSTYLE
  2
ISO-25
  9
$DIMCLRD
 70
     0
  9
$DIMCLRE
 70
     0
  9
$DIMCLRT
 70
     0
  9
$DIMTFAC
 40
1.0
  9
$DIMGAP
 40
0.625
  9
$DIMJUST
 70
     0
  9
$DIMSD1
 70
     0
  9
$DIMSD2
 70
     0
  9
$DIMTOLJ
 70
     0
  9
$DIMTZIN
 70
     8
  9
$DIMALTZ
 70
     0
  9
$DIMALTTZ
 70
     0
  9
$DIMUPT
 70
     0
  9
$DIMDEC
 70
     2
  9
$DIMTDEC
 70
     2
  9
$DIMALTU
 70
     2
  9
$DIMALTTD
 70
     3
  9
$DIMTXSTY
  7
Standard
  9
$DIMAUNIT
 70
     0
  9
$DIMADEC
 70
     0
  9
$DIMALTRND
 40
0.0
  9
$DIMAZIN
 70
     0
  9
$DIMDSEP
 70
    44
  9
$DIMATFIT
 70
     3
  9
$DIMFRAC
 70
     0
  9
$DIMLDRBLK
  1

  9
$DIMLUNIT
 70
     2
  9
$DIMLWD
 70
    -2
  9
$DIMLWE
 70
    -2
  9
$DIMTMOVE
 70
     0
  9
$LUNITS
 70
     2
  9
$LUPREC
 70
     4
  9
$SKETCHINC
 40
1.0
  9
$FILLETRAD
 40
10.0
  9
$AUNITS
 70
     0
  9
$AUPREC
 70
     0
  9
$MENU
  1
.
  9
$ELEVATION
 40
0.0
  9
$PELEVATION
 40
0.0
  9
$THICKNESS
 40
0.0
  9
$LIMCHECK
 70
     0
  9
$CHAMFERA
 40
10.0
  9
$CHAMFERB
 40
10.0
  9
$CHAMFERC
 40
20.0
  9
$CHAMFERD
 40
0.0
  9
$SKPOLY
 70
     0
  9
$TDCREATE
 40
2455525.407742465
  9
$TDUCREATE
 40
2455525.366075798
  9
$TDUPDATE
 40
2455525.448746667
  9
$TDUUPDATE
 40
2455525.407079999
  9
$TDINDWG
 40
0.0006126968
  9
$TDUSRTIMER
 40
0.0006126968
  9
$USRTIMER
 70
     1
  9
$ANGBASE
 50
0.0
  9
$ANGDIR
 70
     0
  9
$PDMODE
 70
     0
  9
$PDSIZE
 40
0.0
  9
$PLINEWID
 40
0.0
  9
$SPLFRAME
 70
     0
  9
$SPLINETYPE
 70
     6
  9
$SPLINESEGS
 70
     8
  9
$HANDSEED
  5
19B
  9
$SURFTAB1
 70
     6
  9
$SURFTAB2
 70
     6
  9
$SURFTYPE
 70
     6
  9
$SURFU
 70
     6
  9
$SURFV
 70
     6
  9
$UCSBASE
  2

  9
$UCSNAME
  2

  9
$UCSORG
 10
0.0
 20
0.0
 30
0.0
  9
$UCSXDIR
 10
1.0
 20
0.0
 30
0.0
  9
$UCSYDIR
 10
0.0
 20
1.0
 30
0.0
  9
$UCSORTHOREF
  2

  9
$UCSORTHOVIEW
 70
     0
  9
$UCSORGTOP
 10
0.0
 20
0.0
 30
0.0
  9
$UCSORGBOTTOM
 10
0.0
 20
0.0
 30
0.0
  9
$UCSORGLEFT
 10
0.0
 20
0.0
 30
0.0
  9
$UCSORGRIGHT
 10
0.0
 20
0.0
 30
0.0
  9
$UCSORGFRONT
 10
0.0
 20
0.0
 30
0.0
  9
$UCSORGBACK
 10
0.0
 20
0.0
 30
0.0
  9
$PUCSBASE
  2

  9
$PUCSNAME
  2

  9
$PUCSORG
 10
0.0
 20
0.0
 30
0.0
  9
$PUCSXDIR
 10
1.0
 20
0.0
 30
0.0
  9
$PUCSYDIR
 10
0.0
 20
1.0
 30
0.0
  9
$PUCSORTHOREF
  2

  9
$PUCSORTHOVIEW
 70
     0
  9
$PUCSORGTOP
 10
0.0
 20
0.0
 30
0.0
  9
$PUCSORGBOTTOM
 10
0.0
 20
0.0
 30
0.0
  9
$PUCSORGLEFT
 10
0.0
 20
0.0
 30
0.0
  9
$PUCSORGRIGHT
 10
0.0
 20
0.0
 30
0.0
  9
$PUCSORGFRONT
 10
0.0
 20
0.0
 30
0.0
  9
$PUCSORGBACK
 10
0.0
 20
0.0
 30
0.0
  9
$USERI1
 70
     0
  9
$USERI2
 70
     0
  9
$USERI3
 70
     0
  9
$USERI4
 70
     0
  9
$USERI5
 70
     0
  9
$USERR1
 40
0.0
  9
$USERR2
 40
0.0
  9
$USERR3
 40
0.0
  9
$USERR4
 40
0.0
  9
$USERR5
 40
0.0
  9
$WORLDVIEW
 70
     1
  9
$SHADEDGE
 70
     3
  9
$SHADEDIF
 70
    70
  9
$TILEMODE
 70
     1
  9
$MAXACTVP
 70
    64
  9
$PINSBASE
 10
0.0
 20
0.0
 30
0.0
  9
$PLIMCHECK
 70
     0
  9
$PEXTMIN
 10
1.000000000000000E+20
 20
1.000000000000000E+20
 30
1.000000000000000E+20
  9
$PEXTMAX
 10
-1.000000000000000E+20
 20
-1.000000000000000E+20
 30
-1.000000000000000E+20
  9
$PLIMMIN
 10
0.0
 20
0.0
  9
$PLIMMAX
 10
420.0
 20
297.0
  9
$UNITMODE
 70
     0
  9
$VISRETAIN
 70
     1
  9
$PLINEGEN
 70
     0
  9
$PSLTSCALE
 70
     1
  9
$TREEDEPTH
 70
  3020
  9
$CMLSTYLE
  2
Standard
  9
$CMLJUST
 70
     0
  9
$CMLSCALE
 40
20.0
  9
$PROXYGRAPHICS
 70
     1
  9
$MEASUREMENT
 70
     1
  9
$CELWEIGHT
370
    -1
  9
$ENDCAPS
280
     0
  9
$JOINSTYLE
280
     0
  9
$LWDISPLAY
290
     0
  9
$INSUNITS
 70
     4
  9
$HYPERLINKBASE
  1

  9
$STYLESHEET
  1

  9
$XEDIT
290
     1
  9
$CEPSNTYPE
380
     0
  9
$PSTYLEMODE
290
     1
  9
$FINGERPRINTGUID
  2
{78040153-49DA-45E2-AA65-E633F284FC39}
  9
$VERSIONGUID
  2
{011934EE-4064-494E-BD24-5134CD6577DF}
  9
$EXTNAMES
290
     1
  9
$PSVPSCALE
 40
0.0
  9
$OLESTARTUP
290
     0
  0
ENDSEC
  0
SECTION
  2
CLASSES
  0
CLASS
  1
ACDBDICTIONARYWDFLT
  2
AcDbDictionaryWithDefault
  3
AutoCAD 2000
 90
        0
280
     0
281
     0
  0
CLASS
  1
VISUALSTYLE
  2
AcDbVisualStyle
  3
ObjectDBX Classes
 90
     4095
280
     0
281
     0
  0
CLASS
  1
DICTIONARYVAR
  2
AcDbDictionaryVar
  3
AutoCAD 2000
 90
        0
280
     0
281
     0
  0
CLASS
  1
ACDBPLACEHOLDER
  2
AcDbPlaceHolder
  3
AutoCAD 2000
 90
        0
280
     0
281
     0
  0
CLASS
  1
LAYOUT
  2
AcDbLayout
  3
AutoCAD 2000
 90
        0
280
     0
281
     0
  0
ENDSEC
  0
SECTION
  2
TABLES
  0
TABLE
  2
VPORT
  5
8
330
0
100
AcDbSymbolTable
 70
     2
  0
VPORT
  5
19A
330
8
100
AcDbSymbolTableRecord
100
AcDbViewportTableRecord
  2
*Active
 70
     0
 10
0.0
 20
0.0
 11
1.0
 21
1.0
 12
272.0095265191894
 22
370.394275050307
 13
0.0
 23
0.0
 14
10.0
 24
10.0
 15
10.0
 25
10.0
 16
0.0
 26
0.0
 36
1.0
 17
0.0
 27
0.0
 37
0.0
 40
360.820948519842
 41
1.906832298136645
 42
50.0
 43
0.0
 44
0.0
 50
0.0
 51
0.0
 71
     0
 72
   100
 73
     1
 74
     3
 75
     0
 76
     0
 77
     0
 78
     0
281
     0
 65
     1
110
0.0
120
0.0
130
0.0
111
1.0
121
0.0
131
0.0
112
0.0
122
1.0
132
0.0
 79
     0
146
0.0
  0
ENDTAB
  0
TABLE
  2
LTYPE
  5
5
330
0
100
AcDbSymbolTable
 70
     1
  0
LTYPE
  5
14
330
5
100
AcDbSymbolTableRecord
100
AcDbLinetypeTableRecord
  2
ByBlock
 70
     0
  3

 72
    65
 73
     0
 40
0.0
  0
LTYPE
  5
15
330
5
100
AcDbSymbolTableRecord
100
AcDbLinetypeTableRecord
  2
ByLayer
 70
     0
  3

 72
    65
 73
     0
 40
0.0
  0
LTYPE
  5
16
330
5
100
AcDbSymbolTableRecord
100
AcDbLinetypeTableRecord
  2
Continuous
 70
     0
  3
Solid line
 72
    65
 73
     0
 40
0.0
  0
ENDTAB
  0
TABLE
  2
LAYER
  5
2
330
0
100
AcDbSymbolTable
 70
     1
  0
LAYER
  5
10
330
2
100
AcDbSymbolTableRecord
100
AcDbLayerTableRecord
  2
0
 70
     0
 62
   106
  6
Continuous
370
     0
390
F
  0
ENDTAB
  0
TABLE
  2
STYLE
  5
3
330
0
100
AcDbSymbolTable
 70
     4
  0
STYLE
  5
11
330
3
100
AcDbSymbolTableRecord
100
AcDbTextStyleTableRecord
  2
Standard
 70
     0
 40
0.0
 41
1.0
 50
0.0
 71
     0
 42
2.5
  3
txt
  4

  0
STYLE
  5
3B
330
3
100
AcDbSymbolTableRecord
100
AcDbTextStyleTableRecord
  2
Default
 70
     0
 40
0.0
 41
1.0
 50
0.0
 71
     0
 42
0.2
  3
txt_____.ttf
  4

1001
ACAD
1000
txt
1071
        0
  0
STYLE
  5
3C
330
3
100
AcDbSymbolTableRecord
100
AcDbTextStyleTableRecord
  2
ISO
 70
     0
 40
0.0
 41
1.0
 50
0.0
 71
     0
 42
0.2
  3
txt_____.ttf
  4

1001
ACAD
1000
txt
1071
        0
  0
STYLE
  5
3D
330
3
100
AcDbSymbolTableRecord
100
AcDbTextStyleTableRecord
  2
GIANLU
 70
     0
 40
0.0
 41
1.0
 50
0.0
 71
     0
 42
0.2
  3
ARIAL.TTF
  4

1001
ACAD
1000
Arial
1071
        0
  0
ENDTAB
  0
TABLE
  2
VIEW
  5
6
330
0
100
AcDbSymbolTable
 70
     0
  0
ENDTAB
  0
TABLE
  2
UCS
  5
7
330
0
100
AcDbSymbolTable
 70
     0
  0
ENDTAB
  0
TABLE
  2
APPID
  5
9
330
0
100
AcDbSymbolTable
 70
     1
  0
APPID
  5
12
330
9
100
AcDbSymbolTableRecord
100
AcDbRegAppTableRecord
  2
ACAD
 70
     0
  0
ENDTAB
  0
TABLE
  2
DIMSTYLE
  5
A
330
0
100
AcDbSymbolTable
 70
     4
100
AcDbDimStyleTable
 71
     0
  0
DIMSTYLE
105
27
330
A
100
AcDbSymbolTableRecord
100
AcDbDimStyleTableRecord
  2
ISO-25
 70
     0
 41
2.5
 42
0.625
 43
3.75
 44
1.25
 73
     0
 74
     0
 77
     1
 78
     8
140
2.5
141
2.5
143
0.03937007874016
147
0.625
171
     3
172
     1
271
     2
272
     2
274
     3
278
    44
283
     0
284
     8
340
11
  0
DIMSTYLE
105
3E
330
A
100
AcDbSymbolTableRecord
100
AcDbDimStyleTableRecord
  2
Default
 70
     0
  3
<>
 41
4.375
 42
1.05
 44
2.1
 73
     0
 74
     0
 77
     1
 78
     8
140
3.5
146
0.4
147
1.75
178
     3
271
     2
272
     3
284
     8
340
3B
341
3F
342
3F
  0
DIMSTYLE
105
46
330
A
100
AcDbSymbolTableRecord
100
AcDbDimStyleTableRecord
  2
ISO
 70
     0
  3
<>
 41
4.375
 42
1.05
 44
2.1
 73
     0
 74
     0
 77
     1
 78
     8
140
3.5
146
0.4
147
1.75
178
     3
271
     2
272
     3
284
     8
340
3C
341
3F
342
3F
  0
DIMSTYLE
105
47
330
A
100
AcDbSymbolTableRecord
100
AcDbDimStyleTableRecord
  2
zucchetti_unico
 70
     0
  3
<>
 41
3.0
 42
0.9
 44
1.799999999999999
 73
     0
 74
     0
 77
     1
 78
     8
140
3.0
146
0.6
147
1.5
176
   104
177
     3
178
     3
271
     2
272
     2
284
     8
340
3D
  0
ENDTAB
  0
TABLE
  2
BLOCK_RECORD
  5
1
330
0
100
AcDbSymbolTable
 70
     6
  0
BLOCK_RECORD
  5
1F
330
1
100
AcDbSymbolTableRecord
100
AcDbBlockTableRecord
  2
*Model_Space
340
22
  0
BLOCK_RECORD
  5
1B
330
1
100
AcDbSymbolTableRecord
100
AcDbBlockTableRecord
  2
*Paper_Space
340
1E
  0
BLOCK_RECORD
  5
23
330
1
100
AcDbSymbolTableRecord
100
AcDbBlockTableRecord
  2
*Paper_Space0
340
26
  0
BLOCK_RECORD
  5
3F
330
1
100
AcDbSymbolTableRecord
100
AcDbBlockTableRecord
  2
_CLOSED
340
0
  0
BLOCK_RECORD
  5
48
330
1
100
AcDbSymbolTableRecord
100
AcDbBlockTableRecord
  2
a
340
0
102
{BLKREFS
331
95
102
}
  0
BLOCK_RECORD
  5
96
330
1
100
AcDbSymbolTableRecord
100
AcDbBlockTableRecord
  2
b
340
0
102
{BLKREFS
331
D1
102
}
  0
BLOCK_RECORD
  5
D2
330
1
100
AcDbSymbolTableRecord
100
AcDbBlockTableRecord
  2
c
340
0
102
{BLKREFS
331
12E
102
}
  0
BLOCK_RECORD
  5
12F
330
1
100
AcDbSymbolTableRecord
100
AcDbBlockTableRecord
  2
d
340
0
102
{BLKREFS
331
188
102
}
  0
ENDTAB
  0
ENDSEC
  0
SECTION
  2
BLOCKS
  0
BLOCK
  5
20
330
1F
100
AcDbEntity
  8
0
100
AcDbBlockBegin
  2
*Model_Space
 70
     0
 10
0.0
 20
0.0
 30
0.0
  3
*Model_Space
  1

  0
ENDBLK
  5
21
330
1F
100
AcDbEntity
  8
0
100
AcDbBlockEnd
  0
BLOCK
  5
1C
330
1B
100
AcDbEntity
 67
     1
  8
0
100
AcDbBlockBegin
  2
*Paper_Space
 70
     0
 10
0.0
 20
0.0
 30
0.0
  3
*Paper_Space
  1

  0
ENDBLK
  5
1D
330
1B
100
AcDbEntity
 67
     1
  8
0
100
AcDbBlockEnd
  0
BLOCK
  5
24
330
23
100
AcDbEntity
  8
0
100
AcDbBlockBegin
  2
*Paper_Space0
 70
     0
 10
0.0
 20
0.0
 30
0.0
  3
*Paper_Space0
  1

  0
ENDBLK
  5
25
330
23
100
AcDbEntity
  8
0
100
AcDbBlockEnd
  0
BLOCK
  5
40
330
3F
100
AcDbEntity
  8
0
100
AcDbBlockBegin
  2
_CLOSED
 70
     0
 10
0.0
 20
0.0
 30
0.0
  3
_CLOSED
  1

  0
LINE
  5
42
330
3F
100
AcDbEntity
  8
0
  6
ByBlock
 62
     0
370
    -2
100
AcDbLine
 10
-1.0
 20
0.166667
 30
0.0
 11
0.0
 21
0.0
 31
0.0
  0
LINE
  5
43
330
3F
100
AcDbEntity
  8
0
  6
ByBlock
 62
     0
370
    -2
100
AcDbLine
 10
0.0
 20
0.0
 30
0.0
 11
-1.0
 21
-0.166667
 31
0.0
  0
LINE
  5
44
330
3F
100
AcDbEntity
  8
0
  6
ByBlock
 62
     0
370
    -2
100
AcDbLine
 10
-1.0
 20
0.166667
 30
0.0
 11
-1.0
 21
-0.166667
 31
0.0
  0
LINE
  5
45
330
3F
100
AcDbEntity
  8
0
  6
ByBlock
 62
     0
370
    -2
100
AcDbLine
 10
0.0
 20
0.0
 30
0.0
 11
-1.0
 21
0.0
 31
0.0
  0
ENDBLK
  5
41
330
3F
100
AcDbEntity
  8
0
100
AcDbBlockEnd
  0
BLOCK
  5
93
330
48
100
AcDbEntity
  8
0
100
AcDbBlockBegin
  2
a
 70
     0
 10
155.3448638916015
 20
101.3182830810546
 30
0.0
  3
a
  1

  0
ARC
  5
49
330
48
100
AcDbEntity
  8
0
  6
Continuous
 62
     0
370
    30
100
AcDbCircle
 10
280.1250686645508
 20
388.7352600097656
 30
0.0
 40
3.499999999985974
100
AcDbArc
 50
98.2132107019742
 51
180.0
  0
ARC
  5
4A
330
48
100
AcDbEntity
  8
0
  6
Continuous
 62
     0
370
    30
100
AcDbCircle
 10
280.1250686645508
 20
388.7352600097656
 30
0.0
 40
3.499999999985988
100
AcDbArc
 50
81.78678929757932
 51
98.21321070108114
  0
ARC
  5
4B
330
48
100
AcDbEntity
  8
0
  6
Continuous
 62
     0
370
    30
100
AcDbCircle
 10
280.1250686645508
 20
388.7352600097656
 30
0.0
 40
3.499999999985974
100
AcDbArc
 50
278.2132107024206
 51
81.78678929847231
  0
ARC
  5
4C
330
48
100
AcDbEntity
  8
0
  6
Continuous
 62
     0
370
    30
100
AcDbCircle
 10
280.1250686645508
 20
388.7352600097656
 30
0.0
 40
3.499999999985988
100
AcDbArc
 50
261.7867892980258
 51
278.2132107015276
  0
ARC
  5
4D
330
48
100
AcDbEntity
  8
0
  6
Continuous
 62
     0
370
    30
100
AcDbCircle
 10
280.1250686645508
 20
388.7352600097656
 30
0.0
 40
3.499999999985974
100
AcDbArc
 50
180.000000000893
 51
261.7867892989189
  0
LINE
  5
4E
330
48
100
AcDbEntity
  8
0
  6
Continuous
 62
     0
370
    30
100
AcDbLine
 10
279.6250686645507
 20
388.7352600097656
 30
0.0
 11
279.6250686645507
 21
392.1993616248892
 31
0.0
  0
LINE
  5
4F
330
48
100
AcDbEntity
  8
0
  6
Continuous
 62
     0
370
     0
100
AcDbLine
 10
276.6250686645648
 20
388.7352600097656
 30
0.0
 11
279.6250686645507
 21
388.7352600097656
 31
0.0
  0
LINE
  5
50
330
48
100
AcDbEntity
  8
0
  6
Continuous
 62
     0
370
    30
100
AcDbLine
 10
279.6250686645507
 20
385.271158394642
 30
0.0
 11
279.6250686645507
 21
388.7352600097656
 31
0.0
  0
LINE
  5
51
330
48
100
AcDbEntity
  8
0
  6
Continuous
 62
     0
370
    30
100
AcDbLine
 10
280.6250686645507
 20
392.1993616248892
 30
0.0
 11
280.6250686645507
 21
385.271158394642
 31
0.0
  0
ARC
  5
52
330
48
100
AcDbEntity
  8
0
  6
Continuous
 62
     0
370
    30
100
AcDbCircle
 10
280.1250686645508
 20
448.7352600097656
 30
0.0
 40
3.499999999985974
100
AcDbArc
 50
98.2132107019742
 51
180.0
  0
ARC
  5
53
330
48
100
AcDbEntity
  8
0
  6
Continuous
 62
     0
370
    30
100
AcDbCircle
 10
280.1250686645508
 20
448.7352600097656
 30
0.0
 40
3.499999999985988
100
AcDbArc
 50
81.78678929757932
 51
98.21321070108114
  0
ARC
  5
54
330
48
100
AcDbEntity
  8
0
  6
Continuous
 62
     0
370
    30
100
AcDbCircle
 10
280.1250686645508
 20
448.7352600097656
 30
0.0
 40
3.499999999985974
100
AcDbArc
 50
278.2132107024206
 51
81.78678929847231
  0
ARC
  5
55
330
48
100
AcDbEntity
  8
0
  6
Continuous
 62
     0
370
    30
100
AcDbCircle
 10
280.1250686645508
 20
448.7352600097656
 30
0.0
 40
3.499999999985988
100
AcDbArc
 50
261.7867892980258
 51
278.2132107015277
  0
ARC
  5
56
330
48
100
AcDbEntity
  8
0
  6
Continuous
 62
     0
370
    30
100
AcDbCircle
 10
280.1250686645508
 20
448.7352600097656
 30
0.0
 40
3.499999999985974
100
AcDbArc
 50
180.000000000893
 51
261.7867892989188
  0
LINE
  5
57
330
48
100
AcDbEntity
  8
0
  6
Continuous
 62
     0
370
    30
100
AcDbLine
 10
279.6250686645507
 20
448.7352600097656
 30
0.0
 11
279.6250686645507
 21
452.1993616248892
 31
0.0
  0
LINE
  5
58
330
48
100
AcDbEntity
  8
0
  6
Continuous
 62
     0
370
     0
100
AcDbLine
 10
276.6250686645648
 20
448.7352600097656
 30
0.0
 11
279.6250686645507
 21
448.7352600097656
 31
0.0
  0
LINE
  5
59
330
48
100
AcDbEntity
  8
0
  6
Continuous
 62
     0
370
    30
100
AcDbLine
 10
279.6250686645507
 20
445.271158394642
 30
0.0
 11
279.6250686645507
 21
448.7352600097656
 31
0.0
  0
LINE
  5
5A
330
48
100
AcDbEntity
  8
0
  6
Continuous
 62
     0
370
    30
100
AcDbLine
 10
280.6250686645507
 20
452.1993616248892
 30
0.0
 11
280.6250686645507
 21
445.271158394642
 31
0.0
  0
ARC
  5
5B
330
48
100
AcDbEntity
  8
0
  6
Continuous
 62
     0
370
     0
100
AcDbCircle
 10
280.1250686645508
 20
454.4852600097656
 30
0.0
 40
94.0723633560511
100
AcDbArc
 50
0.0
 51
179.9999999995534
  0
ARC
  5
5C
330
48
100
AcDbEntity
  8
0
  6
Continuous
 62
     0
370
     0
100
AcDbCircle
 10
280.1250686645508
 20
454.4852600097656
 30
0.0
 40
94.0723633560511
100
AcDbArc
 50
179.9999999995534
 51
359.9999999991069
  0
ARC
  5
5D
330
48
100
AcDbEntity
  8
0
  6
Continuous
 62
     0
370
    30
100
AcDbCircle
 10
280.1249392536964
 20
388.9348770720916
 30
0.0
 40
4.049186838879855
100
AcDbArc
 50
177.0308284160637
 51
357.1742837856107
  0
ARC
  5
5E
330
48
100
AcDbEntity
  8
0
  6
Continuous
 62
     0
370
    30
100
AcDbCircle
 10
280.125448927733
 20
388.9449470768656
 30
0.0
 40
4.049186769991958
100
AcDbArc
 50
357.0316113227372
 51
177.1735008789368
  0
ARC
  5
5F
330
48
100
AcDbEntity
  8
0
  6
Continuous
 62
     0
370
    30
100
AcDbCircle
 10
280.1251346905522
 20
448.7603058712344
 30
0.0
 40
5.689170002282968
100
AcDbArc
 50
179.7476792114166
 51
229.0980915463676
  0
ARC
  5
60
330
48
100
AcDbEntity
  8
0
  6
Continuous
 62
     0
370
    30
100
AcDbCircle
 10
280.1250354958506
 20
448.760281040469
 30
0.0
 40
5.689136980141523
100
AcDbArc
 50
310.9018273199064
 51
359.748010272026
  0
ARC
  5
61
330
48
100
AcDbEntity
  8
0
  6
Continuous
 62
     0
370
    30
100
AcDbCircle
 10
280.1250689160152
 20
448.7603693283862
 30
0.0
 40
5.689103949280968
100
AcDbArc
 50
359.7471196405439
 51
179.7483153739531
  0
ARC
  5
62
330
48
100
AcDbEntity
  8
0
  6
Continuous
 62
     0
370
    30
100
AcDbCircle
 10
280.1250686645508
 20
454.4852600097656
 30
0.0
 40
94.99999999961916
100
AcDbArc
 50
0.0
 51
179.9999999995534
  0
ARC
  5
63
330
48
100
AcDbEntity
  8
0
  6
Continuous
 62
     0
370
    30
100
AcDbCircle
 10
280.1250686645508
 20
454.4852600097656
 30
0.0
 40
94.99999999961916
100
AcDbArc
 50
179.9999999995534
 51
359.9999999991069
  0
ARC
  5
64
330
48
100
AcDbEntity
  8
0
  6
Continuous
 62
     0
370
    30
100
AcDbCircle
 10
280.1250686645508
 20
418.7352600097656
 30
0.0
 40
19.0
100
AcDbArc
 50
270.0
 51
89.99999999955349
  0
ARC
  5
65
330
48
100
AcDbEntity
  8
0
  6
Continuous
 62
     0
370
    30
100
AcDbCircle
 10
280.1250686645508
 20
418.7352600097656
 30
0.0
 40
19.0
100
AcDbArc
 50
89.99999999955349
 51
269.9999999991069
  0
ARC
  5
66
330
48
100
AcDbEntity
  8
0
  6
Continuous
 62
     0
370
    30
100
AcDbCircle
 10
280.1250686645508
 20
418.7352600097656
 30
0.0
 40
19.5
100
AcDbArc
 50
89.99999999955349
 51
269.9999999991069
  0
ARC
  5
67
330
48
100
AcDbEntity
  8
0
  6
Continuous
 62
     0
370
    30
100
AcDbCircle
 10
280.1250686645508
 20
418.7352600097656
 30
0.0
 40
19.5
100
AcDbArc
 50
270.0
 51
89.99999999955349
  0
LINE
  5
68
330
48
100
AcDbEntity
  8
0
  6
Continuous
 62
     0
370
    30
100
AcDbLine
 10
276.1750686645508
 20
444.2352600097656
 30
0.0
 11
280.1250686645508
 21
444.2352600097656
 31
0.0
  0
LINE
  5
69
330
48
100
AcDbEntity
  8
0
  6
Continuous
 62
     0
370
    30
100
AcDbLine
 10
280.1250686645508
 20
444.2352600097656
 30
0.0
 11
284.0750686645507
 21
444.2352600097656
 31
0.0
  0
LINE
  5
6A
330
48
100
AcDbEntity
  8
0
  6
Continuous
 62
     0
370
    30
100
AcDbLine
 10
280.1250686645508
 20
444.7352600097656
 30
0.0
 11
283.5750686645507
 21
444.7352600097656
 31
0.0
  0
LINE
  5
6B
330
48
100
AcDbEntity
  8
0
  6
Continuous
 62
     0
370
    30
100
AcDbLine
 10
276.6750686645508
 20
444.7352600097656
 30
0.0
 11
280.1250686645508
 21
444.7352600097656
 31
0.0
  0
LINE
  5
6C
330
48
100
AcDbEntity
  8
0
  6
Continuous
 62
     0
370
    30
100
AcDbLine
 10
276.6750109781847
 20
444.7352023755902
 30
0.0
 11
276.1750692507286
 21
444.235260655697
 31
0.0
  0
LINE
  5
6D
330
48
100
AcDbEntity
  8
0
  6
Continuous
 62
     0
370
    30
100
AcDbLine
 10
283.5751263509168
 20
444.7352023755903
 30
0.0
 11
284.0750681022859
 21
444.2352606317839
 31
0.0
  0
LINE
  5
6E
330
48
100
AcDbEntity
  8
0
  6
Continuous
 62
     0
370
    30
100
AcDbLine
 10
284.0750686645508
 20
437.8309807141656
 30
0.0
 11
284.0750686645508
 21
444.2352600097656
 31
0.0
  0
LINE
  5
6F
330
48
100
AcDbEntity
  8
0
  6
Continuous
 62
     0
370
    30
100
AcDbLine
 10
276.1750686645508
 20
437.8309807141656
 30
0.0
 11
276.1750686645508
 21
444.2352600097656
 31
0.0
  0
ARC
  5
70
330
48
100
AcDbEntity
  8
0
  6
Continuous
 62
     0
370
    30
100
AcDbCircle
 10
280.1250686645508
 20
490.2352600097656
 30
0.0
 40
21.75
100
AcDbArc
 50
104.3681920201058
 51
182.4276480593035
  0
ARC
  5
71
330
48
100
AcDbEntity
  8
0
  6
Continuous
 62
     0
370
    30
100
AcDbCircle
 10
280.1250686645508
 20
490.2352600097656
 30
0.0
 40
21.75
100
AcDbArc
 50
2.427648058856662
 51
80.48710409805462
  0
ELLIPSE
  5
72
330
48
100
AcDbEntity
  8
0
  6
Continuous
 62
     0
370
     0
100
AcDbEllipse
 10
278.8724889636709
 20
519.7801431562343
 30
0.0
 11
3.583737212865701
 21
0.1519354963723998
 31
0.0
210
0.0
220
0.0
230
-1.0
 40
0.1736481776669269
 41
5.477963765619188
 42
7.853981633974473
  0
ELLIPSE
  5
73
330
48
100
AcDbEntity
  8
0
  6
Continuous
 62
     0
370
     0
100
AcDbEllipse
 10
278.8724889636709
 20
519.7801431562343
 30
0.0
 11
3.583737212865701
 21
0.1519354963723998
 31
0.0
210
0.0
220
0.0
230
-1.0
 40
0.1736481776669269
 41
1.570796326794897
 42
3.946813971440692
  0
ELLIPSE
  5
74
330
48
100
AcDbEntity
  8
0
  6
Continuous
 62
     0
370
     0
100
AcDbEllipse
 10
278.9210937996789
 20
518.6336898014492
 30
0.0
 11
4.495961280115916
 21
0.1906099884537211
 31
0.0
210
0.0
220
0.0
230
-1.0
 40
0.1736481776669319
 41
6.283151271599453
 42
7.853981633974482
  0
ELLIPSE
  5
75
330
48
100
AcDbEntity
  8
0
  6
Continuous
 62
     0
370
     0
100
AcDbEllipse
 10
278.9210937996789
 20
518.6336898014492
 30
0.0
 11
4.495961280115916
 21
0.1906099884537211
 31
0.0
210
0.0
220
0.0
230
-1.0
 40
0.1736481776669319
 41
1.570796326794898
 42
3.141626689174533
  0
LWPOLYLINE
  5
76
330
48
100
AcDbEntity
  8
0
  6
Continuous
 62
     0
370
    30
100
AcDbPolyline
 90
       40
 70
     0
 43
0.0
 10
301.8555603027343
 20
491.1565551757812
 10
301.8608093261718
 20
489.4979553222656
 10
301.7359313964843
 20
487.84228515625
 10
301.4809265136718
 20
486.1979064941406
 10
301.0964355468749
 20
484.5734558105468
 10
300.5832519531249
 20
482.9776000976562
 10
299.9423522949218
 20
481.4192504882812
 10
299.1756896972656
 20
479.9075622558594
 10
298.2854614257812
 20
478.4519042968749
 10
297.2744445800781
 20
477.0617980957031
 10
296.1471557617187
 20
475.7470397949218
 10
294.9083251953124
 20
474.5176086425781
 10
293.5632629394531
 20
473.3833312988281
 10
292.1195373535156
 20
472.3539428710937
 10
290.58544921875
 20
471.4389343261719
 10
288.9707641601562
 20
470.6473083496093
 10
287.2865295410156
 20
469.9873352050781
 10
285.5453491210937
 20
469.4657897949219
 10
283.7607116699219
 20
469.0885925292969
 10
281.9468688964843
 20
468.8600769042968
 10
280.1189880371093
 20
468.7825317382812
 10
278.2923278808593
 20
468.8568420410156
 10
276.4820861816406
 20
469.0814819335937
 10
274.7030639648437
 20
469.453857421875
 10
272.9690246582031
 20
469.9689331054687
 10
271.2932739257812
 20
470.6211242675781
 10
269.6872253417968
 20
471.4029846191406
 10
268.1613464355468
 20
472.3063354492187
 10
266.7252807617187
 20
473.3227539062499
 10
265.3864746093749
 20
474.4429626464843
 10
264.1519165039062
 20
475.6575317382812
 10
263.0271911621093
 20
476.9570922851563
 10
262.0169372558593
 20
478.3322143554687
 10
261.1250610351562
 20
479.7735595703125
 10
260.3545837402343
 20
481.2720947265624
 10
259.7081298828125
 20
482.8187561035156
 10
259.1874694824218
 20
484.4048461914062
 10
258.7943115234375
 20
486.0216979980468
 10
258.5297546386718
 20
487.6609191894531
 10
258.3945922851562
 20
489.3139648437499
  0
LWPOLYLINE
  5
77
330
48
100
AcDbEntity
  8
0
  6
Continuous
 62
     0
370
    30
100
AcDbPolyline
 90
       13
 70
     0
 43
0.0
 10
281.0150451660156
 20
469.2432556152343
 10
280.4308471679687
 20
469.2339172363281
 10
279.8867797851562
 20
469.2545166015625
 10
279.4198913574218
 20
469.2996826171874
 10
279.0611267089843
 20
469.3608703613281
 10
278.8333740234374
 20
469.4291687011719
 10
278.7525329589843
 20
469.4958190917969
 10
278.8244323730468
 20
469.5550231933593
 10
279.0460815429687
 20
469.6036071777343
 10
279.4014892578124
 20
469.6424865722656
 10
279.8674621582031
 20
469.6740417480468
 10
280.4107666015625
 20
469.7015075683593
 10
280.9945068359374
 20
469.7272949218749
  0
LWPOLYLINE
  5
78
330
48
100
AcDbEntity
  8
0
  6
Continuous
 62
     0
370
    30
100
AcDbPolyline
 90
       13
 70
     0
 43
0.0
 10
280.9945068359374
 20
469.7272949218749
 10
281.5783081054687
 20
469.7510070800781
 10
282.1222839355468
 20
469.7696533203124
 10
282.5889282226562
 20
469.777587890625
 10
282.9464416503906
 20
469.7690124511718
 10
283.1713562011718
 20
469.7392883300781
 10
283.2481689453124
 20
469.6864624023437
 10
283.1730041503906
 20
469.6130981445312
 10
282.9521179199218
 20
469.5258789062499
 10
282.599609375
 20
469.4345092773438
 10
282.1383972167968
 20
469.3499450683593
 10
281.5979309082031
 20
469.2833862304687
 10
281.0150451660156
 20
469.2432556152343
  0
LWPOLYLINE
  5
79
330
48
100
AcDbEntity
  8
0
  6
Continuous
 62
     0
370
     0
100
AcDbPolyline
 90
       25
 70
     0
 43
0.0
 10
283.4457397460937
 20
509.3157348632812
 10
283.3983459472656
 20
508.7886047363281
 10
283.3451538085937
 20
508.2618713378906
 10
283.2861633300781
 20
507.7356567382812
 10
283.2213134765625
 20
507.2101440429687
 10
283.1504821777343
 20
506.6854858398437
 10
283.0735168457031
 20
506.1618957519531
 10
282.9902954101562
 20
505.6396179199218
 10
282.9006042480468
 20
505.1188659667968
 10
282.8041076660156
 20
504.5999755859375
 10
282.7005004882812
 20
504.0832824707031
 10
282.5893249511718
 20
503.5692138671874
 10
282.4700012207031
 20
503.058349609375
 10
282.3419189453125
 20
502.5513000488281
 10
282.2041320800781
 20
502.0489501953124
 10
282.0555725097656
 20
501.5524597167968
 10
281.8947753906249
 20
501.0633239746093
 10
281.7198791503906
 20
500.5837402343749
 10
281.5284118652343
 20
500.1168518066406
 10
281.3169860839843
 20
499.6673583984375
 10
281.0811462402343
 20
499.2428283691406
 10
280.8149719238281
 20
498.8556823730468
 10
280.5115661621093
 20
498.5271606445312
 10
280.1665954589843
 20
498.2920227050781
 10
279.7876281738281
 20
498.1946716308593
  0
LWPOLYLINE
  5
7A
330
48
100
AcDbEntity
  8
0
  6
Continuous
 62
     0
370
     0
100
AcDbPolyline
 90
        6
 70
     0
 43
0.0
 10
283.7268981933593
 20
511.515625
 10
283.7137145996093
 20
511.2774353027344
 10
283.6643066406249
 20
510.9272766113281
 10
283.5915222167968
 20
510.4733581542968
 10
283.5123291015625
 20
509.9299316406249
 10
283.4457397460937
 20
509.3157348632812
  0
LWPOLYLINE
  5
7B
330
48
100
AcDbEntity
  8
0
  6
Continuous
 62
     0
370
     0
100
AcDbPolyline
 90
        6
 70
     0
 43
0.0
 10
275.2013549804687
 20
508.9662170410156
 10
275.0830078124999
 20
509.5725402832031
 10
274.9581298828124
 20
510.1073303222656
 10
274.8471679687499
 20
510.553466796875
 10
274.768310546875
 20
510.8981933593749
 10
274.7350158691406
 20
511.1343994140624
  0
LWPOLYLINE
  5
7C
330
48
100
AcDbEntity
  8
0
  6
Continuous
 62
     0
370
     0
100
AcDbPolyline
 90
       25
 70
     0
 43
0.0
 10
279.7876281738281
 20
498.1946716308593
 10
279.4017639160156
 20
498.2595825195312
 10
279.0381469726562
 20
498.4646911621093
 10
278.7080078125
 20
498.766357421875
 10
278.4100036621093
 20
499.1295776367187
 10
278.1390991210937
 20
499.5326232910156
 10
277.8903808593749
 20
499.9626159667968
 10
277.6600952148437
 20
500.41162109375
 10
277.4452209472656
 20
500.8746948242187
 10
277.2436218261718
 20
501.3484497070312
 10
277.0535583496093
 20
501.8305969238281
 10
276.8737487792968
 20
502.3194580078125
 10
276.7031860351562
 20
502.8138427734375
 10
276.5410766601562
 20
503.3128051757812
 10
276.3868103027343
 20
503.8156127929688
 10
276.2398071289062
 20
504.3216552734374
 10
276.0997619628906
 20
504.8305358886718
 10
275.9662780761718
 20
505.3418273925781
 10
275.8391723632812
 20
505.8551940917968
 10
275.7182006835937
 20
506.3703918457031
 10
275.6032104492187
 20
506.8871459960937
 10
275.4940795898437
 20
507.4053039550781
 10
275.3907775878906
 20
507.9246215820312
 10
275.2931823730468
 20
508.4450073242187
 10
275.2013549804687
 20
508.9662170410156
  0
ARC
  5
7D
330
48
100
AcDbEntity
  8
0
  6
Continuous
 62
     0
370
     0
100
AcDbCircle
 10
280.1250686645508
 20
490.2352600097655
 30
0.0
 40
20.22127512455449
100
AcDbArc
 50
109.3867603676927
 51
75.46853575046752
  0
LWPOLYLINE
  5
7E
330
48
100
AcDbEntity
  8
0
  6
Continuous
 62
     0
370
     0
100
AcDbPolyline
 90
        5
 70
     0
 43
0.0
 10
285.1988220214843
 20
509.8096618652343
 10
285.2561645507812
 20
509.6824035644531
 10
285.23583984375
 20
509.4659118652343
 10
285.1825561523437
 20
509.1686401367187
 10
285.1609497070312
 20
508.8023376464843
  0
ARC
  5
7F
330
48
100
AcDbEntity
  8
0
  6
Continuous
 62
     0
370
     0
100
AcDbCircle
 10
280.1250686645508
 20
490.2352600097654
 30
0.0
 40
19.23789002945559
100
AcDbArc
 50
110.0303478043702
 51
74.82494831378996
  0
LWPOLYLINE
  5
80
330
48
100
AcDbEntity
  8
0
  6
Continuous
 62
     0
370
     0
100
AcDbPolyline
 90
        5
 70
     0
 43
0.0
 10
273.5357360839843
 20
508.3094787597656
 10
273.4832153320312
 20
508.6726379394531
 10
273.4049682617187
 20
508.96435546875
 10
273.3663940429687
 20
509.1783142089844
 10
273.4127502441406
 20
509.3099670410156
  0
LWPOLYLINE
  5
81
330
48
100
AcDbEntity
  8
0
  6
Continuous
 62
     0
370
     0
100
AcDbPolyline
 90
       25
 70
     0
 43
0.0
 10
285.1609497070312
 20
508.8023376464843
 10
285.0849609375
 20
508.2749938964844
 10
285.0008239746093
 20
507.7481384277343
 10
284.9085083007812
 20
507.2218627929687
 10
284.8078918457031
 20
506.6963195800781
 10
284.6988830566406
 20
506.1717529296875
 10
284.5812683105468
 20
505.6482849121094
 10
284.4548645019531
 20
505.1261901855468
 10
284.3192749023437
 20
504.6056518554687
 10
284.1741943359375
 20
504.0870361328124
 10
284.0191040039062
 20
503.5706481933593
 10
283.8533630371093
 20
503.0569152832031
 10
283.67626953125
 20
502.5463562011719
 10
283.4867858886718
 20
502.0396423339843
 10
283.2837829589843
 20
501.5375671386719
 10
283.0656433105468
 20
501.041259765625
 10
282.8304138183593
 20
500.5522460937499
 10
282.5754699707031
 20
500.0726013183593
 10
282.29736328125
 20
499.6054077148437
 10
281.991455078125
 20
499.1553039550781
 10
281.6515808105468
 20
498.7296142578125
 10
281.2695922851562
 20
498.3406372070312
 10
280.836181640625
 20
498.0092773437499
 10
280.3457641601562
 20
497.7698364257812
 10
279.8099975585937
 20
497.6665649414062
  0
LWPOLYLINE
  5
82
330
48
100
AcDbEntity
  8
0
  6
Continuous
 62
     0
370
     0
100
AcDbPolyline
 90
       25
 70
     0
 43
0.0
 10
279.8099975585937
 20
497.6665649414062
 10
279.2674560546875
 20
497.7241210937499
 10
278.7585144042968
 20
497.9211730957031
 10
278.2986450195312
 20
498.2146911621093
 10
277.8850708007812
 20
498.5699462890624
 10
277.5103759765625
 20
498.9653015136719
 10
277.16748046875
 20
499.3879089355468
 10
276.8508300781249
 20
499.8298950195312
 10
276.5562133789062
 20
500.2862548828125
 10
276.2804260253906
 20
500.7536010742187
 10
276.0210876464843
 20
501.2296752929687
 10
275.7762756347656
 20
501.7127380371094
 10
275.5446166992187
 20
502.2016296386718
 10
275.3249206542968
 20
502.6953430175781
 10
275.1163024902343
 20
503.1932067871093
 10
274.9180603027344
 20
503.6946105957031
 10
274.7295837402343
 20
504.1990966796874
 10
274.5504760742187
 20
504.7062683105468
 10
274.3803100585937
 20
505.2158203124999
 10
274.2188110351562
 20
505.7274475097655
 10
274.0657958984375
 20
506.2409057617187
 10
273.9210815429687
 20
506.7560424804687
 10
273.7845458984375
 20
507.2726135253906
 10
273.6560974121093
 20
507.7904663085937
 10
273.5357360839843
 20
508.3094787597656
  0
LWPOLYLINE
  5
83
330
48
100
AcDbEntity
  8
0
  6
Continuous
 62
     0
370
     0
100
AcDbPolyline
 90
        7
 70
     0
 43
0.0
 10
285.1988220214843
 20
509.8096618652343
 10
285.1236877441406
 20
509.8900756835937
 10
285.0095214843749
 20
509.9765624999999
 10
284.8613281249999
 20
510.0674438476562
 10
284.6833801269531
 20
510.1608581542969
 10
284.4793701171875
 20
510.25537109375
 10
284.2496643066406
 20
510.3498229980468
  0
LWPOLYLINE
  5
84
330
48
100
AcDbEntity
  8
0
  6
Continuous
 62
     0
370
     0
100
AcDbPolyline
 90
        5
 70
     0
 43
0.0
 10
274.3030700683593
 20
509.9237976074219
 10
273.9850769042968
 20
509.7554626464844
 10
273.7243347167968
 20
509.5935668945312
 10
273.5280456542968
 20
509.441436767578
 10
273.4127502441406
 20
509.3099670410156
  0
ELLIPSE
  5
85
330
48
100
AcDbEntity
  8
0
  6
Continuous
 62
     0
370
     0
100
AcDbEllipse
 10
272.754903047128
 20
511.1794257164429
 30
0.0
 11
1.815489356104888
 21
-0.8390461238036078
 31
0.0
210
0.0
220
0.0
230
1.0
 40
0.9825427298844521
 41
5.474872054432507
 42
6.22581229089678
  0
ELLIPSE
  5
86
330
48
100
AcDbEntity
  8
0
  6
Continuous
 62
     0
370
     0
100
AcDbEllipse
 10
285.6960833512038
 20
511.7280777342542
 30
0.0
 11
1.737958262492434
 21
0.9896974678326071
 31
0.0
210
0.0
220
0.0
230
1.0
 40
0.9825427298844523
 41
3.07917567238838
 42
3.949905906336862
  0
ELLIPSE
  5
87
330
48
100
AcDbEntity
  8
0
  6
Continuous
 62
     0
370
     0
100
AcDbEllipse
 10
285.283699621372
 20
509.2549042534984
 30
0.0
 11
-1.981660419572081
 21
0.2702257972536923
 31
0.0
210
0.0
220
0.0
230
-1.0
 40
0.232608095521274
 41
4.742631158785801
 42
5.867062445776793
  0
LINE
  5
88
330
48
100
AcDbEntity
  8
0
  6
Continuous
 62
     0
370
     0
100
AcDbLine
 10
279.7876226746886
 20
498.1946755517203
 30
0.0
 11
279.8100127952589
 21
497.6665546701365
 31
0.0
  0
ELLIPSE
  5
89
330
48
100
AcDbEntity
  8
0
  6
Continuous
 62
     0
370
     0
100
AcDbEllipse
 10
273.3751352080358
 20
508.7500308384703
 30
0.0
 11
-1.95167772270375
 21
-0.4369829135125709
 31
0.0
210
0.0
220
0.0
230
-1.0
 40
0.2326080955212591
 41
3.557715514992611
 42
4.682146801983581
  0
ARC
  5
8A
330
48
100
AcDbEntity
  8
0
  6
Continuous
 62
     0
370
    30
100
AcDbCircle
 10
272.9617017744671
 20
511.0869841670881
 30
0.0
 40
1.773948011393904
100
AcDbArc
 50
331.4616603431667
 51
1.531684575023293
  0
ARC
  5
8B
330
48
100
AcDbEntity
  8
0
  6
Continuous
 62
     0
370
    30
100
AcDbCircle
 10
285.4986439376952
 20
511.6187272662295
 30
0.0
 40
1.774754944739144
100
AcDbArc
 50
183.3305899322592
 51
213.3876478133465
  0
LWPOLYLINE
  5
8C
330
48
100
AcDbEntity
  8
0
  6
Continuous
 62
     0
370
    30
100
AcDbPolyline
 90
       17
 70
     0
 43
0.0
 10
284.0171813964843
 20
510.6423339843749
 10
284.0610656738281
 20
510.5782775878906
 10
284.1075744628906
 20
510.5160827636718
 10
284.1564331054687
 20
510.4561157226562
 10
284.2067260742187
 20
510.3993530273437
 10
284.25146484375
 20
510.3526611328125
 10
284.2322692871093
 20
510.3719177246094
 10
284.2335510253906
 20
510.3707275390624
 10
284.2733764648437
 20
510.3324584960937
 10
284.3099060058593
 20
510.2996826171875
 10
284.3394775390624
 20
510.2747802734374
 10
284.3601379394531
 20
510.2583618164062
 10
284.3760986328124
 20
510.2462768554687
 10
284.3883972167968
 20
510.2373657226562
 10
284.39697265625
 20
510.2314453125
 10
284.4019775390624
 20
510.2281188964844
 10
284.4036254882812
 20
510.22705078125
  0
LWPOLYLINE
  5
8D
330
48
100
AcDbEntity
  8
0
  6
Continuous
 62
     0
370
    30
100
AcDbPolyline
 90
        5
 70
     0
 43
0.0
 10
274.1704711914062
 20
509.7937316894531
 10
274.1887817382812
 20
509.8086547851562
 10
274.2546997070312
 20
509.8713073730468
 10
274.3766784667968
 20
510.01416015625
 10
274.5021667480468
 20
510.2067260742187
  0
LINE
  5
8E
330
48
100
AcDbEntity
  8
0
  6
Continuous
 62
     0
370
    30
100
AcDbLine
 10
283.7268978986147
 20
511.5159665402297
 30
0.0
 11
283.4170550797947
 21
518.8242997899029
 31
0.0
  0
LINE
  5
8F
330
48
100
AcDbEntity
  8
0
  6
Continuous
 62
     0
370
    30
100
AcDbLine
 10
274.7349753379612
 20
511.1347465732668
 30
0.0
 11
274.4251325195629
 21
518.4430798129954
 31
0.0
  0
LWPOLYLINE
  5
90
330
48
100
AcDbEntity
  8
0
  6
Continuous
 62
     0
370
    30
100
AcDbPolyline
 90
        9
 70
     0
 43
0.0
 10
283.4170532226562
 20
518.8241577148438
 10
283.3318481445312
 20
519.2351074218749
 10
283.1314086914062
 20
519.586669921875
 10
282.864013671875
 20
519.846923828125
 10
282.5817565917968
 20
520.0188598632812
 10
282.2989501953125
 20
520.1338500976562
 10
282.008056640625
 20
520.216796875
 10
281.6964721679687
 20
520.2809448242187
 10
281.3572082519531
 20
520.3315429687499
  0
LWPOLYLINE
  5
91
330
48
100
AcDbEntity
  8
0
  6
Continuous
 62
     0
370
    30
100
AcDbPolyline
 90
        9
 70
     0
 43
0.0
 10
274.4251403808593
 20
518.4429321289062
 10
274.4752502441406
 20
518.859619140625
 10
274.6452331542968
 20
519.2269287109374
 10
274.8896179199218
 20
519.5088500976562
 10
275.1563415527343
 20
519.7040405273437
 10
275.4284057617187
 20
519.8425903320312
 10
275.7112121582031
 20
519.9498291015625
 10
276.0162658691406
 20
520.0401611328125
 10
276.3500061035156
 20
520.1192626953124
  0
ARC
  5
92
330
48
100
AcDbEntity
  8
0
  6
Continuous
 62
     0
370
    30
100
AcDbCircle
 10
279.4800257977193
 20
505.4500332584312
 30
0.0
 40
14.99945084905422
100
AcDbArc
 50
82.81715061727087
 51
102.0381470879805
  0
ENDBLK
  5
94
330
48
100
AcDbEntity
  8
0
100
AcDbBlockEnd
  0
BLOCK
  5
CF
330
96
100
AcDbEntity
  8
0
100
AcDbBlockBegin
  2
b
 70
     0
 10
155.3448638916015
 20
194.9132080078125
 30
0.0
  3
b
  1

  0
LINE
  5
97
330
96
100
AcDbEntity
  8
0
  6
Continuous
 62
     0
370
     0
100
AcDbLine
 10
374.1974282059046
 20
241.2678395263936
 30
0.0
 11
186.0527014938023
 21
241.2678395263936
 31
0.0
  0
ARC
  5
98
330
96
100
AcDbEntity
  8
0
  6
Continuous
 62
     0
370
    30
100
AcDbCircle
 10
280.1250648498589
 20
1537.859676011216
 30
0.0
 40
1299.9999999948
100
AcDbArc
 50
270.8594689248369
 51
274.1497419589581
  0
LWPOLYLINE
  5
99
330
96
100
AcDbEntity
  8
0
  6
Continuous
 62
     0
370
    30
100
AcDbPolyline
 90
       19
 70
     0
 43
0.0
 10
260.6250915527343
 20
238.4976043701171
 10
260.6992187499999
 20
238.5443572998046
 10
260.9210205078125
 20
238.5907592773437
 10
261.2891235351562
 20
238.6364593505859
 10
261.8003845214843
 20
238.6810913085937
 10
262.4511108398437
 20
238.7243499755859
 10
263.2363891601562
 20
238.765869140625
 10
264.1501770019531
 20
238.8053588867187
 10
265.1856384277343
 20
238.8424987792968
 10
266.3347167968749
 20
238.8770294189453
 10
267.5889282226562
 20
238.9086608886718
 10
268.9385070800781
 20
238.9371643066406
 10
270.3733520507812
 20
238.9623260498046
 10
271.8824157714843
 20
238.9839630126953
 10
273.4543151855468
 20
239.0018768310546
 10
275.0770263671875
 20
239.0159759521484
 10
276.7381591796874
 20
239.0261077880859
 10
278.4251403808593
 20
239.0322265625
 10
280.1250610351562
 20
239.0342712402343
  0
LWPOLYLINE
  5
9A
330
96
100
AcDbEntity
  8
0
  6
Continuous
 62
     0
370
    30
100
AcDbPolyline
 90
       19
 70
     0
 43
0.0
 10
280.1250610351562
 20
239.0342712402343
 10
281.8249206542968
 20
239.0322265625
 10
283.5118408203125
 20
239.0261077880859
 10
285.1729431152343
 20
239.0159759521484
 10
286.7956237792968
 20
239.0018920898437
 10
288.367431640625
 20
238.9839630126953
 10
289.8764953613281
 20
238.9623413085937
 10
291.311279296875
 20
238.9371795654296
 10
292.6608581542968
 20
238.9086608886718
 10
293.9150390625
 20
238.8770294189453
 10
295.0641174316406
 20
238.8425140380859
 10
296.0995788574218
 20
238.8053741455077
 10
297.0133972167968
 20
238.765884399414
 10
297.7987060546875
 20
238.7243652343749
 10
298.4494934082031
 20
238.6811218261718
 10
298.9608154296874
 20
238.636474609375
 10
299.3289489746093
 20
238.5907897949218
 10
299.5508422851562
 20
238.5443878173828
 10
299.6250610351562
 20
238.4976348876953
  0
ARC
  5
9B
330
96
100
AcDbEntity
  8
0
  6
Continuous
 62
     0
370
    30
100
AcDbCircle
 10
374.1250648494768
 20
242.2652178621512
 30
0.0
 40
0.9999999999959999
100
AcDbArc
 50
274.149741958959
 51
359.9999999997754
  0
LINE
  5
9C
330
96
100
AcDbEntity
  8
0
  6
Continuous
 62
     0
370
     0
100
AcDbLine
 10
375.1250648494726
 20
242.2652178621512
 30
0.0
 11
185.1250648502343
 21
242.2652178621512
 31
0.0
  0
LINE
  5
9D
330
96
100
AcDbEntity
  8
0
  6
Continuous
 62
     0
370
    30
100
AcDbLine
 10
375.1250648494726
 20
242.2652178621512
 30
0.0
 11
375.1250648494726
 21
254.3354764735892
 31
0.0
  0
LINE
  5
9E
330
96
100
AcDbEntity
  8
0
  6
Continuous
 62
     0
370
    30
100
AcDbLine
 10
375.1250648494734
 20
254.3354764735894
 30
0.0
 11
185.1250648502335
 21
254.3354764735894
 31
0.0
  0
LINE
  5
9F
330
96
100
AcDbEntity
  8
0
  6
Continuous
 62
     0
370
    30
100
AcDbLine
 10
299.1250648498535
 20
191.1096775790996
 30
0.0
 11
280.1250648498535
 21
191.1096775790996
 31
0.0
  0
LINE
  5
A0
330
96
100
AcDbEntity
  8
0
  6
Continuous
 62
     0
370
    30
100
AcDbLine
 10
280.1250648498535
 20
191.1096775790996
 30
0.0
 11
261.1250648498535
 21
191.1096775790996
 31
0.0
  0
LINE
  5
A1
330
96
100
AcDbEntity
  8
0
  6
Continuous
 62
     0
370
    30
100
AcDbLine
 10
280.1250648498535
 20
191.6096775790996
 30
0.0
 11
260.6250648498535
 21
191.6096775790996
 31
0.0
  0
LINE
  5
A2
330
96
100
AcDbEntity
  8
0
  6
Continuous
 62
     0
370
    30
100
AcDbLine
 10
299.6250648498535
 20
191.6096775790996
 30
0.0
 11
280.1250648498535
 21
191.6096775790996
 31
0.0
  0
LINE
  5
A3
330
96
100
AcDbEntity
  8
0
  6
Continuous
 62
     0
370
    30
100
AcDbLine
 10
299.6250648498535
 20
238.4976435172698
 30
0.0
 11
299.6250648498535
 21
222.7314949417363
 31
0.0
  0
LINE
  5
A4
330
96
100
AcDbEntity
  8
0
  6
Continuous
 62
     0
370
    30
100
AcDbLine
 10
260.6250648498535
 20
238.4976435098361
 30
0.0
 11
260.6250648498535
 21
222.7314949417362
 31
0.0
  0
LINE
  5
A5
330
96
100
AcDbEntity
  8
0
  6
Continuous
 62
     0
370
    30
100
AcDbLine
 10
260.6250648498535
 20
191.6096775790996
 30
0.0
 11
261.125046536224
 21
191.1096958927291
 31
0.0
  0
LINE
  5
A6
330
96
100
AcDbEntity
  8
0
  6
Continuous
 62
     0
370
    30
100
AcDbLine
 10
299.6250648498535
 20
191.6096775790997
 30
0.0
 11
299.1250831634829
 21
191.1096958927291
 31
0.0
  0
LINE
  5
A7
330
96
100
AcDbEntity
  8
0
  6
Continuous
 62
     0
370
    30
100
AcDbLine
 10
299.6250648498535
 20
199.1126041848887
 30
0.0
 11
299.6250648498535
 21
191.6096775790996
 31
0.0
  0
LINE
  5
A8
330
96
100
AcDbEntity
  8
0
  6
Continuous
 62
     0
370
    30
100
AcDbLine
 10
260.6250648498535
 20
199.1125828117498
 30
0.0
 11
260.6250648498535
 21
191.6096775790996
 31
0.0
  0
LINE
  5
A9
330
96
100
AcDbEntity
  8
0
  6
Continuous
 62
     0
370
    30
100
AcDbLine
 10
185.1250648502343
 20
254.3354764835894
 30
0.0
 11
185.1250648502343
 21
242.2652178621512
 31
0.0
  0
ARC
  5
AA
330
96
100
AcDbEntity
  8
0
  6
Continuous
 62
     0
370
    30
100
AcDbCircle
 10
186.1250781181075
 20
242.2652302022728
 30
0.0
 40
1.000013267949919
100
AcDbArc
 50
180.0007070277197
 51
265.8495510135653
  0
ARC
  5
AB
330
96
100
AcDbEntity
  8
0
  6
Continuous
 62
     0
370
    30
100
AcDbCircle
 10
280.125691754427
 20
1537.874058378807
 30
0.0
 40
1300.014390021637
100
AcDbArc
 50
265.8502763532445
 51
269.1405129566542
  0
LINE
  5
AC
330
96
100
AcDbEntity
  8
0
  6
Continuous
 62
     0
370
    30
100
AcDbLine
 10
258.3750648498535
 20
222.7314949417362
 30
0.0
 11
279.2037832389938
 21
222.7314949417362
 31
0.0
  0
LINE
  5
AD
330
96
100
AcDbEntity
  8
0
  6
Continuous
 62
     0
370
    30
100
AcDbLine
 10
279.2037832389938
 20
222.7314949417362
 30
0.0
 11
301.8555443704138
 21
222.7314949417362
 31
0.0
  0
ELLIPSE
  5
AE
330
96
100
AcDbEntity
  8
0
  6
Continuous
 62
     0
370
     0
100
AcDbEllipse
 10
278.8724851489736
 20
197.807063285629
 30
0.0
 11
-3.487734503126519
 21
0.837833421174616
 31
0.0
210
0.0
220
0.0
230
-1.0
 40
0.9839238870542322
 41
1.331333187532591
 42
4.472925841122375
  0
ELLIPSE
  5
AF
330
96
100
AcDbEntity
  8
0
  6
Continuous
 62
     0
370
     0
100
AcDbEllipse
 10
278.8724851489736
 20
197.807063285629
 30
0.0
 11
-3.487734503126519
 21
0.837833421174616
 31
0.0
210
0.0
220
0.0
230
-1.0
 40
0.9839238870542322
 41
4.472925841122385
 42
7.614518494712178
  0
ELLIPSE
  5
B0
330
96
100
AcDbEntity
  8
0
  6
Continuous
 62
     0
370
     0
100
AcDbEllipse
 10
278.9210899849816
 20
198.0093955861552
 30
0.0
 11
-4.375521515664439
 21
1.051100121756942
 31
0.0
210
0.0
220
0.0
230
-1.0
 40
0.9839238870542313
 41
1.331333187532598
 42
3.179119185590175
  0
ELLIPSE
  5
B1
330
96
100
AcDbEntity
  8
0
  6
Continuous
 62
     0
370
     0
100
AcDbEllipse
 10
278.9210899849816
 20
198.0093955861552
 30
0.0
 11
-4.375521515664439
 21
1.051100121756942
 31
0.0
210
0.0
220
0.0
230
-1.0
 40
0.9839238870542313
 41
6.163283512382514
 42
7.614518494712184
  0
LWPOLYLINE
  5
B2
330
96
100
AcDbEntity
  8
0
  6
Continuous
 62
     0
370
    30
100
AcDbPolyline
 90
        2
 70
     0
 43
0.0
 10
301.8555297851562
 20
222.7314910888671
 10
301.87451171875
 20
222.3019104003906
  0
LWPOLYLINE
  5
B3
330
96
100
AcDbEntity
  8
0
  6
Continuous
 62
     0
370
     0
100
AcDbPolyline
 90
        4
 70
     0
 43
0.0
 10
283.7063903808593
 20
199.6707763671875
 10
283.7273254394531
 20
199.1763610839843
 10
283.6987609863281
 20
198.7298889160156
 10
283.6318969726562
 20
198.3539886474609
  0
LWPOLYLINE
  5
B4
330
96
100
AcDbEntity
  8
0
  6
Continuous
 62
     0
370
     0
100
AcDbPolyline
 90
       11
 70
     0
 43
0.0
 10
283.7063903808593
 20
199.6707763671875
 10
283.6091003417968
 20
200.2825469970703
 10
283.426025390625
 20
200.8823089599609
 10
283.1541442871093
 20
201.4577941894531
 10
282.7955627441406
 20
201.9956665039062
 10
282.3545227050781
 20
202.4838562011718
 10
281.8372192382812
 20
202.9104461669922
 10
281.2521057128906
 20
203.2637329101562
 10
280.6112365722656
 20
203.5335998535156
 10
279.9291687011718
 20
203.7123718261718
 10
279.2093200683593
 20
203.7786254882812
  0
LWPOLYLINE
  5
B5
330
96
100
AcDbEntity
  8
0
  6
Continuous
 62
     0
370
     0
100
AcDbPolyline
 90
       10
 70
     0
 43
0.0
 10
279.2093200683593
 20
203.7786254882812
 10
278.4955444335937
 20
203.7140655517577
 10
277.8174133300781
 20
203.5395812988281
 10
277.1841735839843
 20
203.276123046875
 10
276.6080322265624
 20
202.9311828613281
 10
276.0993957519531
 20
202.5142517089843
 10
275.665771484375
 20
202.0365753173828
 10
275.3123474121093
 20
201.5096130371093
 10
275.0422058105468
 20
200.9449005126953
 10
274.8565368652343
 20
200.3548736572265
  0
LINE
  5
B6
330
96
100
AcDbEntity
  8
0
  6
Continuous
 62
     0
370
     0
100
AcDbLine
 10
259.903789725299
 20
200.1075037020882
 30
0.0
 11
273.4127507308359
 21
200.1075037020882
 31
0.0
  0
LINE
  5
B7
330
96
100
AcDbEntity
  8
0
  6
Continuous
 62
     0
370
     0
100
AcDbLine
 10
285.1988179348692
 20
200.1075037020882
 30
0.0
 11
300.346339974408
 21
200.1075037020882
 31
0.0
  0
LWPOLYLINE
  5
B8
330
96
100
AcDbEntity
  8
0
  6
Continuous
 62
     0
370
     0
100
AcDbPolyline
 90
        5
 70
     0
 43
0.0
 10
285.1988220214843
 20
200.1074981689453
 10
285.2561645507812
 20
199.7359313964843
 10
285.2358093261718
 20
199.4114227294921
 10
285.1825561523437
 20
199.1648254394531
 10
285.1609497070312
 20
199.0186309814453
  0
LINE
  5
B9
330
96
100
AcDbEntity
  8
0
  6
Continuous
 62
     0
370
     0
100
AcDbLine
 10
260.8871748203978
 20
199.0186261634666
 30
0.0
 11
273.5357446674192
 21
199.0186261634666
 31
0.0
  0
LINE
  5
BA
330
96
100
AcDbEntity
  8
0
  6
Continuous
 62
     0
370
     0
100
AcDbLine
 10
285.1609472472873
 20
199.0186261634666
 30
0.0
 11
299.3629548793091
 21
199.0186261634666
 31
0.0
  0
LWPOLYLINE
  5
BB
330
96
100
AcDbEntity
  8
0
  6
Continuous
 62
     0
370
     0
100
AcDbPolyline
 90
        5
 70
     0
 43
0.0
 10
273.5357360839843
 20
199.0186309814453
 10
273.4832153320312
 20
199.1648254394531
 10
273.4049682617187
 20
199.4114227294921
 10
273.3663635253906
 20
199.7359313964843
 10
273.4127502441406
 20
200.1074981689453
  0
LWPOLYLINE
  5
BC
330
96
100
AcDbEntity
  8
0
  6
Continuous
 62
     0
370
     0
100
AcDbPolyline
 90
        5
 70
     0
 43
0.0
 10
285.1609497070312
 20
199.0186309814453
 10
284.8809509277343
 20
198.6187286376953
 10
284.5110168457031
 20
198.255630493164
 10
284.0435180664062
 20
197.9303436279296
 10
283.4613647460937
 20
197.6441802978515
  0
LWPOLYLINE
  5
BD
330
96
100
AcDbEntity
  8
0
  6
Continuous
 62
     0
370
     0
100
AcDbPolyline
 90
        3
 70
     0
 43
0.0
 10
274.4312744140624
 20
198.2829589843749
 10
273.942626953125
 20
198.6338500976562
 10
273.5357360839843
 20
199.0186309814453
  0
LWPOLYLINE
  5
BE
330
96
100
AcDbEntity
  8
0
  6
Continuous
 62
     0
370
     0
100
AcDbPolyline
 90
       21
 70
     0
 43
0.0
 10
285.1988220214843
 20
200.1074981689453
 10
285.1264953613281
 20
200.5350494384765
 10
285.0173034667968
 20
200.9487152099609
 10
284.8758239746093
 20
201.3500061035156
 10
284.7059631347656
 20
201.7377166748047
 10
284.5113220214843
 20
202.1124420166015
 10
284.2926330566406
 20
202.4725494384765
 10
284.0487976074218
 20
202.8144226074218
 10
283.7804260253906
 20
203.1358947753906
 10
283.4889831542968
 20
203.4354553222656
 10
283.1756286621093
 20
203.7113494873046
 10
282.8419189453125
 20
203.9620056152343
 10
282.4894714355469
 20
204.1860046386718
 10
282.1201171874999
 20
204.3816223144531
 10
281.7359313964843
 20
204.5482330322265
 10
281.3389282226562
 20
204.6839294433593
 10
280.9307250976562
 20
204.7811431884765
 10
280.5149841308594
 20
204.8385925292968
 10
280.0946044921875
 20
204.8643493652343
 10
279.6705627441406
 20
204.87060546875
 10
279.2440795898437
 20
204.869644165039
  0
LWPOLYLINE
  5
BF
330
96
100
AcDbEntity
  8
0
  6
Continuous
 62
     0
370
     0
100
AcDbPolyline
 90
       18
 70
     0
 43
0.0
 10
279.2440795898437
 20
204.869644165039
 10
278.7430114746093
 20
204.870376586914
 10
278.2469787597656
 20
204.8580627441406
 10
277.7575378417968
 20
204.8129425048828
 10
277.2777404785156
 20
204.716796875
 10
276.8134765625
 20
204.5660400390624
 10
276.3678283691406
 20
204.3710327148437
 10
275.9438476562499
 20
204.1359405517578
 10
275.5447387695312
 20
203.8621368408203
 10
275.173095703125
 20
203.552261352539
 10
274.8313903808593
 20
203.2087249755859
 10
274.5215454101562
 20
202.8342590332031
 10
274.2456970214843
 20
202.4315490722656
 10
274.0042419433593
 20
202.0039520263671
 10
273.7961120605468
 20
201.5579528808593
 10
273.6236267089843
 20
201.091064453125
 10
273.4940490722656
 20
200.6104736328125
 10
273.4127502441406
 20
200.1074981689453
  0
ELLIPSE
  5
C0
330
96
100
AcDbEntity
  8
0
  6
Continuous
 62
     0
370
     0
100
AcDbEllipse
 10
279.2019579240214
 20
204.7634395235664
 30
0.0
 11
-0.0000000018531822
 21
-0.9999999999999939
 31
0.0
210
0.0
220
0.0
230
-1.0
 40
0.042357775211937
 41
4.605977407159437
 42
6.108652338229497
  0
ELLIPSE
  5
C1
330
96
100
AcDbEntity
  8
0
  6
Continuous
 62
     0
370
     0
100
AcDbEllipse
 10
272.7548992324307
 20
199.8384473970313
 30
0.0
 11
1.993720017914005
 21
-0.15836821072733
 31
0.0
210
0.0
220
0.0
230
-1.0
 40
0.1688741849539447
 41
5.035207205434069
 42
6.076797777442123
  0
ELLIPSE
  5
C2
330
96
100
AcDbEntity
  8
0
  6
Continuous
 62
     0
370
     0
100
AcDbEllipse
 10
285.6960795365065
 20
199.838447373049
 30
0.0
 11
1.991278465687348
 21
0.1865745751431264
 31
0.0
210
0.0
220
0.0
230
-1.0
 40
0.1616623569867157
 41
3.199358021933685
 42
4.475173650856067
  0
ELLIPSE
  5
C3
330
96
100
AcDbEntity
  8
0
  6
Continuous
 62
     0
370
     0
100
AcDbEllipse
 10
285.2836958066747
 20
197.0743736678232
 30
0.0
 11
-1.741341426102738
 21
0.9837327064495067
 31
0.0
210
0.0
220
0.0
230
1.0
 40
0.9636522918333943
 41
5.272868934919085
 42
6.251166551553615
  0
ELLIPSE
  5
C4
330
96
100
AcDbEntity
  8
0
  6
Continuous
 62
     0
370
     0
100
AcDbEllipse
 10
273.3751313933385
 20
197.0743736898919
 30
0.0
 11
-1.476600821645429
 21
-1.348944036465588
 31
0.0
210
0.0
220
0.0
230
1.0
 40
0.9490721478479267
 41
3.397130503396847
 42
3.915819080756642
  0
ARC
  5
C5
330
96
100
AcDbEntity
  8
0
  6
Continuous
 62
     0
370
    30
100
AcDbCircle
 10
133.7008172827303
 20
222.7315474580574
 30
0.0
 40
168.1742476987911
100
AcDbArc
 50
352.2687072257665
 51
359.85362508586
  0
ARC
  5
C6
330
96
100
AcDbEntity
  8
0
  6
Continuous
 62
     0
370
    30
100
AcDbCircle
 10
426.548912425201
 20
222.7315194515405
 30
0.0
 40
168.1738475753494
100
AcDbArc
 50
180.0000083503372
 51
187.7313016520039
  0
ARC
  5
C7
330
96
100
AcDbEntity
  8
0
  6
Continuous
 62
     0
370
    30
100
AcDbCircle
 10
280.1250903439152
 20
278.7837948863828
 30
0.0
 40
82.05229756128211
100
AcDbArc
 50
256.4402530572574
 51
266.1158477360719
  0
ARC
  5
C8
330
96
100
AcDbEntity
  8
0
  6
Continuous
 62
     0
370
    30
100
AcDbCircle
 10
280.1250554397164
 20
278.7836008350721
 30
0.0
 40
82.05210514794675
100
AcDbArc
 50
272.1846831081641
 51
283.5597677945957
  0
ARC
  5
C9
330
96
100
AcDbEntity
  8
0
  6
Continuous
 62
     0
370
    30
100
AcDbCircle
 10
261.1919907850038
 20
200.2824028938114
 30
0.0
 40
1.300016259702998
100
AcDbArc
 50
187.7317989630853
 51
256.4394789675907
  0
ARC
  5
CA
330
96
100
AcDbEntity
  8
0
  6
Continuous
 62
     0
370
    30
100
AcDbCircle
 10
299.0580941249506
 20
200.2824014674696
 30
0.0
 40
1.30001518519114
100
AcDbArc
 50
283.5605927880807
 51
352.2682580454646
  0
LINE
  5
CB
330
96
100
AcDbEntity
  8
0
  6
Continuous
 62
     0
370
    30
100
AcDbLine
 10
283.6318966820562
 20
198.3540212328352
 30
0.0
 11
283.29661144152
 21
196.9582952182682
 31
0.0
  0
LINE
  5
CC
330
96
100
AcDbEntity
  8
0
  6
Continuous
 62
     0
370
    30
100
AcDbLine
 10
274.8565068249499
 20
200.3548704653255
 30
0.0
 11
274.5459188755472
 21
199.0619543796094
 31
0.0
  0
LWPOLYLINE
  5
CD
330
96
100
AcDbEntity
  8
0
  6
Continuous
 62
     0
370
    30
100
AcDbPolyline
 90
        9
 70
     0
 43
0.0
 10
283.2962646484375
 20
196.9572601318359
 10
283.0630493164062
 20
196.2543487548828
 10
282.7145996093749
 20
195.6004486083984
 10
282.2618408203124
 20
195.0130767822265
 10
281.7167053222656
 20
194.5088958740234
 10
281.0942993164062
 20
194.1024322509765
 10
280.4122619628906
 20
193.8036193847656
 10
279.6889038085937
 20
193.6209411621093
 10
278.9453735351562
 20
193.5596160888671
  0
LWPOLYLINE
  5
CE
330
96
100
AcDbEntity
  8
0
  6
Continuous
 62
     0
370
    30
100
AcDbPolyline
 90
       11
 70
     0
 43
0.0
 10
274.5462341308593
 20
199.0618743896484
 10
274.4302978515625
 20
198.2651977539062
 10
274.4614562988281
 20
197.4602966308593
 10
274.6387634277343
 20
196.673599243164
 10
274.9562377929687
 20
195.931167602539
 10
275.4031982421874
 20
195.2570495605468
 10
275.9641723632812
 20
194.6727600097656
 10
276.6213989257812
 20
194.1976928710937
 10
277.3536071777343
 20
193.8470764160156
 10
278.1366577148437
 20
193.6321563720703
 10
278.9453735351562
 20
193.5596160888671
  0
ENDBLK
  5
D0
330
96
100
AcDbEntity
  8
0
100
AcDbBlockEnd
  0
BLOCK
  5
12C
330
D2
100
AcDbEntity
  8
0
100
AcDbBlockBegin
  2
c
 70
     0
 10
204.7324523925781
 20
167.2408752441406
 30
0.0
  3
c
  1

  0
LINE
  5
D3
330
D2
100
AcDbEntity
  8
0
  6
Continuous
 62
     0
370
    30
100
AcDbLine
 10
485.9378352412437
 20
388.7352447509765
 30
0.0
 11
485.9378352412437
 21
392.1993463661001
 31
0.0
  0
LINE
  5
D4
330
D2
100
AcDbEntity
  8
0
  6
Continuous
 62
     0
370
    30
100
AcDbLine
 10
485.9378352630994
 20
392.1993463661001
 30
0.0
 11
485.782491238204
 21
392.1993463661001
 31
0.0
  0
LINE
  5
D5
330
D2
100
AcDbEntity
  8
0
  6
Continuous
 62
     0
370
    30
100
AcDbLine
 10
485.4327227830581
 20
385.271143135853
 30
0.0
 11
485.9378352630994
 21
385.271143135853
 31
0.0
  0
LINE
  5
D6
330
D2
100
AcDbEntity
  8
0
  6
Continuous
 62
     0
370
    30
100
AcDbLine
 10
485.9378352412437
 20
385.271143135853
 30
0.0
 11
485.9378352412437
 21
388.7352447509765
 31
0.0
  0
ARC
  5
D7
330
D2
100
AcDbEntity
  8
0
  6
Continuous
 62
     0
370
    30
100
AcDbCircle
 10
477.5368883567487
 20
388.7350571648944
 30
0.0
 40
9.087200261516843
100
AcDbArc
 50
0.0011827505162775
 51
22.40972777894029
  0
LINE
  5
D8
330
D2
100
AcDbEntity
  8
0
  6
Continuous
 62
     0
370
     0
100
AcDbLine
 10
485.9378353942335
 20
388.7352447509765
 30
0.0
 11
486.6240886163295
 21
388.7352447509765
 31
0.0
  0
ARC
  5
D9
330
D2
100
AcDbEntity
  8
0
  6
Continuous
 62
     0
370
    30
100
AcDbCircle
 10
477.5368883567448
 20
388.7354323370594
 30
0.0
 40
9.087200261520834
100
AcDbArc
 50
337.5902722210087
 51
359.9988172494229
  0
LINE
  5
DA
330
D2
100
AcDbEntity
  8
0
  6
Continuous
 62
     0
370
     0
100
AcDbLine
 10
483.8695464509613
 20
548.5576081070276
 30
0.0
 11
483.8695464509613
 21
454.4852447509765
 31
0.0
  0
LINE
  5
DB
330
D2
100
AcDbEntity
  8
0
  6
Continuous
 62
     0
370
     0
100
AcDbLine
 10
483.8695464509613
 20
454.4852447509765
 30
0.0
 11
483.8695464509613
 21
360.4128813949254
 31
0.0
  0
LWPOLYLINE
  5
DC
330
D2
100
AcDbEntity
  8
0
  6
Continuous
 62
     0
370
    30
100
AcDbPolyline
 90
       36
 70
     0
 43
0.0
 10
487.1761474609375
 20
470.7352294921874
 10
487.1739807128906
 20
470.8137817382812
 10
487.1675109863281
 20
471.0487365722656
 10
487.1567993164062
 20
471.438232421875
 10
487.1419372558594
 20
471.9790954589844
 10
487.1230163574218
 20
472.6670532226562
 10
487.1002197265625
 20
473.4963378906249
 10
487.0736999511718
 20
474.4604797363281
 10
487.0436706542968
 20
475.5515747070312
 10
487.0104064941406
 20
476.7608947753906
 10
486.9741821289062
 20
478.07861328125
 10
486.9352416992187
 20
479.4942016601562
 10
486.8939208984374
 20
480.9961853027344
 10
486.8505554199218
 20
482.5724792480468
 10
486.8054809570312
 20
484.2104797363281
 10
486.7590942382812
 20
485.8968505859374
 10
486.7117309570312
 20
487.6181945800781
 10
486.663818359375
 20
489.3605346679687
 10
486.6156616210937
 20
491.1099548339843
 10
486.5677490234374
 20
492.8523254394531
 10
486.5203857421875
 20
494.5736083984375
 10
486.4739685058593
 20
496.260009765625
 10
486.4288940429687
 20
497.8980102539062
 10
486.3855285644531
 20
499.4743041992187
 10
486.3441772460937
 20
500.976318359375
 10
486.3052368164062
 20
502.391845703125
 10
486.2689514160156
 20
503.7096252441406
 10
486.2356872558593
 20
504.9188842773437
 10
486.2056579589843
 20
506.010009765625
 10
486.1791076660156
 20
506.9741210937499
 10
486.1562805175781
 20
507.803466796875
 10
486.1373596191405
 20
508.4913635253906
 10
486.1224670410156
 20
509.0321960449219
 10
486.1117553710937
 20
509.4217529296875
 10
486.1052856445312
 20
509.6566467285156
 10
486.1031188964843
 20
509.7352294921875
  0
LWPOLYLINE
  5
DD
330
D2
100
AcDbEntity
  8
0
  6
Continuous
 62
     0
370
    30
100
AcDbPolyline
 90
       36
 70
     0
 43
0.0
 10
487.1697998046875
 20
437.7351989746093
 10
487.1676940917969
 20
437.65869140625
 10
487.1614074707031
 20
437.4297485351562
 10
487.1509704589843
 20
437.0502624511718
 10
487.136474609375
 20
436.5231323242187
 10
487.1180419921874
 20
435.8529968261718
 10
487.0957946777344
 20
435.0449218749999
 10
487.0699768066406
 20
434.1054687499999
 10
487.0407409667969
 20
433.0424194335937
 10
487.0083312988281
 20
431.8641052246094
 10
486.9729919433593
 20
430.5801696777344
 10
486.93505859375
 20
429.2008666992187
 10
486.8948059082031
 20
427.7374267578125
 10
486.8525695800781
 20
426.2015075683593
 10
486.8086547851562
 20
424.6055603027343
 10
486.7634582519531
 20
422.9623718261718
 10
486.7173156738281
 20
421.2852172851562
 10
486.6705932617187
 20
419.5875244140625
 10
486.6236877441406
 20
417.8829956054687
 10
486.5769958496094
 20
416.185302734375
 10
486.5308532714843
 20
414.5081176757812
 10
486.4856262207031
 20
412.8649597167968
 10
486.4417114257812
 20
411.2690124511718
 10
486.3994445800781
 20
409.7330627441406
 10
486.3591613769531
 20
408.2696228027343
 10
486.3212280273437
 20
406.8903198242187
 10
486.285888671875
 20
405.6064147949219
 10
486.2534484863281
 20
404.4281005859375
 10
486.2241821289062
 20
403.3649597167968
 10
486.1983337402343
 20
402.4255371093749
 10
486.1760864257812
 20
401.6175842285155
 10
486.1576538085937
 20
400.9473876953125
 10
486.1431579589844
 20
400.4201965332031
 10
486.1326904296874
 20
400.0407104492187
 10
486.1264038085937
 20
399.811767578125
 10
486.1242980957031
 20
399.7352600097656
  0
LINE
  5
DE
330
D2
100
AcDbEntity
  8
0
  6
Continuous
 62
     0
370
    30
100
AcDbLine
 10
485.4132632460566
 20
384.8857988761253
 30
0.0
 11
485.6282966922953
 21
389.1446041390131
 31
0.0
  0
LINE
  5
DF
330
D2
100
AcDbEntity
  8
0
  6
Continuous
 62
     0
370
    30
100
AcDbLine
 10
485.6282966922953
 20
389.1446041390131
 30
0.0
 11
485.822611544063
 21
392.9942864235739
 31
0.0
  0
LWPOLYLINE
  5
E0
330
D2
100
AcDbEntity
  8
0
  6
Continuous
 62
     0
370
    30
100
AcDbPolyline
 90
       11
 70
     0
 43
0.0
 10
487.2276000976562
 20
443.0711669921874
 10
487.2279052734374
 20
443.1415710449218
 10
487.2288208007812
 20
443.3511047363281
 10
487.2303466796875
 20
443.6946105957031
 10
487.232421875
 20
444.1635437011719
 10
487.2349853515625
 20
444.7463073730468
 10
487.2379760742187
 20
445.4284362792968
 10
487.2413635253906
 20
446.1930847167969
 10
487.2449951171875
 20
447.0213317871094
 10
487.2488403320312
 20
447.892578125
 10
487.2527770996093
 20
448.7853393554687
  0
LINE
  5
E1
330
D2
100
AcDbEntity
  8
0
  6
Continuous
 62
     0
370
    30
100
AcDbLine
 10
487.2527660712186
 20
448.7853446606549
 30
0.0
 11
487.2777094762886
 21
454.4494596183571
 31
0.0
  0
LINE
  5
E2
330
D2
100
AcDbEntity
  8
0
  6
Continuous
 62
     0
370
     0
100
AcDbLine
 10
482.8721681152037
 20
549.4852447505957
 30
0.0
 11
482.8721681152037
 21
454.4852447509765
 31
0.0
  0
LINE
  5
E3
330
D2
100
AcDbEntity
  8
0
  6
Continuous
 62
     0
370
     0
100
AcDbLine
 10
482.8721681152037
 20
454.4852447509765
 30
0.0
 11
482.8721681152037
 21
359.4852447513574
 31
0.0
  0
LINE
  5
E4
330
D2
100
AcDbEntity
  8
0
  6
Continuous
 62
     0
370
    30
100
AcDbLine
 10
470.8019095037655
 20
549.4852447505965
 30
0.0
 11
470.8019095037655
 21
454.4852447509765
 31
0.0
  0
LINE
  5
E5
330
D2
100
AcDbEntity
  8
0
  6
Continuous
 62
     0
370
    30
100
AcDbLine
 10
470.8019095037655
 20
454.4852447509765
 30
0.0
 11
470.8019095037655
 21
359.4852447513566
 31
0.0
  0
LINE
  5
E6
330
D2
100
AcDbEntity
  8
0
  6
Continuous
 62
     0
370
    30
100
AcDbLine
 10
489.2777099609374
 20
399.7352447509765
 30
0.0
 11
486.1242896230578
 21
399.7352447509765
 31
0.0
  0
LINE
  5
E7
330
D2
100
AcDbEntity
  8
0
  6
Continuous
 62
     0
370
    30
100
AcDbLine
 10
489.2777099609374
 20
437.7352447509765
 30
0.0
 11
489.2777099609374
 21
399.7352447509765
 31
0.0
  0
LINE
  5
E8
330
D2
100
AcDbEntity
  8
0
  6
Continuous
 62
     0
370
    30
100
AcDbLine
 10
489.2777099609374
 20
400.5352447509765
 30
0.0
 11
494.0277099609375
 21
400.5352447509765
 31
0.0
  0
LINE
  5
E9
330
D2
100
AcDbEntity
  8
0
  6
Continuous
 62
     0
370
    30
100
AcDbLine
 10
494.0277099609375
 20
438.2352447509766
 30
0.0
 11
494.0277099609375
 21
399.2352447509765
 31
0.0
  0
LINE
  5
EA
330
D2
100
AcDbEntity
  8
0
  6
Continuous
 62
     0
370
    30
100
AcDbLine
 10
534.0277099609375
 20
437.7352447509765
 30
0.0
 11
534.0277099609375
 21
399.7352447509765
 31
0.0
  0
LINE
  5
EB
330
D2
100
AcDbEntity
  8
0
  6
Continuous
 62
     0
370
    30
100
AcDbLine
 10
494.0277099609375
 20
399.2352447509765
 30
0.0
 11
533.5277099609375
 21
399.2352447509765
 31
0.0
  0
LINE
  5
EC
330
D2
100
AcDbEntity
  8
0
  6
Continuous
 62
     0
370
    30
100
AcDbLine
 10
533.5277099609375
 20
438.2352447509766
 30
0.0
 11
533.5277099609375
 21
399.2352447509765
 31
0.0
  0
LWPOLYLINE
  5
ED
330
D2
100
AcDbEntity
  8
0
  6
Continuous
 62
     0
370
    30
100
AcDbPolyline
 90
       17
 70
     0
 43
0.0
 10
526.9777221679687
 20
438.2352294921875
 10
526.9014282226562
 20
438.2199401855468
 10
526.6759033203125
 20
438.1763000488281
 10
526.3109741210937
 20
438.1112060546874
 10
525.8206176757812
 20
438.0341491699218
 10
525.2236938476563
 20
437.9568481445312
 10
524.5416259765625
 20
437.8908996582031
 10
523.800048828125
 20
437.8466491699218
 10
523.0275878906249
 20
437.8312683105469
 10
522.25537109375
 20
437.8466186523437
 10
521.5139770507812
 20
437.89111328125
 10
520.8317260742187
 20
437.9568176269531
 10
520.2349243164062
 20
438.0340881347656
 10
519.7444458007812
 20
438.1112060546874
 10
519.3793945312499
 20
438.1763916015625
 10
519.1539916992187
 20
438.2199401855468
 10
519.0776977539062
 20
438.2352294921875
  0
LINE
  5
EE
330
D2
100
AcDbEntity
  8
0
  6
Continuous
 62
     0
370
    30
100
AcDbLine
 10
533.5277099609375
 20
399.2352447509765
 30
0.0
 11
534.0277099609375
 21
399.7352447509765
 31
0.0
  0
LINE
  5
EF
330
D2
100
AcDbEntity
  8
0
  6
Continuous
 62
     0
370
    30
100
AcDbLine
 10
526.9777099609375
 20
444.2352447509765
 30
0.0
 11
526.9777099609375
 21
438.2352447509766
 31
0.0
  0
LINE
  5
F0
330
D2
100
AcDbEntity
  8
0
  6
Continuous
 62
     0
370
    30
100
AcDbLine
 10
519.0777099609374
 20
444.2352447509765
 30
0.0
 11
526.9777099609375
 21
444.2352447509765
 31
0.0
  0
LINE
  5
F1
330
D2
100
AcDbEntity
  8
0
  6
Continuous
 62
     0
370
    30
100
AcDbLine
 10
519.5777099609374
 20
444.7352447509765
 30
0.0
 11
526.4777099609375
 21
444.7352447509765
 31
0.0
  0
LINE
  5
F2
330
D2
100
AcDbEntity
  8
0
  6
Continuous
 62
     0
370
    30
100
AcDbLine
 10
526.4777099609375
 20
444.7352447509765
 30
0.0
 11
526.9777099609375
 21
444.2352447509765
 31
0.0
  0
LINE
  5
F3
330
D2
100
AcDbEntity
  8
0
  6
Continuous
 62
     0
370
    30
100
AcDbLine
 10
505.0277099609375
 20
470.7352447509765
 30
0.0
 11
487.1761434933419
 21
470.7352447509765
 31
0.0
  0
LINE
  5
F4
330
D2
100
AcDbEntity
  8
0
  6
Continuous
 62
     0
370
    30
100
AcDbLine
 10
505.0277099609375
 20
483.7287097646069
 30
0.0
 11
505.0277099609375
 21
470.7352447509765
 31
0.0
  0
LINE
  5
F5
330
D2
100
AcDbEntity
  8
0
  6
Continuous
 62
     0
370
    30
100
AcDbLine
 10
486.1030571447046
 20
509.7352447509766
 30
0.0
 11
502.4058894729365
 21
509.7352447509766
 31
0.0
  0
LINE
  5
F6
330
D2
100
AcDbEntity
  8
0
  6
Continuous
 62
     0
370
    30
100
AcDbLine
 10
519.5777099609374
 20
444.7352447509765
 30
0.0
 11
519.0777099609374
 21
444.2352447509765
 31
0.0
  0
LINE
  5
F7
330
D2
100
AcDbEntity
  8
0
  6
Continuous
 62
     0
370
    30
100
AcDbLine
 10
519.0777099609374
 20
438.2352369259766
 30
0.0
 11
519.0777099609374
 21
444.2352447509765
 31
0.0
  0
LINE
  5
F8
330
D2
100
AcDbEntity
  8
0
  6
Continuous
 62
     0
370
    30
100
AcDbLine
 10
533.5277099609375
 20
438.2352447509766
 30
0.0
 11
534.0277099609375
 21
437.7352447509765
 31
0.0
  0
LINE
  5
F9
330
D2
100
AcDbEntity
  8
0
  6
Continuous
 62
     0
370
    30
100
AcDbLine
 10
494.0277099509374
 20
438.2352447509766
 30
0.0
 11
519.0777206602909
 21
438.2352447509766
 31
0.0
  0
LINE
  5
FA
330
D2
100
AcDbEntity
  8
0
  6
Continuous
 62
     0
370
    30
100
AcDbLine
 10
526.9777099609375
 20
438.2352447509766
 30
0.0
 11
533.5277099609375
 21
438.2352447509766
 31
0.0
  0
LINE
  5
FB
330
D2
100
AcDbEntity
  8
0
  6
Continuous
 62
     0
370
    30
100
AcDbLine
 10
489.2777099509374
 20
436.9352447509765
 30
0.0
 11
494.0277099609375
 21
436.9352447509765
 31
0.0
  0
LINE
  5
FC
330
D2
100
AcDbEntity
  8
0
  6
Continuous
 62
     0
370
    30
100
AcDbLine
 10
487.1697958501617
 20
437.7352447509765
 30
0.0
 11
489.2777099609374
 21
437.7352447509765
 31
0.0
  0
LINE
  5
FD
330
D2
100
AcDbEntity
  8
0
  6
Continuous
 62
     0
370
    30
100
AcDbLine
 10
470.8019094937655
 20
549.4852447505957
 30
0.0
 11
482.8721681152037
 21
549.4852447505957
 31
0.0
  0
LINE
  5
FE
330
D2
100
AcDbEntity
  8
0
  6
Continuous
 62
     0
370
    30
100
AcDbLine
 10
470.8019094937655
 20
359.4852447513574
 30
0.0
 11
482.8721681152038
 21
359.4852447513574
 31
0.0
  0
ARC
  5
FF
330
D2
100
AcDbEntity
  8
0
  6
Continuous
 62
     0
370
    30
100
AcDbCircle
 10
482.8721557750825
 20
548.4852314827221
 30
0.0
 40
1.000013267949896
100
AcDbArc
 50
4.150448986458834
 51
89.99929297230549
  0
ARC
  5
100
330
D2
100
AcDbEntity
  8
0
  6
Continuous
 62
     0
370
    30
100
AcDbCircle
 10
482.8721557750825
 20
360.4852580192291
 30
0.0
 40
1.000013267948914
100
AcDbArc
 50
270.0007070276965
 51
355.8495510136497
  0
LWPOLYLINE
  5
101
330
D2
100
AcDbEntity
  8
0
  6
Continuous
 62
     0
370
    30
100
AcDbPolyline
 90
        5
 70
     0
 43
0.0
 10
487.2777099609375
 20
454.5888061523437
 10
487.2711486816406
 20
458.6255187988281
 10
487.251953125
 20
462.6621704101562
 10
487.2200317382812
 20
466.6987609863281
 10
487.1761474609375
 20
470.7352294921874
  0
ARC
  5
102
330
D2
100
AcDbEntity
  8
0
  6
Continuous
 62
     0
370
    30
100
AcDbCircle
 10
-812.7214191897611
 20
454.4852408931691
 30
0.0
 40
1299.999129150394
100
AcDbArc
 50
359.4969312800135
 51
359.9954364450772
  0
LWPOLYLINE
  5
103
330
D2
100
AcDbEntity
  8
0
  6
Continuous
 62
     0
370
    30
100
AcDbPolyline
 90
        7
 70
     0
 43
0.0
 10
483.8695373535156
 20
360.4128723144531
 10
484.1588745117187
 20
364.4895629882812
 10
484.4353942871093
 20
368.5671691894531
 10
484.6990966796875
 20
372.6455993652344
 10
484.9500122070312
 20
376.7248229980468
 10
485.1881103515625
 20
380.8048400878906
 10
485.4132385253906
 20
384.8855895996093
  0
ARC
  5
104
330
D2
100
AcDbEntity
  8
0
  6
Continuous
 62
     0
370
    30
100
AcDbCircle
 10
-812.7798353264179
 20
454.4819339927221
 30
0.0
 40
1300.057634000785
100
AcDbArc
 50
2.435842277172361
 51
4.149703965090915
  0
LWPOLYLINE
  5
105
330
D2
100
AcDbEntity
  8
0
  6
Continuous
 62
     0
370
    30
100
AcDbPolyline
 90
        3
 70
     0
 43
0.0
 10
487.1697998046875
 20
437.7351989746093
 10
487.2014465332031
 20
440.4031372070313
 10
487.2276000976562
 20
443.0711364746094
  0
LWPOLYLINE
  5
106
330
D2
100
AcDbEntity
  8
0
  6
Continuous
 62
     0
370
    30
100
AcDbPolyline
 90
        3
 70
     0
 43
0.0
 10
486.1242980957031
 20
399.7352294921875
 10
485.9778137207031
 20
396.3646240234375
 10
485.8226318359375
 20
392.994384765625
  0
LWPOLYLINE
  5
107
330
D2
100
AcDbEntity
  8
0
  6
Continuous
 62
     0
370
    30
100
AcDbPolyline
 90
        3
 70
     0
 43
0.0
 10
487.2276000976562
 20
443.0711364746094
 10
487.2014465332031
 20
440.4031372070313
 10
487.1697998046875
 20
437.7351989746093
  0
LINE
  5
108
330
D2
100
AcDbEntity
  8
0
  6
Continuous
 62
     0
370
    30
100
AcDbLine
 10
502.4058894729365
 20
489.3139631401168
 30
0.0
 11
502.4058894729365
 21
511.9657242715368
 31
0.0
  0
LINE
  5
109
330
D2
100
AcDbEntity
  8
0
  6
Continuous
 62
     0
370
    30
100
AcDbLine
 10
502.4058894729365
 20
511.9657242715368
 30
0.0
 11
502.4058894729365
 21
511.9852447509765
 31
0.0
  0
ELLIPSE
  5
10A
330
D2
100
AcDbEntity
  8
0
  6
Continuous
 62
     0
370
     0
100
AcDbEllipse
 10
527.3303198923478
 20
519.7801278974452
 30
0.0
 11
3.532366829311322
 21
-0.6234110915899912
 31
0.0
210
0.0
220
0.0
230
-1.0
 40
0.0417142578386621
 41
6.112834502176376
 42
6.275823439310343
  0
ELLIPSE
  5
10B
330
D2
100
AcDbEntity
  8
0
  6
Continuous
 62
     0
370
     0
100
AcDbEllipse
 10
527.3303198923478
 20
519.7801278974452
 30
0.0
 11
3.532366829311322
 21
-0.6234110915899912
 31
0.0
210
0.0
220
0.0
230
-1.0
 40
0.0417142578386621
 41
3.13423078572057
 42
3.311943914529972
  0
ELLIPSE
  5
10C
330
D2
100
AcDbEntity
  8
0
  6
Continuous
 62
     0
370
     0
100
AcDbEllipse
 10
527.3303198923478
 20
519.7801278974452
 30
0.0
 11
3.532366829311322
 21
-0.6234110915899912
 31
0.0
210
0.0
220
0.0
230
-1.0
 40
0.0417142578386621
 41
6.275823439310366
 42
9.417416092900156
  0
ELLIPSE
  5
10D
330
D2
100
AcDbEntity
  8
0
  6
Continuous
 62
     0
370
     0
100
AcDbEllipse
 10
527.1279876398103
 20
518.6336745426602
 30
0.0
 11
4.431514798220967
 21
-0.7820975598660655
 31
0.0
210
0.0
220
0.0
230
-1.0
 40
0.0417142578386621
 41
3.134230785720568
 42
3.141592610506163
  0
ELLIPSE
  5
10E
330
D2
100
AcDbEntity
  8
0
  6
Continuous
 62
     0
370
     0
100
AcDbEllipse
 10
527.1279876398103
 20
518.6336745426602
 30
0.0
 11
4.431514798220967
 21
-0.7820975598660655
 31
0.0
210
0.0
220
0.0
230
-1.0
 40
0.0417142578386621
 41
6.275823439310361
 42
9.417416092900154
  0
LWPOLYLINE
  5
10F
330
D2
100
AcDbEntity
  8
0
  6
Continuous
 62
     0
370
    30
100
AcDbPolyline
 90
       21
 70
     0
 43
0.0
 10
512.4004516601562
 20
468.7825317382812
 10
512.335205078125
 20
468.8490600585937
 10
512.2069091796874
 20
469.0514221191405
 10
512.0168457031249
 20
469.3875427246093
 10
511.7671508789062
 20
469.8532714843749
 10
511.4602661132813
 20
470.4438781738281
 10
511.0991821289062
 20
471.1533813476562
 10
510.6873168945312
 20
471.974853515625
 10
510.2281494140624
 20
472.9011535644531
 10
509.7254333496094
 20
473.924560546875
 10
509.1830444335937
 20
475.0370178222656
 10
508.6048278808593
 20
476.2304382324218
 10
507.9946594238281
 20
477.4967651367187
 10
507.3563537597656
 20
478.8279418945312
 10
506.6936340332031
 20
480.2160339355468
 10
506.0102233886718
 20
481.6532897949218
 10
505.3096618652343
 20
483.1320495605468
 10
504.5955200195312
 20
484.6448364257812
 10
503.8712768554687
 20
486.1842041015624
 10
503.1402587890625
 20
487.7430419921875
 10
502.4058837890625
 20
489.3139648437499
  0
LWPOLYLINE
  5
110
330
D2
100
AcDbEntity
  8
0
  6
Continuous
 62
     0
370
    30
100
AcDbPolyline
 90
       13
 70
     0
 43
0.0
 10
518.1558837890625
 20
469.2432556152343
 10
518.2330322265625
 20
469.2338867187499
 10
518.45849609375
 20
469.2545166015625
 10
518.8154296875
 20
469.2996826171874
 10
519.2789916992187
 20
469.3608703613281
 10
519.818359375
 20
469.4291381835937
 10
520.3983154296874
 20
469.4957885742187
 10
520.9802856445312
 20
469.5549926757812
 10
521.5242309570312
 20
469.6035766601562
 10
521.9926147460937
 20
469.6424865722656
 10
522.35205078125
 20
469.6740112304687
 10
522.5787353515625
 20
469.7015075683593
 10
522.6558837890625
 20
469.7272949218749
  0
LWPOLYLINE
  5
111
330
D2
100
AcDbEntity
  8
0
  6
Continuous
 62
     0
370
     0
100
AcDbPolyline
 90
       11
 70
     0
 43
0.0
 10
521.3587646484374
 20
511.8352966308593
 10
521.4249877929687
 20
511.8442687988281
 10
521.6037597656249
 20
511.8659362792969
 10
521.8735961914062
 20
511.8291931152343
 10
522.2268066406249
 20
511.7544860839843
 10
522.6533203125
 20
511.6586608886718
 10
523.1414184570312
 20
511.5524291992187
 10
523.6792602539062
 20
511.44677734375
 10
524.254638671875
 20
511.3558654785156
 10
524.8547363281249
 20
511.2927246093749
 10
525.4666137695312
 20
511.2342834472656
  0
LWPOLYLINE
  5
112
330
D2
100
AcDbEntity
  8
0
  6
Continuous
 62
     0
370
     0
100
AcDbPolyline
 90
        7
 70
     0
 43
0.0
 10
527.2767333984375
 20
508.9662170410156
 10
527.1566162109374
 20
509.5545654296874
 10
526.9491577148437
 20
510.0763549804687
 10
526.6629638671875
 20
510.5157775878906
 10
526.3099975585937
 20
510.8609008789062
 10
525.906005859375
 20
511.1052551269531
 10
525.4666137695312
 20
511.2342834472656
  0
LWPOLYLINE
  5
113
330
D2
100
AcDbEntity
  8
0
  6
Continuous
 62
     0
370
     0
100
AcDbPolyline
 90
       25
 70
     0
 43
0.0
 10
528.0902099609375
 20
498.1946716308593
 10
528.0880126953125
 20
498.2595825195312
 10
528.0816040039062
 20
498.4646911621093
 10
528.0717773437499
 20
498.766357421875
 10
528.0589599609375
 20
499.1295776367187
 10
528.0433349609374
 20
499.5326232910156
 10
528.0251464843749
 20
499.9625854492187
 10
528.00439453125
 20
500.41162109375
 10
527.981201171875
 20
500.8746643066406
 10
527.9554443359375
 20
501.3484191894531
 10
527.9273071289062
 20
501.8305664062499
 10
527.8966674804687
 20
502.3194580078125
 10
527.863525390625
 20
502.8138427734375
 10
527.8280029296874
 20
503.3128051757812
 10
527.7899780273437
 20
503.8155822753906
 10
527.7495117187499
 20
504.3216552734374
 10
527.7066650390625
 20
504.8305053710937
 10
527.6613159179687
 20
505.3417968749999
 10
527.6135864257812
 20
505.8551635742187
 10
527.5634765625
 20
506.370361328125
 10
527.5108642578125
 20
506.8871459960937
 10
527.4559326171875
 20
507.4052734374999
 10
527.3985595703124
 20
507.9246215820312
 10
527.3388671874999
 20
508.4449768066406
 10
527.2767333984375
 20
508.9662170410156
  0
LINE
  5
114
330
D2
100
AcDbEntity
  8
0
  6
Continuous
 62
     0
370
     0
100
AcDbLine
 10
525.0298807125846
 20
470.0139696264219
 30
0.0
 11
525.0298807125846
 21
509.3099611795517
 31
0.0
  0
LINE
  5
115
330
D2
100
AcDbEntity
  8
0
  6
Continuous
 62
     0
370
     0
100
AcDbLine
 10
526.1187582512061
 20
470.9973547215208
 30
0.0
 11
526.1187582512061
 21
508.3094604274252
 31
0.0
  0
LWPOLYLINE
  5
116
330
D2
100
AcDbEntity
  8
0
  6
Continuous
 62
     0
370
     0
100
AcDbPolyline
 90
        5
 70
     0
 43
0.0
 10
526.1187744140625
 20
508.3094482421874
 10
525.9725341796874
 20
508.6726074218749
 10
525.7259521484375
 20
508.9643249511718
 10
525.4014282226562
 20
509.1783142089844
 10
525.0299072265625
 20
509.3099670410156
  0
LWPOLYLINE
  5
117
330
D2
100
AcDbEntity
  8
0
  6
Continuous
 62
     0
370
     0
100
AcDbPolyline
 90
       25
 70
     0
 43
0.0
 10
528.0680541992187
 20
497.6665344238281
 10
528.0588989257812
 20
497.7241210937499
 10
528.03369140625
 20
497.9211730957031
 10
527.9965209960937
 20
498.2146606445312
 10
527.9507446289062
 20
498.5699157714844
 10
527.8982543945312
 20
498.9653015136719
 10
527.8401489257812
 20
499.3879089355468
 10
527.7771606445312
 20
499.8298950195312
 10
527.709716796875
 20
500.2862243652343
 10
527.6380615234375
 20
500.7536010742187
 10
527.5623168945312
 20
501.2296447753906
 10
527.4827270507812
 20
501.7127380371094
 10
527.3992919921875
 20
502.2015991210937
 10
527.3121337890625
 20
502.6953430175781
 10
527.2212524414062
 20
503.1932067871093
 10
527.1268310546875
 20
503.6946105957031
 10
527.0287475585937
 20
504.1990966796874
 10
526.9271240234375
 20
504.7062683105468
 10
526.8219604492187
 20
505.2157897949219
 10
526.7133178710937
 20
505.7274169921875
 10
526.6011962890624
 20
506.2409057617187
 10
526.4857177734374
 20
506.7560119628906
 10
526.3667602539062
 20
507.2725830078125
 10
526.2444458007812
 20
507.7904663085937
 10
526.1187744140625
 20
508.3094482421874
  0
LWPOLYLINE
  5
118
330
D2
100
AcDbEntity
  8
0
  6
Continuous
 62
     0
370
     0
100
AcDbPolyline
 90
        2
 70
     0
 43
0.0
 10
520.2745361328124
 20
511.0332641601562
 10
520.2677612304687
 20
511.0153198242187
  0
LWPOLYLINE
  5
119
330
D2
100
AcDbEntity
  8
0
  6
Continuous
 62
     0
370
     0
100
AcDbPolyline
 90
       18
 70
     0
 43
0.0
 10
520.2677612304687
 20
511.0153198242187
 10
520.2670288085937
 20
510.9880981445312
 10
520.2792968749999
 20
510.9477844238281
 10
520.324462890625
 20
510.8927001953125
 10
520.4205932617187
 20
510.8216247558593
 10
520.5713500976562
 20
510.7355346679687
 10
520.766357421875
 20
510.6369018554687
 10
521.00146484375
 20
510.5277099609375
 10
521.2752685546875
 20
510.4098815917969
 10
521.5851440429687
 20
510.2855529785156
 10
521.9286499023437
 20
510.1568908691406
 10
522.3031005859374
 20
510.0260620117187
 10
522.7058105468749
 20
509.895263671875
 10
523.1334228515625
 20
509.7663879394531
 10
523.5794067382812
 20
509.6410522460937
 10
524.0463256835937
 20
509.5206909179687
 10
524.5269165039062
 20
509.4098205566406
 10
525.0299072265625
 20
509.3099670410156
  0
ARC
  5
11A
330
D2
100
AcDbEntity
  8
0
  6
Continuous
 62
     0
370
     0
100
AcDbCircle
 10
520.3741885465769
 20
512.009501712129
 30
0.0
 40
0.9998578696052797
100
AcDbArc
 50
263.888103821589
 51
349.9655420399178
  0
ELLIPSE
  5
11B
330
D2
100
AcDbEntity
  8
0
  6
Continuous
 62
     0
370
     0
100
AcDbEllipse
 10
525.298936424303
 20
511.1794104576538
 30
0.0
 11
0.3387816707166054
 21
1.971097912227209
 31
0.0
210
0.0
220
0.0
230
1.0
 40
0.0780467898706372
 41
3.477824338647361
 42
4.753639967569714
  0
ELLIPSE
  5
11C
330
D2
100
AcDbEntity
  8
0
  6
Continuous
 62
     0
370
     0
100
AcDbEllipse
 10
530.059835763209
 20
497.847675633752
 30
0.0
 11
1.999999999998926
 21
0.0000020620609608
 31
0.0
210
0.0
220
0.0
230
1.0
 40
0.9991025066924281
 41
2.967058696433694
 42
3.232365700838484
  0
ELLIPSE
  5
11D
330
D2
100
AcDbEntity
  8
0
  6
Continuous
 62
     0
370
     0
100
AcDbEllipse
 10
528.0630102105235
 20
508.7500155796812
 30
0.0
 11
-1.942508405434901
 21
-0.4760893769186522
 31
0.0
210
0.0
220
0.0
230
1.0
 40
0.2124983663422276
 41
5.076477674749771
 42
6.200908961740741
  0
ARC
  5
11E
330
D2
100
AcDbEntity
  8
0
  6
Continuous
 62
     0
370
    30
100
AcDbCircle
 10
530.0520057937107
 20
497.8474214453631
 30
0.0
 40
1.992170870662273
100
AcDbArc
 50
169.9831012254299
 51
179.8046704409119
  0
LWPOLYLINE
  5
11F
330
D2
100
AcDbEntity
  8
0
  6
Continuous
 62
     0
370
    30
100
AcDbPolyline
 90
        6
 70
     0
 43
0.0
 10
521.358642578125
 20
511.8352966308593
 10
521.2502441406249
 20
511.5304870605468
 10
521.0678710937499
 20
511.2961730957031
 10
520.8346557617187
 20
511.1336059570312
 10
520.5612792968749
 20
511.0432739257812
 10
520.2740478515624
 20
511.0333251953124
  0
LWPOLYLINE
  5
120
330
D2
100
AcDbEntity
  8
0
  6
Continuous
 62
     0
370
    30
100
AcDbPolyline
 90
        5
 70
     0
 43
0.0
 10
502.4058837890625
 20
511.9852294921875
 10
506.8811340332031
 20
511.9256896972656
 10
511.3532409667969
 20
511.7470703124999
 10
515.8189697265624
 20
511.4495239257812
 10
520.2752685546875
 20
511.033203125
  0
ARC
  5
121
330
D2
100
AcDbEntity
  8
0
  6
Continuous
 62
     0
370
    30
100
AcDbCircle
 10
502.4011011838434
 20
636.7206480183859
 30
0.0
 40
168.2355783969699
100
AcDbArc
 50
273.4074843329685
 51
275.4365340189755
  0
ARC
  5
122
330
D2
100
AcDbEntity
  8
0
  6
Continuous
 62
     0
370
    30
100
AcDbCircle
 10
502.4060858470918
 20
636.6571952417295
 30
0.0
 40
168.1719380205576
100
AcDbArc
 50
276.8553418932477
 51
277.7313140309518
  0
ARC
  5
123
330
D2
100
AcDbEntity
  8
0
  6
Continuous
 62
     0
370
    30
100
AcDbCircle
 10
446.3537992398395
 20
490.2352554795815
 30
0.0
 40
82.05209023335104
100
AcDbArc
 50
346.4402287465156
 51
359.9986396932962
  0
LWPOLYLINE
  5
124
330
D2
100
AcDbEntity
  8
0
  6
Continuous
 62
     0
370
    30
100
AcDbPolyline
 90
        6
 70
     0
 43
0.0
 10
528.4058837890625
 20
490.2371826171875
 10
528.3922119140624
 20
491.7338256835937
 10
528.3511962890624
 20
493.2300415039062
 10
528.282958984375
 20
494.7252197265624
 10
528.1874389648437
 20
496.2189025878906
 10
528.0646362304687
 20
497.7106018066406
  0
ARC
  5
125
330
D2
100
AcDbEntity
  8
0
  6
Continuous
 62
     0
370
    30
100
AcDbCircle
 10
524.8549822791358
 20
471.3021944985735
 30
0.0
 40
1.300015688442331
100
AcDbArc
 50
277.7317686545468
 51
346.4394408186587
  0
LINE
  5
126
330
D2
100
AcDbEntity
  8
0
  6
Continuous
 62
     0
370
    30
100
AcDbLine
 10
521.3589274896235
 20
511.8369835668052
 30
0.0
 11
522.6964728401838
 21
519.4157720945618
 31
0.0
  0
LINE
  5
127
330
D2
100
AcDbEntity
  8
0
  6
Continuous
 62
     0
370
    30
100
AcDbLine
 10
528.0903854858064
 20
498.194894876311
 30
0.0
 11
531.5595024394368
 21
517.8515769907583
 31
0.0
  0
LWPOLYLINE
  5
128
330
D2
100
AcDbEntity
  8
0
  6
Continuous
 62
     0
370
    30
100
AcDbPolyline
 90
        6
 70
     0
 43
0.0
 10
522.6964721679687
 20
519.415771484375
 10
522.808837890625
 20
519.7521362304687
 10
523.0133666992187
 20
520.04052734375
 10
523.2888793945313
 20
520.2554931640625
 10
523.5941772460937
 20
520.3789672851562
 10
523.8457641601562
 20
520.4189453125
  0
ARC
  5
129
330
D2
100
AcDbEntity
  8
0
  6
Continuous
 62
     0
370
    30
100
AcDbCircle
 10
530.3707156163336
 20
518.0607854604052
 30
0.0
 40
1.207054457696697
100
AcDbArc
 50
350.0194084243364
 51
0.0171274479855441
  0
LWPOLYLINE
  5
12A
330
D2
100
AcDbEntity
  8
0
  6
Continuous
 62
     0
370
    30
100
AcDbPolyline
 90
        5
 70
     0
 43
0.0
 10
530.81591796875
 20
519.1907348632812
 10
531.0643920898437
 20
519.0509033203125
 10
531.3304443359375
 20
518.7933349609375
 10
531.5137939453125
 20
518.44921875
 10
531.5777587890624
 20
518.0611572265624
  0
ARC
  5
12B
330
D2
100
AcDbEntity
  8
0
  6
Continuous
 62
     0
370
    30
100
AcDbCircle
 10
524.8011631763087
 20
505.4494407948448
 30
0.0
 40
15.00002046458664
100
AcDbArc
 50
66.36014995700671
 51
93.62224586759719
  0
ENDBLK
  5
12D
330
D2
100
AcDbEntity
  8
0
100
AcDbBlockEnd
  0
BLOCK
  5
186
330
12F
100
AcDbEntity
  8
0
100
AcDbBlockBegin
  2
d
 70
     0
 10
105.3478393554687
 20
0.0
 30
0.0
  3
d
  1

  0
LINE
  5
130
330
12F
100
AcDbEntity
  8
0
  6
Continuous
 62
     0
370
    30
100
AcDbLine
 10
58.23655935864763
 20
392.1993768836782
 30
0.0
 11
58.08121533504514
 21
392.1993768836782
 31
0.0
  0
LINE
  5
131
330
12F
100
AcDbEntity
  8
0
  6
Continuous
 62
     0
370
    30
100
AcDbLine
 10
58.08121535690083
 20
392.1993768836782
 30
0.0
 11
58.08121535690083
 21
385.2711736534311
 31
0.0
  0
LINE
  5
132
330
12F
100
AcDbEntity
  8
0
  6
Continuous
 62
     0
370
    30
100
AcDbLine
 10
58.08121533504513
 20
385.2711736534311
 30
0.0
 11
58.58632782888044
 21
385.2711736534311
 31
0.0
  0
ARC
  5
133
330
12F
100
AcDbEntity
  8
0
  6
Continuous
 62
     0
370
    30
100
AcDbCircle
 10
66.4811988495843
 20
388.7352752685546
 30
0.0
 40
9.086238112906336
100
AcDbArc
 50
157.5890498371117
 51
202.4109501627763
  0
LINE
  5
134
330
12F
100
AcDbEntity
  8
0
  6
Continuous
 62
     0
370
     0
100
AcDbLine
 10
60.14950414718323
 20
454.4852752685547
 30
0.0
 11
60.14950414718324
 21
548.5576386246058
 31
0.0
  0
LINE
  5
135
330
12F
100
AcDbEntity
  8
0
  6
Continuous
 62
     0
370
     0
100
AcDbLine
 10
60.14950414718322
 20
360.4129119125035
 30
0.0
 11
60.14950414718323
 21
454.4852752685547
 31
0.0
  0
LWPOLYLINE
  5
136
330
12F
100
AcDbEntity
  8
0
  6
Continuous
 62
     0
370
    30
100
AcDbPolyline
 90
       36
 70
     0
 43
0.0
 10
57.91593551635742
 20
509.7352600097656
 10
57.91376876831055
 20
509.6566772460938
 10
57.90730285644531
 20
509.4217834472656
 10
57.89658355712891
 20
509.0322265624999
 10
57.88169479370117
 20
508.4913940429687
 10
57.86276245117187
 20
507.8034973144531
 10
57.83993530273438
 20
506.9741516113281
 10
57.81340026855469
 20
506.0100402832031
 10
57.78337097167969
 20
504.9189147949219
 10
57.75008773803711
 20
503.7096557617187
 10
57.71382141113281
 20
502.391876220703
 10
57.67486572265625
 20
500.9763488769531
 10
57.6335334777832
 20
499.4743347167968
 10
57.59015655517578
 20
497.8980407714844
 10
57.54508209228515
 20
496.260040283203
 10
57.49867630004882
 20
494.5736389160156
 10
57.45131683349609
 20
492.8523254394531
 10
57.40337371826171
 20
491.1099853515625
 10
57.35524368286132
 20
489.3605957031249
 10
57.30730819702149
 20
487.6182250976562
 10
57.25995254516601
 20
485.8969116210937
 10
57.21355819702148
 20
484.2104797363281
 10
57.16849517822265
 20
482.572509765625
 10
57.1251335144043
 20
480.9962158203124
 10
57.08381652832031
 20
479.4942016601562
 10
57.04487991333007
 20
478.0786743164062
 10
57.00863265991211
 20
476.7608947753906
 10
56.97537231445313
 20
475.5516357421875
 10
56.94536209106445
 20
474.4604797363281
 10
56.91884613037109
 20
473.4964294433593
 10
56.89603805541992
 20
472.6670837402344
 10
56.87711715698242
 20
471.9791259765624
 10
56.86224365234375
 20
471.4383544921875
 10
56.85152816772461
 20
471.0487670898437
 10
56.84506607055664
 20
470.8138122558593
 10
56.8429069519043
 20
470.7352600097656
  0
LINE
  5
137
330
12F
100
AcDbEntity
  8
0
  6
Continuous
 62
     0
370
    30
100
AcDbLine
 10
57.89476097508665
 20
399.7352752685547
 30
0.0
 11
56.84925474827727
 21
437.7352396520246
 31
0.0
  0
LINE
  5
138
330
12F
100
AcDbEntity
  8
0
  6
Continuous
 62
     0
370
    30
100
AcDbLine
 10
58.41141995500654
 20
388.7352752685547
 30
0.0
 11
58.60578735229619
 21
384.8858293937034
 31
0.0
  0
LWPOLYLINE
  5
139
330
12F
100
AcDbEntity
  8
0
  6
Continuous
 62
     0
370
    30
100
AcDbPolyline
 90
       10
 70
     0
 43
0.0
 10
58.19643783569336
 20
392.9943237304687
 10
58.19975662231446
 20
392.9286193847656
 10
58.2095718383789
 20
392.734130859375
 10
58.22561645507812
 20
392.4161987304687
 10
58.24734497070313
 20
391.9856567382812
 10
58.27404403686523
 20
391.4566955566406
 10
58.30484390258789
 20
390.8464660644531
 10
58.3387451171875
 20
390.1748657226562
 10
58.37465667724609
 20
389.4635009765625
 10
58.41141891479492
 20
388.7352905273437
  0
LINE
  5
13A
330
12F
100
AcDbEntity
  8
0
  6
Continuous
 62
     0
370
    30
100
AcDbLine
 10
56.76650516140642
 20
448.7352752685547
 30
0.0
 11
56.79144985494128
 21
443.0711989899607
 31
0.0
  0
LINE
  5
13B
330
12F
100
AcDbEntity
  8
0
  6
Continuous
 62
     0
370
    30
100
AcDbLine
 10
56.74134112188497
 20
454.4494901359351
 30
0.0
 11
56.76650516140642
 21
448.7352752685547
 31
0.0
  0
LINE
  5
13C
330
12F
100
AcDbEntity
  8
0
  6
Continuous
 62
     0
370
     0
100
AcDbLine
 10
61.14688248294076
 20
454.4852752685547
 30
0.0
 11
61.14688248294077
 21
549.4852752681738
 31
0.0
  0
LINE
  5
13D
330
12F
100
AcDbEntity
  8
0
  6
Continuous
 62
     0
370
     0
100
AcDbLine
 10
61.14688248294076
 20
359.4852752689355
 30
0.0
 11
61.14688248294076
 21
454.4852752685547
 31
0.0
  0
LINE
  5
13E
330
12F
100
AcDbEntity
  8
0
  6
Continuous
 62
     0
370
    30
100
AcDbLine
 10
73.217141094379
 20
454.4852752685547
 30
0.0
 11
73.21714109437902
 21
549.4852752681746
 31
0.0
  0
LINE
  5
13F
330
12F
100
AcDbEntity
  8
0
  6
Continuous
 62
     0
370
    30
100
AcDbLine
 10
73.21714109437898
 20
359.4852752689347
 30
0.0
 11
73.217141094379
 21
454.4852752685547
 31
0.0
  0
LINE
  5
140
330
12F
100
AcDbEntity
  8
0
  6
Continuous
 62
     0
370
    30
100
AcDbLine
 10
54.741340637207
 20
399.7352752685547
 30
0.0
 11
57.89476097508665
 21
399.7352752685547
 31
0.0
  0
LINE
  5
141
330
12F
100
AcDbEntity
  8
0
  6
Continuous
 62
     0
370
    30
100
AcDbLine
 10
54.74134063720701
 20
399.7352752685547
 30
0.0
 11
54.74134063720701
 21
437.7352752685546
 31
0.0
  0
LINE
  5
142
330
12F
100
AcDbEntity
  8
0
  6
Continuous
 62
     0
370
    30
100
AcDbLine
 10
54.741340637207
 20
400.5352752685547
 30
0.0
 11
49.99134063720701
 21
400.5352752685547
 31
0.0
  0
LINE
  5
143
330
12F
100
AcDbEntity
  8
0
  6
Continuous
 62
     0
370
    30
100
AcDbLine
 10
49.99134063720702
 20
399.2352752685547
 30
0.0
 11
49.99134063720702
 21
438.2352752685546
 31
0.0
  0
LINE
  5
144
330
12F
100
AcDbEntity
  8
0
  6
Continuous
 62
     0
370
    30
100
AcDbLine
 10
9.991340637207057
 20
399.7352752685547
 30
0.0
 11
9.991340637207061
 21
437.7352752685546
 31
0.0
  0
LINE
  5
145
330
12F
100
AcDbEntity
  8
0
  6
Continuous
 62
     0
370
    30
100
AcDbLine
 10
49.99134063720701
 20
399.2352752685547
 30
0.0
 11
10.49134063720706
 21
399.2352752685547
 31
0.0
  0
LINE
  5
146
330
12F
100
AcDbEntity
  8
0
  6
Continuous
 62
     0
370
    30
100
AcDbLine
 10
10.49134063720705
 20
399.2352752685547
 30
0.0
 11
10.49134063720706
 21
438.2352752685546
 31
0.0
  0
LWPOLYLINE
  5
147
330
12F
100
AcDbEntity
  8
0
  6
Continuous
 62
     0
370
    30
100
AcDbPolyline
 90
       17
 70
     0
 43
0.0
 10
24.94132995605468
 20
438.2352600097656
 10
24.86511039733886
 20
438.2200012207031
 10
24.63934707641601
 20
438.1761779785156
 10
24.27453804016113
 20
438.1111450195312
 10
23.7842788696289
 20
438.0342407226562
 10
23.18728637695312
 20
437.9568481445312
 10
22.50510215759277
 20
437.8911437988281
 10
21.76358795166015
 20
437.8467407226562
 10
20.99142837524414
 20
437.8311767578124
 10
20.21895217895508
 20
437.8467407226562
 10
19.47758102416992
 20
437.8910217285156
 10
18.7955265045166
 20
437.9569702148437
 10
18.19833374023437
 20
438.0341491699218
 10
17.70807456970215
 20
438.1112365722656
 10
17.34309577941894
 20
438.1763610839843
 10
17.11760330200195
 20
438.219970703125
 10
17.04133987426757
 20
438.2352905273437
  0
LINE
  5
148
330
12F
100
AcDbEntity
  8
0
  6
Continuous
 62
     0
370
    30
100
AcDbLine
 10
10.49134063720706
 20
399.2352752685547
 30
0.0
 11
9.991340637207059
 21
399.7352752685547
 31
0.0
  0
LINE
  5
149
330
12F
100
AcDbEntity
  8
0
  6
Continuous
 62
     0
370
    30
100
AcDbLine
 10
17.04134063720705
 20
444.2352752685547
 30
0.0
 11
17.04134063720705
 21
438.2352752685546
 31
0.0
  0
LINE
  5
14A
330
12F
100
AcDbEntity
  8
0
  6
Continuous
 62
     0
370
    30
100
AcDbLine
 10
17.04134063720704
 20
444.2352752685547
 30
0.0
 11
24.94134063720704
 21
444.2352752685547
 31
0.0
  0
LINE
  5
14B
330
12F
100
AcDbEntity
  8
0
  6
Continuous
 62
     0
370
    30
100
AcDbLine
 10
17.54134063720704
 20
444.7352752685547
 30
0.0
 11
24.44134063720704
 21
444.7352752685547
 31
0.0
  0
LINE
  5
14C
330
12F
100
AcDbEntity
  8
0
  6
Continuous
 62
     0
370
    30
100
AcDbLine
 10
17.54134063720705
 20
444.7352752685547
 30
0.0
 11
17.04134063720706
 21
444.2352752685547
 31
0.0
  0
LINE
  5
14D
330
12F
100
AcDbEntity
  8
0
  6
Continuous
 62
     0
370
    30
100
AcDbLine
 10
38.99134063720703
 20
470.7352752685546
 30
0.0
 11
56.84290710480262
 21
470.7352752685546
 31
0.0
  0
LINE
  5
14E
330
12F
100
AcDbEntity
  8
0
  6
Continuous
 62
     0
370
    30
100
AcDbLine
 10
38.99134063720703
 20
470.7352752685546
 30
0.0
 11
38.99134063720703
 21
485.4557453396988
 31
0.0
  0
LINE
  5
14F
330
12F
100
AcDbEntity
  8
0
  6
Continuous
 62
     0
370
    30
100
AcDbLine
 10
57.91599345343986
 20
509.7352752685546
 30
0.0
 11
41.61316112520799
 21
509.7352752685546
 31
0.0
  0
LINE
  5
150
330
12F
100
AcDbEntity
  8
0
  6
Continuous
 62
     0
370
    30
100
AcDbLine
 10
24.44134063720705
 20
444.7352752685547
 30
0.0
 11
24.94134063720704
 21
444.2352752685547
 31
0.0
  0
LINE
  5
151
330
12F
100
AcDbEntity
  8
0
  6
Continuous
 62
     0
370
    30
100
AcDbLine
 10
24.94134063720705
 20
438.2352674435548
 30
0.0
 11
24.94134063720705
 21
444.2352752685547
 31
0.0
  0
LINE
  5
152
330
12F
100
AcDbEntity
  8
0
  6
Continuous
 62
     0
370
    30
100
AcDbLine
 10
10.49134063720706
 20
438.2352752685546
 30
0.0
 11
9.991340637207066
 21
437.7352752685546
 31
0.0
  0
LINE
  5
153
330
12F
100
AcDbEntity
  8
0
  6
Continuous
 62
     0
370
    30
100
AcDbLine
 10
49.99134064720702
 20
438.2352752685546
 30
0.0
 11
24.94132993785354
 21
438.2352752685546
 31
0.0
  0
LINE
  5
154
330
12F
100
AcDbEntity
  8
0
  6
Continuous
 62
     0
370
    30
100
AcDbLine
 10
17.04134063720705
 20
438.2352752685546
 30
0.0
 11
10.49134063720706
 21
438.2352752685546
 31
0.0
  0
LINE
  5
155
330
12F
100
AcDbEntity
  8
0
  6
Continuous
 62
     0
370
    30
100
AcDbLine
 10
54.74134064720701
 20
436.9352752685546
 30
0.0
 11
49.99134063720702
 21
436.9352752685546
 31
0.0
  0
LINE
  5
156
330
12F
100
AcDbEntity
  8
0
  6
Continuous
 62
     0
370
    30
100
AcDbLine
 10
56.84925474798277
 20
437.7352752685546
 30
0.0
 11
54.74134063720701
 21
437.7352752685546
 31
0.0
  0
LINE
  5
157
330
12F
100
AcDbEntity
  8
0
  6
Continuous
 62
     0
370
    30
100
AcDbLine
 10
73.21714110437901
 20
549.4852752681738
 30
0.0
 11
61.14688248294077
 21
549.4852752681738
 31
0.0
  0
LINE
  5
158
330
12F
100
AcDbEntity
  8
0
  6
Continuous
 62
     0
370
    30
100
AcDbLine
 10
73.21714110437899
 20
359.4852752689355
 30
0.0
 11
61.14688248294076
 21
359.4852752689355
 31
0.0
  0
ARC
  5
159
330
12F
100
AcDbEntity
  8
0
  6
Continuous
 62
     0
370
    30
100
AcDbCircle
 10
61.14689482306193
 20
548.4852620003002
 30
0.0
 40
1.000013267949896
100
AcDbArc
 50
90.00070702769452
 51
175.8495510135411
  0
ARC
  5
15A
330
12F
100
AcDbEntity
  8
0
  6
Continuous
 62
     0
370
    30
100
AcDbCircle
 10
61.14689482306197
 20
360.4852885368072
 30
0.0
 40
1.000013267948914
100
AcDbArc
 50
184.1504489863502
 51
269.9992929723034
  0
LWPOLYLINE
  5
15B
330
12F
100
AcDbEntity
  8
0
  6
Continuous
 62
     0
370
    30
100
AcDbPolyline
 90
        5
 70
     0
 43
0.0
 10
56.74134445190429
 20
454.5888366699219
 10
56.74790191650391
 20
458.6255493164062
 10
56.76710510253906
 20
462.6622009277343
 10
56.79901123046875
 20
466.6987915039062
 10
56.8429069519043
 20
470.7352600097656
  0
ARC
  5
15C
330
12F
100
AcDbEntity
  8
0
  6
Continuous
 62
     0
370
    30
100
AcDbCircle
 10
1356.740469788193
 20
454.4852714107479
 30
0.0
 40
1299.999129150681
100
AcDbArc
 50
180.0045635549226
 51
180.5030687199862
  0
LWPOLYLINE
  5
15D
330
12F
100
AcDbEntity
  8
0
  6
Continuous
 62
     0
370
    30
100
AcDbPolyline
 90
        7
 70
     0
 43
0.0
 10
60.14950561523438
 20
360.4129028320312
 10
59.86016845703125
 20
364.4895935058593
 10
59.58364868164062
 20
368.5671997070312
 10
59.31995391845703
 20
372.6456298828125
 10
59.06904220581054
 20
376.7248535156249
 10
58.83095169067383
 20
380.8048706054687
 10
58.60579681396484
 20
384.8856201171875
  0
ARC
  5
15E
330
12F
100
AcDbEntity
  8
0
  6
Continuous
 62
     0
370
    30
100
AcDbCircle
 10
1356.798885924562
 20
454.4819645103003
 30
0.0
 40
1300.057634000785
100
AcDbArc
 50
175.850296034909
 51
177.5641577228276
  0
LWPOLYLINE
  5
15F
330
12F
100
AcDbEntity
  8
0
  6
Continuous
 62
     0
370
    30
100
AcDbPolyline
 90
        3
 70
     0
 43
0.0
 10
56.8492546081543
 20
437.7352294921875
 10
56.81761550903321
 20
440.4031677246093
 10
56.79145050048828
 20
443.0711669921874
  0
LWPOLYLINE
  5
160
330
12F
100
AcDbEntity
  8
0
  6
Continuous
 62
     0
370
    30
100
AcDbPolyline
 90
        3
 70
     0
 43
0.0
 10
57.89476013183594
 20
399.7352905273437
 10
58.04122543334961
 20
396.3646545410156
 10
58.19643402099609
 20
392.9944152832031
  0
LWPOLYLINE
  5
161
330
12F
100
AcDbEntity
  8
0
  6
Continuous
 62
     0
370
    30
100
AcDbPolyline
 90
        3
 70
     0
 43
0.0
 10
56.79145050048828
 20
443.0711669921874
 10
56.81761550903321
 20
440.4031677246093
 10
56.8492546081543
 20
437.7352294921875
  0
LINE
  5
162
330
12F
100
AcDbEntity
  8
0
  6
Continuous
 62
     0
370
    30
100
AcDbLine
 10
41.61316112520796
 20
511.9852752685546
 30
0.0
 11
41.61316112520796
 21
491.1565568794141
 31
0.0
  0
LINE
  5
163
330
12F
100
AcDbEntity
  8
0
  6
Continuous
 62
     0
370
    30
100
AcDbLine
 10
41.61316022556151
 20
491.1078454379206
 30
0.0
 11
41.61316017533853
 21
491.1565568794142
 31
0.0
  0
ELLIPSE
  5
164
330
12F
100
AcDbEntity
  8
0
  6
Continuous
 62
     0
370
     0
100
AcDbEllipse
 10
16.68873081530061
 20
519.7801584150234
 30
0.0
 11
3.532366831552115
 21
0.6234110788932324
 31
0.0
210
0.0
220
0.0
230
0.9999999999999998
 40
0.0417142730194679
 41
0.157520566541236
 42
2.974857204581887
  0
ELLIPSE
  5
165
330
12F
100
AcDbEntity
  8
0
  6
Continuous
 62
     0
370
     0
100
AcDbEllipse
 10
16.89106306358914
 20
518.6337050602382
 30
0.0
 11
4.431514801032145
 21
0.7820975439374042
 31
0.0
210
0.0
220
0.0
230
1.0
 40
0.0417142730194679
 41
6.283094675692384
 42
9.417416179067453
  0
ELLIPSE
  5
166
330
12F
100
AcDbEntity
  8
0
  6
Continuous
 62
     0
370
     0
100
AcDbEllipse
 10
16.89106306358914
 20
518.6337050602382
 30
0.0
 11
4.431514801032145
 21
0.7820975439374042
 31
0.0
210
0.0
220
0.0
230
1.0
 40
0.0417142730194679
 41
3.134230871887866
 42
3.141592696673455
  0
LWPOLYLINE
  5
167
330
12F
100
AcDbEntity
  8
0
  6
Continuous
 62
     0
370
    30
100
AcDbPolyline
 90
       38
 70
     0
 43
0.0
 10
41.6131591796875
 20
491.1565551757812
 10
40.87003326416016
 20
489.5617980957031
 10
40.13039016723633
 20
487.9694213867187
 10
39.39770889282226
 20
486.3868713378906
 10
38.675537109375
 20
484.8218383789062
 10
37.96747207641601
 20
483.2820129394531
 10
37.27713394165039
 20
481.7752075195312
 10
36.60828399658203
 20
480.3095703124999
 10
35.96475601196289
 20
478.8934326171875
 10
35.35039901733398
 20
477.53515625
 10
34.76918411254882
 20
476.2433776855468
 10
34.22513580322265
 20
475.0269165039062
 10
33.72227478027344
 20
473.8946228027343
 10
33.26453399658203
 20
472.8551330566406
 10
32.85575103759765
 20
471.9170532226562
 10
32.49965667724609
 20
471.0886535644531
 10
32.19963073730468
 20
470.3776550292968
 10
31.95871925354003
 20
469.7909851074219
 10
31.77927589416503
 20
469.3341979980468
 10
31.6634521484375
 20
469.0124206542968
 10
31.61241722106933
 20
468.8287353515625
 10
31.626802444458
 20
468.7850646972655
 10
31.70643997192382
 20
468.8816223144531
 10
31.85036849975586
 20
469.1168823242187
 10
32.05713653564453
 20
469.4883422851562
 10
32.32435989379883
 20
469.9913330078125
 10
32.64944839477539
 20
470.620849609375
 10
33.02913284301757
 20
471.3703002929687
 10
33.45983505249023
 20
472.2323608398437
 10
33.93790054321289
 20
473.1995849609375
 10
34.45937347412109
 20
474.2637634277343
 10
35.0202407836914
 20
475.416534423828
 10
35.61650085449219
 20
476.6495666503906
 10
36.24416732788086
 20
477.9544372558594
 10
36.89929580688476
 20
479.3228759765624
 10
37.57804870605468
 20
480.7467346191406
 10
38.27662658691406
 20
482.2179565429687
 10
38.99134063720703
 20
483.7287292480469
  0
LWPOLYLINE
  5
168
330
12F
100
AcDbEntity
  8
0
  6
Continuous
 62
     0
370
    30
100
AcDbPolyline
 90
       17
 70
     0
 43
0.0
 10
32.20695495605468
 20
470.0816955566406
 10
32.23943328857421
 20
470.078857421875
 10
32.33649826049804
 20
470.2149963378906
 10
32.49704360961914
 20
470.48828125
 10
32.71937561035156
 20
470.8956604003906
 10
33.00085067749023
 20
471.4319458007812
 10
33.33865356445312
 20
472.0916137695312
 10
33.7296028137207
 20
472.8682556152343
 10
34.16991806030273
 20
473.7541198730468
 10
34.65574264526367
 20
474.7413330078124
 10
35.1830940246582
 20
475.8215942382812
 10
35.74787139892578
 20
476.9863586425781
 10
36.34597778320312
 20
478.2270812988281
 10
36.97337341308593
 20
479.5352172851562
 10
37.62602615356445
 20
480.9022827148437
 10
38.29996871948242
 20
482.3199157714843
 10
38.99134063720703
 20
483.7798767089843
  0
LWPOLYLINE
  5
169
330
12F
100
AcDbEntity
  8
0
  6
Continuous
 62
     0
370
    30
100
AcDbPolyline
 90
       21
 70
     0
 43
0.0
 10
32.20695495605468
 20
470.0816955566406
 10
32.23835754394531
 20
470.22021484375
 10
32.33221435546875
 20
470.4919738769531
 10
32.48748397827148
 20
470.8942260742187
 10
32.70260620117187
 20
471.4230651855468
 10
32.9750862121582
 20
472.0727233886718
 10
33.30224990844726
 20
472.8370056152344
 10
33.68114852905273
 20
473.7091674804687
 10
34.10820770263672
 20
474.6811828613281
 10
34.57976531982422
 20
475.7449035644531
 10
35.09206771850585
 20
476.8920288085937
 10
35.64121627807617
 20
478.1139221191406
 10
36.22331237792968
 20
479.402099609375
 10
36.83450698852539
 20
480.7481079101562
 10
37.47096633911132
 20
482.1436157226562
 10
38.12889862060547
 20
483.5803833007812
 10
38.80461120605469
 20
485.0504455566406
 10
39.49445343017578
 20
486.5458679199218
 10
40.19482803344726
 20
488.0589599609375
 10
40.90226745605469
 20
489.5821838378906
 10
41.6131591796875
 20
491.1078491210937
  0
LWPOLYLINE
  5
16A
330
12F
100
AcDbEntity
  8
0
  6
Continuous
 62
     0
370
    30
100
AcDbPolyline
 90
       13
 70
     0
 43
0.0
 10
25.86316108703613
 20
469.2432861328125
 10
25.78602790832519
 20
469.2339172363281
 10
25.56055831909179
 20
469.2545471191406
 10
25.20363044738769
 20
469.2997131347656
 10
24.74008178710937
 20
469.3609008789062
 10
24.20070266723632
 20
469.4291687011719
 10
23.6207103729248
 20
469.4958190917969
 10
23.03875923156738
 20
469.5550231933593
 10
22.49482154846191
 20
469.6036071777343
 10
22.02643585205078
 20
469.6425170898437
 10
21.66702079772949
 20
469.6740417480468
 10
21.44031906127929
 20
469.7015380859375
 10
21.36316108703613
 20
469.7273254394531
  0
LWPOLYLINE
  5
16B
330
12F
100
AcDbEntity
  8
0
  6
Continuous
 62
     0
370
    30
100
AcDbPolyline
 90
       13
 70
     0
 43
0.0
 10
21.36316108703613
 20
469.7273254394531
 10
21.44033622741699
 20
469.7510375976562
 10
21.66695404052734
 20
469.7696533203124
 10
22.02638435363769
 20
469.777587890625
 10
22.49486351013183
 20
469.7690124511718
 10
23.03870773315429
 20
469.7392883300781
 10
23.62073707580566
 20
469.6864624023437
 10
24.20062637329101
 20
469.6130981445312
 10
24.74014663696289
 20
469.5258789062499
 10
25.20353317260742
 20
469.4345092773438
 10
25.56063270568847
 20
469.3499755859375
 10
25.7860164642334
 20
469.2834167480468
 10
25.86316108703613
 20
469.2432861328125
  0
LWPOLYLINE
  5
16C
330
12F
100
AcDbEntity
  8
0
  6
Continuous
 62
     0
370
     0
100
AcDbPolyline
 90
       25
 70
     0
 43
0.0
 10
16.74230003356933
 20
509.3157653808593
 10
16.68021011352539
 20
508.7886352539062
 10
16.62048149108886
 20
508.2618713378906
 10
16.56312942504882
 20
507.7356567382812
 10
16.50816535949707
 20
507.2101440429687
 10
16.45560073852539
 20
506.6854858398437
 10
16.40544319152832
 20
506.1618957519531
 10
16.35770606994628
 20
505.6396179199218
 10
16.31239128112793
 20
505.1188659667968
 10
16.26951026916503
 20
504.5999755859375
 10
16.22906684875488
 20
504.0832824707031
 10
16.19106483459472
 20
503.5692443847656
 10
16.1555118560791
 20
503.058349609375
 10
16.12240982055664
 20
502.5513000488281
 10
16.09176445007324
 20
502.0489807128906
 10
16.06357955932617
 20
501.5524597167968
 10
16.03786277770996
 20
501.0633544921875
 10
16.01462745666504
 20
500.5837707519531
 10
15.99389362335205
 20
500.1168518066406
 10
15.9756965637207
 20
499.6673889160156
 10
15.96010780334472
 20
499.2428588867187
 10
15.94726371765136
 20
498.855712890625
 10
15.93742561340332
 20
498.5271911621094
 10
15.93106746673583
 20
498.2920227050781
 10
15.92883014678955
 20
498.1947021484375
  0
LWPOLYLINE
  5
16D
330
12F
100
AcDbEntity
  8
0
  6
Continuous
 62
     0
370
     0
100
AcDbPolyline
 90
        7
 70
     0
 43
0.0
 10
18.55243682861328
 20
511.6141357421875
 10
18.11302185058593
 20
511.4864501953125
 10
17.70907402038574
 20
511.2396545410156
 10
17.3560733795166
 20
510.8889465332031
 10
17.06988334655761
 20
510.4418640136718
 10
16.86241149902343
 20
509.9116821289062
 10
16.74230003356933
 20
509.3157653808593
  0
LWPOLYLINE
  5
16E
330
12F
100
AcDbEntity
  8
0
  6
Continuous
 62
     0
370
     0
100
AcDbPolyline
 90
       11
 70
     0
 43
0.0
 10
18.55243682861328
 20
511.6141357421875
 10
19.16422080993652
 20
511.6645202636719
 10
19.76397895812988
 20
511.7123107910156
 10
20.33946800231933
 20
511.7804565429687
 10
20.87732696533203
 20
511.8560180664062
 10
21.36552810668945
 20
511.9251708984375
 10
21.7921085357666
 20
511.9774475097655
 10
22.14539909362792
 20
512.002685546875
 10
22.4152603149414
 20
511.9851379394531
 10
22.59404373168945
 20
511.905517578125
 10
22.66029930114746
 20
511.8353271484375
  0
LINE
  5
16F
330
12F
100
AcDbEntity
  8
0
  6
Continuous
 62
     0
370
     0
100
AcDbLine
 10
18.98916988555989
 20
509.8096717418872
 30
0.0
 11
18.98916988555988
 21
470.0140001440001
 31
0.0
  0
LWPOLYLINE
  5
170
330
12F
100
AcDbEntity
  8
0
  6
Continuous
 62
     0
370
     0
100
AcDbPolyline
 90
        5
 70
     0
 43
0.0
 10
18.98917007446289
 20
509.8096618652343
 10
18.61759948730468
 20
509.6824035644531
 10
18.29309272766113
 20
509.4659423828125
 10
18.04649353027343
 20
509.1686401367187
 10
17.90029144287109
 20
508.8023376464843
  0
LINE
  5
171
330
12F
100
AcDbEntity
  8
0
  6
Continuous
 62
     0
370
     0
100
AcDbLine
 10
17.90029234693834
 20
508.8023510012767
 30
0.0
 11
17.90029234693833
 21
470.9973852390988
 31
0.0
  0
LWPOLYLINE
  5
172
330
12F
100
AcDbEntity
  8
0
  6
Continuous
 62
     0
370
     0
100
AcDbPolyline
 90
       25
 70
     0
 43
0.0
 10
17.90029144287109
 20
508.8023376464843
 10
17.77462577819824
 20
508.2750244140624
 10
17.65230560302734
 20
507.7481384277343
 10
17.53336143493652
 20
507.2218627929687
 10
17.4178237915039
 20
506.6963500976562
 10
17.30572319030761
 20
506.1717529296875
 10
17.19708442687988
 20
505.6483154296874
 10
17.09193801879882
 20
505.1261901855468
 10
16.99031448364257
 20
504.6056823730468
 10
16.89224815368652
 20
504.0870666503906
 10
16.79777145385742
 20
503.5706787109375
 10
16.70692825317382
 20
503.0569458007812
 10
16.61976432800293
 20
502.5463867187499
 10
16.53633689880371
 20
502.0396423339843
 10
16.45671844482421
 20
501.5375976562499
 10
16.38100624084472
 20
501.0412902832031
 10
16.30932807922363
 20
500.5522766113281
 10
16.24186706542968
 20
500.0726318359375
 10
16.17889213562011
 20
499.6054382324218
 10
16.1208152770996
 20
499.1553039550781
 10
16.06830978393554
 20
498.7296447753906
 10
16.02250289916992
 20
498.3406677246093
 10
15.98536014556884
 20
498.0092773437499
 10
15.96013069152832
 20
497.7698669433594
 10
15.9509801864624
 20
497.6665649414062
  0
LWPOLYLINE
  5
173
330
12F
100
AcDbEntity
  8
0
  6
Continuous
 62
     0
370
     0
100
AcDbPolyline
 90
        2
 70
     0
 43
0.0
 10
15.9509801864624
 20
497.6665649414062
 10
15.95167827606201
 20
497.6664123535156
  0
LWPOLYLINE
  5
174
330
12F
100
AcDbEntity
  8
0
  6
Continuous
 62
     0
370
     0
100
AcDbPolyline
 90
       21
 70
     0
 43
0.0
 10
18.98917007446289
 20
509.8096618652343
 10
19.41671180725097
 20
509.8876037597656
 10
19.83037567138671
 20
509.9712829589844
 10
20.2316665649414
 20
510.0592041015625
 10
20.619384765625
 20
510.1496887207031
 10
20.99411582946777
 20
510.2413024902343
 10
21.35421562194824
 20
510.3330078125
 10
21.69609451293945
 20
510.4239501953125
 10
22.01755905151367
 20
510.5129089355468
 10
22.31711769104003
 20
510.5986328124999
 10
22.59301567077636
 20
510.6799011230468
 10
22.84367561340332
 20
510.7555236816406
 10
23.06767463684082
 20
510.8242797851562
 10
23.26328468322754
 20
510.885009765625
 10
23.4299030303955
 20
510.936798095703
 10
23.56560134887695
 20
510.9786071777343
 10
23.66280937194824
 20
511.0089416503906
 10
23.72025680541992
 20
511.0270385742187
 10
23.74601364135742
 20
511.033447265625
 10
23.75227928161621
 20
511.0291442871093
 10
23.75131797790527
 20
511.0153503417969
  0
ELLIPSE
  5
175
330
12F
100
AcDbEntity
  8
0
  6
Continuous
 62
     0
370
     0
100
AcDbEllipse
 10
18.72011425248484
 20
511.7280929930433
 30
0.0
 11
0.3247034986074524
 21
-1.973465894813506
 31
0.0
210
0.0
220
0.0
230
1.0
 40
0.0920601556771302
 41
4.755008418374835
 42
6.030824047297207
  0
ELLIPSE
  5
176
330
12F
100
AcDbEntity
  8
0
  6
Continuous
 62
     0
370
     0
100
AcDbEllipse
 10
15.95604045717912
 20
509.2549195122875
 30
0.0
 11
-1.944163328095071
 21
0.4692855779696261
 31
0.0
210
0.0
220
0.0
230
1.0
 40
0.1314068362396216
 41
3.203543370444112
 42
4.327974657435097
  0
ELLIPSE
  5
177
330
12F
100
AcDbEntity
  8
0
  6
Continuous
 62
     0
370
     0
100
AcDbEllipse
 10
13.95921486314995
 20
497.8477061513301
 30
0.0
 11
1.999999999998926
 21
0.0000020620609875
 31
0.0
210
0.0
220
0.0
230
-1.0
 40
0.9991025066924281
 41
6.10865341393681
 42
6.286197780717552
  0
LWPOLYLINE
  5
178
330
12F
100
AcDbEntity
  8
0
  6
Continuous
 62
     0
370
    30
100
AcDbPolyline
 90
        4
 70
     0
 43
0.0
 10
15.9592056274414
 20
497.8416748046875
 10
15.95631217956543
 20
497.7415161132812
 10
15.95386695861816
 20
497.7050476074218
 10
15.95411777496337
 20
497.7076416015624
  0
LWPOLYLINE
  5
179
330
12F
100
AcDbEntity
  8
0
  6
Continuous
 62
     0
370
    30
100
AcDbPolyline
 90
        6
 70
     0
 43
0.0
 10
22.6601505279541
 20
511.8368835449218
 10
22.76823806762695
 20
511.5315551757812
 10
22.95057106018066
 20
511.2967529296875
 10
23.18388748168945
 20
511.1338806152343
 10
23.45750999450683
 20
511.0433349609374
 10
23.74499702453613
 20
511.0333557128906
  0
LWPOLYLINE
  5
17A
330
12F
100
AcDbEntity
  8
0
  6
Continuous
 62
     0
370
    30
100
AcDbPolyline
 90
        5
 70
     0
 43
0.0
 10
41.61316299438476
 20
511.9852600097656
 10
37.13793182373047
 20
511.9257202148437
 10
32.66580963134765
 20
511.7471008300781
 10
28.2000560760498
 20
511.4495544433593
 10
23.74380683898925
 20
511.0332336425781
  0
ARC
  5
17B
330
12F
100
AcDbEntity
  8
0
  6
Continuous
 62
     0
370
    30
100
AcDbCircle
 10
41.61794941430115
 20
636.7206785359639
 30
0.0
 40
168.2355783969699
100
AcDbArc
 50
264.5634659810244
 51
266.5925156670315
  0
ARC
  5
17C
330
12F
100
AcDbEntity
  8
0
  6
Continuous
 62
     0
370
    30
100
AcDbCircle
 10
41.61296475105262
 20
636.6572257593077
 30
0.0
 40
168.1719380205576
100
AcDbArc
 50
262.2686859690481
 51
263.1446581067522
  0
ARC
  5
17D
330
12F
100
AcDbEntity
  8
0
  6
Continuous
 62
     0
370
    30
100
AcDbCircle
 10
97.66525135842801
 20
490.2352859971743
 30
0.0
 40
82.05209023347398
100
AcDbArc
 50
180.0013603067139
 51
193.559771253474
  0
LWPOLYLINE
  5
17E
330
12F
100
AcDbEntity
  8
0
  6
Continuous
 62
     0
370
    30
100
AcDbPolyline
 90
        6
 70
     0
 43
0.0
 10
15.61316108703613
 20
490.2372131347656
 10
15.62685108184814
 20
491.7338562011718
 10
15.66783237457275
 20
493.2300720214843
 10
15.73610877990722
 20
494.7252502441406
 10
15.8316421508789
 20
496.2189331054687
 10
15.9543924331665
 20
497.7106323242187
  0
ARC
  5
17F
330
12F
100
AcDbEntity
  8
0
  6
Continuous
 62
     0
370
    30
100
AcDbCircle
 10
19.16406831892777
 20
471.302225016145
 30
0.0
 40
1.300015688435493
100
AcDbArc
 50
193.5605591811127
 51
262.2682313454836
  0
LINE
  5
180
330
12F
100
AcDbEntity
  8
0
  6
Continuous
 62
     0
370
    30
100
AcDbLine
 10
22.66012318568617
 20
511.8370140843834
 30
0.0
 11
21.32257786321565
 21
519.4158026121399
 31
0.0
  0
LINE
  5
181
330
12F
100
AcDbEntity
  8
0
  6
Continuous
 62
     0
370
    30
100
AcDbLine
 10
15.92866514473816
 20
498.1949253938891
 30
0.0
 11
12.45954826396255
 21
517.8516075083365
 31
0.0
  0
LWPOLYLINE
  5
182
330
12F
100
AcDbEntity
  8
0
  6
Continuous
 62
     0
370
    30
100
AcDbPolyline
 90
        6
 70
     0
 43
0.0
 10
21.32257843017578
 20
519.415771484375
 10
21.20895957946777
 20
519.7545776367187
 10
21.0019359588623
 20
520.04443359375
 10
20.72332954406738
 20
520.2593994140625
 10
20.41589736938476
 20
520.3812866210937
 10
20.16566658020019
 20
520.4194946289062
  0
ARC
  5
183
330
12F
100
AcDbEntity
  8
0
  6
Continuous
 62
     0
370
    30
100
AcDbCircle
 10
13.64833508643033
 20
518.060815990051
 30
0.0
 40
1.207054459179721
100
AcDbArc
 50
179.9828731248513
 51
189.9805921448936
  0
LWPOLYLINE
  5
184
330
12F
100
AcDbEntity
  8
0
  6
Continuous
 62
     0
370
    30
100
AcDbPolyline
 90
        5
 70
     0
 43
0.0
 10
13.20313930511474
 20
519.1907958984375
 10
12.95463275909424
 20
519.0509033203125
 10
12.68859100341797
 20
518.7933959960937
 10
12.50527191162109
 20
518.44921875
 10
12.44128036499023
 20
518.0611572265624
  0
ARC
  5
185
330
12F
100
AcDbEntity
  8
0
  6
Continuous
 62
     0
370
    30
100
AcDbCircle
 10
19.21788747822091
 20
505.4494713124472
 30
0.0
 40
15.00002046456267
100
AcDbArc
 50
86.37775413238118
 51
113.6398500430154
  0
ENDBLK
  5
187
330
12F
100
AcDbEntity
  8
0
100
AcDbBlockEnd
  0
ENDSEC
  0
SECTION
  2
ENTITIES
  0
INSERT
  5
95
330
1F
100
AcDbEntity
  8
0
  6
Continuous
 62
   250
370
     0
100
AcDbBlockReference
  2
a
 10
155.3448638916015
 20
101.3182830810546
 30
0.0
  0
INSERT
  5
D1
330
1F
100
AcDbEntity
  8
0
  6
Continuous
 62
   250
370
     0
100
AcDbBlockReference
  2
b
 10
155.3448638916015
 20
194.9132080078125
 30
0.0
  0
INSERT
  5
12E
330
1F
100
AcDbEntity
  8
0
  6
Continuous
 62
   250
370
     0
100
AcDbBlockReference
  2
c
 10
204.7324523925781
 20
167.2408752441406
 30
0.0
  0
INSERT
  5
188
330
1F
100
AcDbEntity
  8
0
  6
Continuous
 62
   250
370
     0
100
AcDbBlockReference
  2
d
 10
105.3478393554687
 20
0.0
 30
0.0
  0
ENDSEC
  0
SECTION
  2
OBJECTS
  0
DICTIONARY
  5
C
330
0
100
AcDbDictionary
281
     1
  3
ACAD_GROUP
350
D
  3
ACAD_LAYOUT
350
1A
  3
ACAD_MLEADERSTYLE
350
18B
  3
ACAD_MLINESTYLE
350
17
  3
ACAD_PLOTSETTINGS
350
19
  3
ACAD_PLOTSTYLENAME
350
E
  3
ACAD_VISUALSTYLE
350
2A
  3
AcDbVariableDictionary
350
189
  0
DICTIONARY
  5
D
102
{ACAD_REACTORS
330
C
102
}
330
C
100
AcDbDictionary
281
     1
  0
DICTIONARY
  5
1A
102
{ACAD_REACTORS
330
C
102
}
330
C
100
AcDbDictionary
281
     1
  3
Layout1
350
1E
  3
Layout2
350
26
  3
Model
350
22
  0
DICTIONARY
  5
18B
102
{ACAD_REACTORS
330
C
102
}
330
C
100
AcDbDictionary
281
     1
  0
DICTIONARY
  5
17
102
{ACAD_REACTORS
330
C
102
}
330
C
100
AcDbDictionary
281
     1
  3
Standard
350
18
  0
DICTIONARY
  5
19
102
{ACAD_REACTORS
330
C
102
}
330
C
100
AcDbDictionary
281
     1
  0
ACDBDICTIONARYWDFLT
  5
E
102
{ACAD_REACTORS
330
C
102
}
330
C
100
AcDbDictionary
281
     1
  3
Normal
350
F
100
AcDbDictionaryWithDefault
340
F
  0
DICTIONARY
  5
2A
102
{ACAD_REACTORS
330
C
102
}
330
C
100
AcDbDictionary
281
     1
  3
2dWireframe
350
2F
  3
3D Hidden
350
31
  3
3dWireframe
350
30
  3
Basic
350
32
  3
Brighten
350
36
  3
ColorChange
350
3A
  3
Conceptual
350
34
  3
Dim
350
35
  3
Facepattern
350
39
  3
Flat
350
2B
  3
FlatWithEdges
350
2C
  3
Gouraud
350
2D
  3
GouraudWithEdges
350
2E
  3
Linepattern
350
38
  3
Realistic
350
33
  3
Thicken
350
37
  0
DICTIONARY
  5
189
102
{ACAD_REACTORS
330
C
102
}
330
C
100
AcDbDictionary
281
     1
  3
DIMASSOC
350
194
  3
PSOLHEIGHT
350
18D
  3
PSOLWIDTH
350
18C
  0
LAYOUT
  5
1E
102
{ACAD_REACTORS
330
1A
102
}
330
1A
100
AcDbPlotSettings
  1

  2
none_device
  4

  6

 40
0.0
 41
0.0
 42
0.0
 43
0.0
 44
0.0
 45
0.0
 46
0.0
 47
0.0
 48
0.0
 49
0.0
140
0.0
141
0.0
142
1.0
143
1.0
 70
   688
 72
     0
 73
     0
 74
     5
  7

 75
    16
147
1.0
148
0.0
149
0.0
100
AcDbLayout
  1
Layout1
 70
     1
 71
     1
 10
0.0
 20
0.0
 11
420.0
 21
297.0
 12
0.0
 22
0.0
 32
0.0
 14
1.000000000000000E+20
 24
1.000000000000000E+20
 34
1.000000000000000E+20
 15
-1.000000000000000E+20
 25
-1.000000000000000E+20
 35
-1.000000000000000E+20
146
0.0
 13
0.0
 23
0.0
 33
0.0
 16
1.0
 26
0.0
 36
0.0
 17
0.0
 27
1.0
 37
0.0
 76
     0
330
1B
  0
LAYOUT
  5
26
102
{ACAD_REACTORS
330
1A
102
}
330
1A
100
AcDbPlotSettings
  1

  2
none_device
  4

  6

 40
0.0
 41
0.0
 42
0.0
 43
0.0
 44
0.0
 45
0.0
 46
0.0
 47
0.0
 48
0.0
 49
0.0
140
0.0
141
0.0
142
1.0
143
1.0
 70
   688
 72
     0
 73
     0
 74
     5
  7

 75
    16
147
1.0
148
0.0
149
0.0
100
AcDbLayout
  1
Layout2
 70
     1
 71
     2
 10
0.0
 20
0.0
 11
0.0
 21
0.0
 12
0.0
 22
0.0
 32
0.0
 14
0.0
 24
0.0
 34
0.0
 15
0.0
 25
0.0
 35
0.0
146
0.0
 13
0.0
 23
0.0
 33
0.0
 16
1.0
 26
0.0
 36
0.0
 17
0.0
 27
1.0
 37
0.0
 76
     0
330
23
  0
LAYOUT
  5
22
102
{ACAD_REACTORS
330
1A
102
}
330
1A
100
AcDbPlotSettings
  1

  2
none_device
  4

  6

 40
0.0
 41
0.0
 42
0.0
 43
0.0
 44
0.0
 45
0.0
 46
0.0
 47
0.0
 48
0.0
 49
0.0
140
0.0
141
0.0
142
1.0
143
1.0
 70
  1712
 72
     0
 73
     0
 74
     0
  7

 75
     0
147
1.0
148
0.0
149
0.0
100
AcDbLayout
  1
Model
 70
     1
 71
     0
 10
9.991340637207031
 20
182.9130859374999
 11
534.0277099609375
 21
549.4852905273437
 12
0.0
 22
0.0
 32
0.0
 14
9.991340637207031
 24
182.9130859374999
 34
0.0
 15
534.0277099609375
 25
549.4852905273437
 35
0.0
146
0.0
 13
0.0
 23
0.0
 33
0.0
 16
1.0
 26
0.0
 36
0.0
 17
0.0
 27
1.0
 37
0.0
 76
     0
330
1F
  0
MLINESTYLE
  5
18
102
{ACAD_REACTORS
330
17
102
}
330
17
100
AcDbMlineStyle
  2
STANDARD
 70
     0
  3

 62
   256
 51
90.0
 52
90.0
 71
     2
 49
0.5
 62
   256
  6
BYLAYER
 49
-0.5
 62
   256
  6
BYLAYER
  0
ACDBPLACEHOLDER
  5
F
102
{ACAD_REACTORS
330
E
102
}
330
E
  0
ACAD_PROXY_OBJECT
  5
2F
102
{ACAD_REACTORS
330
2A
102
}
330
2A
100
AcDbProxyObject
 90
      499
 91
      501
 95
   851991
 70
     0
 93
      436
310
42CC9915DA5C99599C985B595049028333333333333E3BF0000000000000FB0107901411070040501600405405064090741402480A0340
 94
        0
1001
ACAD
1000
AcDbSavedByObjectVersion
1070
     0
  0
ACAD_PROXY_OBJECT
  5
31
102
{ACAD_REACTORS
330
2A
102
}
330
2A
100
AcDbProxyObject
 90
      499
 91
      501
 95
   851991
 70
     0
 93
      500
310
424CD108121A5919195B90640502408333333333333E3BF0000000000000FB01079024090700405020000000000001110200405405064090740C02480A0340
 94
        0
1001
ACAD
1000
AcDbSavedByObjectVersion
1070
     0
  0
ACAD_PROXY_OBJECT
  5
30
102
{ACAD_REACTORS
330
2A
102
}
330
2A
100
AcDbProxyObject
 90
      499
 91
      501
 95
   851991
 70
     0
 93
      436
310
42CCD915DA5C99599C985B595059028333333333333E3BF0000000000000FB0107901411070040501600405405064090741402480A0340
 94
        0
1001
ACAD
1000
AcDbSavedByObjectVersion
1070
     0
  0
ACAD_PROXY_OBJECT
  5
32
102
{ACAD_REACTORS
330
2A
102
}
330
2A
100
AcDbProxyObject
 90
      499
 91
      501
 95
   851991
 70
     0
 93
      388
310
4150985CDA58D07406404333333333333E3BF0000000000000FB0107A41107004050150841D405064090741402480A0352
 94
        0
1001
ACAD
1000
AcDbSavedByObjectVersion
1070
     0
  0
ACAD_PROXY_OBJECT
  5
36
102
{ACAD_REACTORS
330
2A
102
}
330
2A
100
AcDbProxyObject
 90
      499
 91
      501
 95
   851991
 70
     0
 93
      428
310
42109C9A59DA1D195B90C409028333333333333E3BF0000000000000FB010790141107004050150841D405064090741402480A029956
 94
        0
1001
ACAD
1000
AcDbSavedByObjectVersion
1070
     0
  0
ACAD_PROXY_OBJECT
  5
3A
102
{ACAD_REACTORS
330
2A
102
}
330
2A
100
AcDbProxyObject
 90
      499
 91
      501
 95
   851991
 70
     0
 93
      452
310
42D0DBDB1BDC90DA185B99D95104090240C333333333333E3BF0000000000000FB0108901411070040501508421405064090741402480A0354
 94
        0
1001
ACAD
1000
AcDbSavedByObjectVersion
1070
     0
  0
ACAD_PROXY_OBJECT
  5
34
102
{ACAD_REACTORS
330
2A
102
}
330
2A
100
AcDbProxyObject
 90
      499
 91
      501
 95
   851991
 70
     0
 93
      500
310
4290DBDB98D95C1D1D585B10940D028333333333333E3BF0000000000000FB0107902409070040501000000000000111010841D405064090740C02480A0340
 94
        0
1001
ACAD
1000
AcDbSavedByObjectVersion
1070
     0
  0
ACAD_PROXY_OBJECT
  5
35
102
{ACAD_REACTORS
330
2A
102
}
330
2A
100
AcDbProxyObject
 90
      499
 91
      501
 95
   851991
 70
     0
 93
      412
310
40D11A5B50B409028333333333333E3BF0000000000000FB010790141107004050150841D405064090741402480A02677FFFFFD4
 94
        0
1001
ACAD
1000
AcDbSavedByObjectVersion
1070
     0
  0
ACAD_PROXY_OBJECT
  5
39
102
{ACAD_REACTORS
330
2A
102
}
330
2A
100
AcDbProxyObject
 90
      499
 91
      501
 95
   851991
 70
     0
 93
      444
310
42D19858D95C185D1D195C9B90F409028333333333333E3BF0000000000000FB010790141107004050150841D405064090741402480A0350
 94
        0
1001
ACAD
1000
AcDbSavedByObjectVersion
1070
     0
  0
ACAD_PROXY_OBJECT
  5
2B
102
{ACAD_REACTORS
330
2A
102
}
330
2A
100
AcDbProxyObject
 90
      499
 91
      501
 95
   851991
 70
     0
 93
      388
310
41119B185D240901404333333333333E3BF0000000000000F9010740A41107004050150841D405064090741402480A1B50
 94
        0
1001
ACAD
1000
AcDbSavedByObjectVersion
1070
     0
  0
ACAD_PROXY_OBJECT
  5
2C
102
{ACAD_REACTORS
330
2A
102
}
330
2A
100
AcDbProxyObject
 90
      499
 91
      501
 95
   851991
 70
     0
 93
      476
310
43519B185D15DA5D1A115919D95CD0140901404333333333333E3BF0000000000000F9010740901411070040501600405405064090741402480A1B50
 94
        0
1001
ACAD
1000
AcDbSavedByObjectVersion
1070
     0
  0
ACAD_PROXY_OBJECT
  5
2D
102
{ACAD_REACTORS
330
2A
102
}
330
2A
100
AcDbProxyObject
 90
      499
 91
      501
 95
   851991
 70
     0
 93
      412
310
41D1DBDD5C985D5910240902404333333333333E3BF0000000000000F9010740A411070040501641D405064090741402480A1B50
 94
        0
1001
ACAD
1000
AcDbSavedByObjectVersion
1070
     0
  0
ACAD_PROXY_OBJECT
  5
2E
102
{ACAD_REACTORS
330
2A
102
}
330
2A
100
AcDbProxyObject
 90
      499
 91
      501
 95
   851991
 70
     0
 93
      500
310
4411DBDD5C985D5915DA5D1A115919D95CD0340902404333333333333E3BF0000000000000F9010740901411070040501600405405064090741402480A1B50
 94
        0
1001
ACAD
1000
AcDbSavedByObjectVersion
1070
     0
  0
ACAD_PROXY_OBJECT
  5
38
102
{ACAD_REACTORS
330
2A
102
}
330
2A
100
AcDbProxyObject
 90
      499
 91
      501
 95
   851991
 70
     0
 93
      444
310
42D31A5B995C185D1D195C9B90E409028333333333333E3BF0000000000000FB010790141107004050750841D405064090741402483A0350
 94
        0
1001
ACAD
1000
AcDbSavedByObjectVersion
1070
     0
  0
ACAD_PROXY_OBJECT
  5
33
102
{ACAD_REACTORS
330
2A
102
}
330
2A
100
AcDbProxyObject
 90
      499
 91
      501
 95
   851991
 70
     0
 93
      420
310
425499585B1A5CDD1A58D08409028333333333333E3BF0000000000000FB01079019070040501508421405064090741402480A1B45
 94
        0
1001
ACAD
1000
AcDbSavedByObjectVersion
1070
     0
  0
ACAD_PROXY_OBJECT
  5
37
102
{ACAD_REACTORS
330
2A
102
}
330
2A
100
AcDbProxyObject
 90
      499
 91
      501
 95
   851991
 70
     0
 93
      412
310
41D51A1A58DAD95B90D409028333333333333E3BF0000000000000FB010790141107004050150C41D405064090741402480A0352
 94
        0
1001
ACAD
1000
AcDbSavedByObjectVersion
1070
     0
  0
DICTIONARYVAR
  5
194
102
{ACAD_REACTORS
330
189
102
}
330
189
100
DictionaryVariables
280
     0
  1
1
  0
DICTIONARYVAR
  5
18D
102
{ACAD_REACTORS
330
189
102
}
330
189
100
DictionaryVariables
280
     0
  1
80.000000
  0
DICTIONARYVAR
  5
18C
102
{ACAD_REACTORS
330
189
102
}
330
189
100
DictionaryVariables
280
     0
  1
5.000000
  0
ENDSEC
  0
EOF
