  0
SECTION
  2
HEADER
  9
$ACADVER
  1
AC1015
  9
$ACADMAINTVER
 70
     6
  9
$DWGCODEPAGE
  3
ANSI_1252
  9
$INSBASE
 10
0.0
 20
0.0
 30
0.0
  9
$EXTMIN
 10
86.380409
 20
37.561028
 30
0.0
  9
$EXTMAX
 10
333.619598
 20
283.610474
 30
0.0
  9
$LIMMIN
 10
86.380409
 20
37.561028
  9
$LIMMAX
 10
333.619598
 20
283.610474
  9
$ORTHOMODE
 70
     0
  9
$REGENMODE
 70
     1
  9
$FILLMODE
 70
     1
  9
$QTEXTMODE
 70
     0
  9
$MIRRTEXT
 70
     1
  9
$LTSCALE
 40
1.0
  9
$ATTMODE
 70
     1
  9
$TEXTSIZE
 40
2.5
  9
$TRACEWID
 40
1.0
  9
$TEXTSTYLE
  7
Standard
  9
$CLAYER
  8
0
  9
$CELTYPE
  6
ByLayer
  9
$CECOLOR
 62
   256
  9
$CELTSCALE
 40
1.0
  9
$DISPSILH
 70
     0
  9
$DIMSCALE
 40
1.0
  9
$DIMASZ
 40
2.5
  9
$DIMEXO
 40
0.625
  9
$DIMDLI
 40
3.75
  9
$DIMRND
 40
0.0
  9
$DIMDLE
 40
0.0
  9
$DIMEXE
 40
1.25
  9
$DIMTP
 40
0.0
  9
$DIMTM
 40
0.0
  9
$DIMTXT
 40
2.5
  9
$DIMCEN
 40
2.5
  9
$DIMTSZ
 40
0.0
  9
$DIMTOL
 70
     0
  9
$DIMLIM
 70
     0
  9
$DIMTIH
 70
     0
  9
$DIMTOH
 70
     0
  9
$DIMSE1
 70
     0
  9
$DIMSE2
 70
     0
  9
$DIMTAD
 70
     1
  9
$DIMZIN
 70
     8
  9
$DIMBLK
  1

  9
$DIMASO
 70
     1
  9
$DIMSHO
 70
     1
  9
$DIMPOST
  1

  9
$DIMAPOST
  1

  9
$DIMALT
 70
     0
  9
$DIMALTD
 70
     3
  9
$DIMALTF
 40
0.03937
  9
$DIMLFAC
 40
1.0
  9
$DIMTOFL
 70
     1
  9
$DIMTVP
 40
0.0
  9
$DIMTIX
 70
     0
  9
$DIMSOXD
 70
     0
  9
$DIMSAH
 70
     0
  9
$DIMBLK1
  1

  9
$DIMBLK2
  1

  9
$DIMSTYLE
  2
ISO-25
  9
$DIMCLRD
 70
     0
  9
$DIMCLRE
 70
     0
  9
$DIMCLRT
 70
     0
  9
$DIMTFAC
 40
1.0
  9
$DIMGAP
 40
0.625
  9
$DIMJUST
 70
     0
  9
$DIMSD1
 70
     0
  9
$DIMSD2
 70
     0
  9
$DIMTOLJ
 70
     0
  9
$DIMTZIN
 70
     8
  9
$DIMALTZ
 70
     0
  9
$DIMALTTZ
 70
     0
  9
$DIMUPT
 70
     0
  9
$DIMDEC
 70
     2
  9
$DIMTDEC
 70
     2
  9
$DIMALTU
 70
     2
  9
$DIMALTTD
 70
     3
  9
$DIMTXSTY
  7
Standard
  9
$DIMAUNIT
 70
     0
  9
$DIMADEC
 70
     0
  9
$DIMALTRND
 40
0.0
  9
$DIMAZIN
 70
     0
  9
$DIMDSEP
 70
    44
  9
$DIMATFIT
 70
     3
  9
$DIMFRAC
 70
     0
  9
$DIMLDRBLK
  1

  9
$DIMLUNIT
 70
     2
  9
$DIMLWD
 70
    -2
  9
$DIMLWE
 70
    -2
  9
$DIMTMOVE
 70
     0
  9
$LUNITS
 70
     2
  9
$LUPREC
 70
     4
  9
$SKETCHINC
 40
1.0
  9
$FILLETRAD
 40
10.0
  9
$AUNITS
 70
     0
  9
$AUPREC
 70
     0
  9
$MENU
  1
.
  9
$ELEVATION
 40
0.0
  9
$PELEVATION
 40
0.0
  9
$THICKNESS
 40
0.0
  9
$LIMCHECK
 70
     0
  9
$CHAMFERA
 40
10.0
  9
$CHAMFERB
 40
10.0
  9
$CHAMFERC
 40
20.0
  9
$CHAMFERD
 40
0.0
  9
$SKPOLY
 70
     0
  9
$TDCREATE
 40
2455608.573919768
  9
$TDUCREATE
 40
2455608.532253102
  9
$TDUPDATE
 40
2455608.57391978
  9
$TDUUPDATE
 40
2455608.532253114
  9
$TDINDWG
 40
0.0000000116
  9
$TDUSRTIMER
 40
0.0000000116
  9
$USRTIMER
 70
     1
  9
$ANGBASE
 50
0.0
  9
$ANGDIR
 70
     0
  9
$PDMODE
 70
     0
  9
$PDSIZE
 40
0.0
  9
$PLINEWID
 40
0.0
  9
$SPLFRAME
 70
     0
  9
$SPLINETYPE
 70
     6
  9
$SPLINESEGS
 70
     8
  9
$HANDSEED
  5
130
  9
$SURFTAB1
 70
     6
  9
$SURFTAB2
 70
     6
  9
$SURFTYPE
 70
     6
  9
$SURFU
 70
     6
  9
$SURFV
 70
     6
  9
$UCSBASE
  2

  9
$UCSNAME
  2

  9
$UCSORG
 10
0.0
 20
0.0
 30
0.0
  9
$UCSXDIR
 10
1.0
 20
0.0
 30
0.0
  9
$UCSYDIR
 10
0.0
 20
1.0
 30
0.0
  9
$UCSORTHOREF
  2

  9
$UCSORTHOVIEW
 70
     0
  9
$UCSORGTOP
 10
0.0
 20
0.0
 30
0.0
  9
$UCSORGBOTTOM
 10
0.0
 20
0.0
 30
0.0
  9
$UCSORGLEFT
 10
0.0
 20
0.0
 30
0.0
  9
$UCSORGRIGHT
 10
0.0
 20
0.0
 30
0.0
  9
$UCSORGFRONT
 10
0.0
 20
0.0
 30
0.0
  9
$UCSORGBACK
 10
0.0
 20
0.0
 30
0.0
  9
$PUCSBASE
  2

  9
$PUCSNAME
  2

  9
$PUCSORG
 10
0.0
 20
0.0
 30
0.0
  9
$PUCSXDIR
 10
1.0
 20
0.0
 30
0.0
  9
$PUCSYDIR
 10
0.0
 20
1.0
 30
0.0
  9
$PUCSORTHOREF
  2

  9
$PUCSORTHOVIEW
 70
     0
  9
$PUCSORGTOP
 10
0.0
 20
0.0
 30
0.0
  9
$PUCSORGBOTTOM
 10
0.0
 20
0.0
 30
0.0
  9
$PUCSORGLEFT
 10
0.0
 20
0.0
 30
0.0
  9
$PUCSORGRIGHT
 10
0.0
 20
0.0
 30
0.0
  9
$PUCSORGFRONT
 10
0.0
 20
0.0
 30
0.0
  9
$PUCSORGBACK
 10
0.0
 20
0.0
 30
0.0
  9
$USERI1
 70
     0
  9
$USERI2
 70
     0
  9
$USERI3
 70
     0
  9
$USERI4
 70
     0
  9
$USERI5
 70
     0
  9
$USERR1
 40
0.0
  9
$USERR2
 40
0.0
  9
$USERR3
 40
0.0
  9
$USERR4
 40
0.0
  9
$USERR5
 40
0.0
  9
$WORLDVIEW
 70
     1
  9
$SHADEDGE
 70
     3
  9
$SHADEDIF
 70
    70
  9
$TILEMODE
 70
     1
  9
$MAXACTVP
 70
    64
  9
$PINSBASE
 10
0.0
 20
0.0
 30
0.0
  9
$PLIMCHECK
 70
     0
  9
$PEXTMIN
 10
1.000000E+20
 20
1.000000E+20
 30
1.000000E+20
  9
$PEXTMAX
 10
-1.000000E+20
 20
-1.000000E+20
 30
-1.000000E+20
  9
$PLIMMIN
 10
0.0
 20
0.0
  9
$PLIMMAX
 10
420.0
 20
297.0
  9
$UNITMODE
 70
     0
  9
$VISRETAIN
 70
     1
  9
$PLINEGEN
 70
     0
  9
$PSLTSCALE
 70
     1
  9
$TREEDEPTH
 70
  3020
  9
$CMLSTYLE
  2
Standard
  9
$CMLJUST
 70
     0
  9
$CMLSCALE
 40
20.0
  9
$PROXYGRAPHICS
 70
     1
  9
$MEASUREMENT
 70
     1
  9
$CELWEIGHT
370
    -1
  9
$ENDCAPS
280
     0
  9
$JOINSTYLE
280
     0
  9
$LWDISPLAY
290
     0
  9
$INSUNITS
 70
     4
  9
$HYPERLINKBASE
  1

  9
$STYLESHEET
  1

  9
$XEDIT
290
     1
  9
$CEPSNTYPE
380
     0
  9
$PSTYLEMODE
290
     1
  9
$FINGERPRINTGUID
  2
{020FCB29-B112-4E1E-8575-3F21FD232B03}
  9
$VERSIONGUID
  2
{FAEB1C32-E019-11D5-929B-00C0DF256EC4}
  9
$EXTNAMES
290
     1
  9
$PSVPSCALE
 40
0.0
  9
$OLESTARTUP
290
     0
  0
ENDSEC
  0
SECTION
  2
CLASSES
  0
CLASS
  1
ACDBDICTIONARYWDFLT
  2
AcDbDictionaryWithDefault
  3
ObjectDBX Classes
 90
        0
280
     0
281
     0
  0
CLASS
  1
VISUALSTYLE
  2
AcDbVisualStyle
  3
ObjectDBX Classes
 90
     4095
280
     0
281
     0
  0
CLASS
  1
DICTIONARYVAR
  2
AcDbDictionaryVar
  3
ObjectDBX Classes
 90
        0
280
     0
281
     0
  0
CLASS
  1
ACDBPLACEHOLDER
  2
AcDbPlaceHolder
  3
ObjectDBX Classes
 90
        0
280
     0
281
     0
  0
CLASS
  1
LAYOUT
  2
AcDbLayout
  3
ObjectDBX Classes
 90
        0
280
     0
281
     0
  0
ENDSEC
  0
SECTION
  2
TABLES
  0
TABLE
  2
VPORT
  5
8
330
0
100
AcDbSymbolTable
 70
     1
  0
VPORT
  5
29
330
8
100
AcDbSymbolTableRecord
100
AcDbViewportTableRecord
  2
*Active
 70
     0
 10
0.0
 20
0.0
 11
1.0
 21
1.0
 12
344.186916
 22
148.5
 13
0.0
 23
0.0
 14
10.0
 24
10.0
 15
10.0
 25
10.0
 16
0.0
 26
0.0
 36
1.0
 17
0.0
 27
0.0
 37
0.0
 40
297.0
 41
1.972973
 42
50.0
 43
0.0
 44
0.0
 50
0.0
 51
0.0
 71
     0
 72
   100
 73
     1
 74
     3
 75
     0
 76
     0
 77
     0
 78
     0
281
     0
 65
     1
110
0.0
120
0.0
130
0.0
111
1.0
121
0.0
131
0.0
112
0.0
122
1.0
132
0.0
 79
     0
146
0.0
  0
ENDTAB
  0
TABLE
  2
LTYPE
  5
5
330
0
100
AcDbSymbolTable
 70
     1
  0
LTYPE
  5
14
330
5
100
AcDbSymbolTableRecord
100
AcDbLinetypeTableRecord
  2
ByBlock
 70
     0
  3

 72
    65
 73
     0
 40
0.0
  0
LTYPE
  5
15
330
5
100
AcDbSymbolTableRecord
100
AcDbLinetypeTableRecord
  2
ByLayer
 70
     0
  3

 72
    65
 73
     0
 40
0.0
  0
LTYPE
  5
16
330
5
100
AcDbSymbolTableRecord
100
AcDbLinetypeTableRecord
  2
Continuous
 70
     0
  3
Solid line
 72
    65
 73
     0
 40
0.0
  0
ENDTAB
  0
TABLE
  2
LAYER
  5
2
330
0
100
AcDbSymbolTable
 70
     1
  0
LAYER
  5
10
330
2
100
AcDbSymbolTableRecord
100
AcDbLayerTableRecord
  2
0
 70
     0
 62
   106
  6
Continuous
370
     0
390
F
  0
ENDTAB
  0
TABLE
  2
STYLE
  5
3
330
0
100
AcDbSymbolTable
 70
     4
  0
STYLE
  5
11
330
3
100
AcDbSymbolTableRecord
100
AcDbTextStyleTableRecord
  2
Standard
 70
     0
 40
0.0
 41
1.0
 50
0.0
 71
     0
 42
2.5
  3
txt
  4

  0
STYLE
  5
3B
330
3
100
AcDbSymbolTableRecord
100
AcDbTextStyleTableRecord
  2
Default
 70
     0
 40
0.0
 41
1.0
 50
0.0
 71
     0
 42
0.2
  3

  4

1001
ACAD
1000
txt
1071
        0
  0
STYLE
  5
3C
330
3
100
AcDbSymbolTableRecord
100
AcDbTextStyleTableRecord
  2
ISO
 70
     0
 40
0.0
 41
1.0
 50
0.0
 71
     0
 42
0.2
  3

  4

1001
ACAD
1000
txt
1071
        0
  0
STYLE
  5
3D
330
3
100
AcDbSymbolTableRecord
100
AcDbTextStyleTableRecord
  2
GIANLU
 70
     0
 40
0.0
 41
1.0
 50
0.0
 71
     0
 42
0.2
  3

  4

1001
ACAD
1000
Arial
1071
 33554432
  0
ENDTAB
  0
TABLE
  2
VIEW
  5
6
330
0
100
AcDbSymbolTable
 70
     0
  0
ENDTAB
  0
TABLE
  2
UCS
  5
7
330
0
100
AcDbSymbolTable
 70
     0
  0
ENDTAB
  0
TABLE
  2
APPID
  5
9
330
0
100
AcDbSymbolTable
 70
     1
  0
APPID
  5
12
330
9
100
AcDbSymbolTableRecord
100
AcDbRegAppTableRecord
  2
ACAD
 70
     0
  0
ENDTAB
  0
TABLE
  2
DIMSTYLE
  5
A
330
0
100
AcDbSymbolTable
 70
     4
100
AcDbDimStyleTable
  0
DIMSTYLE
105
27
330
A
100
AcDbSymbolTableRecord
100
AcDbDimStyleTableRecord
  2
ISO-25
 70
     0
 41
2.5
 42
0.625
 43
3.75
 44
1.25
 73
     0
 74
     0
 77
     1
 78
     8
140
2.5
141
2.5
143
0.03937
147
0.625
171
     3
172
     1
271
     2
272
     2
274
     3
278
    44
283
     0
284
     8
340
11
  0
DIMSTYLE
105
3E
330
A
100
AcDbSymbolTableRecord
100
AcDbDimStyleTableRecord
  2
Default
 70
     0
  3
<>
 41
4.375
 42
1.05
 44
2.1
 73
     0
 74
     0
 77
     1
 78
     8
140
3.5
146
0.4
147
1.75
178
     3
271
     2
272
     3
284
     8
340
3B
341
3F
342
3F
  0
DIMSTYLE
105
46
330
A
100
AcDbSymbolTableRecord
100
AcDbDimStyleTableRecord
  2
ISO
 70
     0
  3
<>
 41
4.375
 42
1.05
 44
2.1
 73
     0
 74
     0
 77
     1
 78
     8
140
3.5
146
0.4
147
1.75
178
     3
271
     2
272
     3
284
     8
340
3C
341
3F
342
3F
  0
DIMSTYLE
105
47
330
A
100
AcDbSymbolTableRecord
100
AcDbDimStyleTableRecord
  2
zucchetti_unico
 70
     0
  3
<>
 41
3.5
 42
1.05
 44
2.1
 73
     0
 74
     0
 77
     1
 78
     8
140
3.5
146
0.6
147
1.75
176
     3
177
     3
178
     3
271
     2
272
     2
284
     8
340
3B
  0
ENDTAB
  0
TABLE
  2
BLOCK_RECORD
  5
1
330
0
100
AcDbSymbolTable
 70
     5
  0
BLOCK_RECORD
  5
1F
330
1
100
AcDbSymbolTableRecord
100
AcDbBlockTableRecord
  2
*Model_Space
340
22
  0
BLOCK_RECORD
  5
1B
330
1
100
AcDbSymbolTableRecord
100
AcDbBlockTableRecord
  2
*Paper_Space
340
1E
  0
BLOCK_RECORD
  5
23
330
1
100
AcDbSymbolTableRecord
100
AcDbBlockTableRecord
  2
*Paper_Space0
340
26
  0
BLOCK_RECORD
  5
3F
330
1
100
AcDbSymbolTableRecord
100
AcDbBlockTableRecord
  2
_CLOSED
340
0
  0
BLOCK_RECORD
  5
48
330
1
100
AcDbSymbolTableRecord
100
AcDbBlockTableRecord
  2
a
340
0
102
{BLKREFS
331
A4
102
}
  0
BLOCK_RECORD
  5
A5
330
1
100
AcDbSymbolTableRecord
100
AcDbBlockTableRecord
  2
b
340
0
102
{BLKREFS
331
E8
102
}
  0
BLOCK_RECORD
  5
E9
330
1
100
AcDbSymbolTableRecord
100
AcDbBlockTableRecord
  2
c
340
0
102
{BLKREFS
331
12A
102
}
  0
ENDTAB
  0
ENDSEC
  0
SECTION
  2
BLOCKS
  0
BLOCK
  5
20
330
1F
100
AcDbEntity
  8
0
100
AcDbBlockBegin
  2
*Model_Space
 70
     0
 10
0.0
 20
0.0
 30
0.0
  3
*Model_Space
  1

  0
ENDBLK
  5
21
330
1F
100
AcDbEntity
  8
0
100
AcDbBlockEnd
  0
BLOCK
  5
1C
330
1B
100
AcDbEntity
 67
     1
  8
0
100
AcDbBlockBegin
  2
*Paper_Space
 70
     0
 10
0.0
 20
0.0
 30
0.0
  3
*Paper_Space
  1

  0
ENDBLK
  5
1D
330
1B
100
AcDbEntity
 67
     1
  8
0
100
AcDbBlockEnd
  0
BLOCK
  5
24
330
23
100
AcDbEntity
  8
0
100
AcDbBlockBegin
  2
*Paper_Space0
 70
     0
 10
0.0
 20
0.0
 30
0.0
  3
*Paper_Space0
  1

  0
ENDBLK
  5
25
330
23
100
AcDbEntity
  8
0
100
AcDbBlockEnd
  0
BLOCK
  5
40
330
3F
100
AcDbEntity
  8
0
100
AcDbBlockBegin
  2
_CLOSED
 70
     0
 10
0.0
 20
0.0
 30
0.0
  3
_CLOSED
  1

  0
LINE
  5
42
330
3F
100
AcDbEntity
  8
0
  6
ByBlock
 62
     0
370
    -2
100
AcDbLine
 10
-1.0
 20
0.166667
 30
0.0
 11
0.0
 21
0.0
 31
0.0
  0
LINE
  5
43
330
3F
100
AcDbEntity
  8
0
  6
ByBlock
 62
     0
370
    -2
100
AcDbLine
 10
0.0
 20
0.0
 30
0.0
 11
-1.0
 21
-0.166667
 31
0.0
  0
LINE
  5
44
330
3F
100
AcDbEntity
  8
0
  6
ByBlock
 62
     0
370
    -2
100
AcDbLine
 10
-1.0
 20
0.166667
 30
0.0
 11
-1.0
 21
-0.166667
 31
0.0
  0
LINE
  5
45
330
3F
100
AcDbEntity
  8
0
  6
ByBlock
 62
     0
370
    -2
100
AcDbLine
 10
0.0
 20
0.0
 30
0.0
 11
-1.0
 21
0.0
 31
0.0
  0
ENDBLK
  5
41
330
3F
100
AcDbEntity
  8
0
100
AcDbBlockEnd
  0
BLOCK
  5
A2
330
48
100
AcDbEntity
  8
0
100
AcDbBlockBegin
  2
a
 70
     0
 10
57.616455
 20
61.262081
 30
0.0
  3
a
  1

  0
ARC
  5
49
330
48
100
AcDbEntity
  8
0
  6
Continuous
 62
     0
370
     0
100
AcDbCircle
 10
121.12632
 20
248.86454
 30
0.0
 40
15.3216267176287
100
AcDbArc
 50
35.727269
 51
87.634185
  0
ARC
  5
4A
330
48
100
AcDbEntity
  8
0
  6
Continuous
 62
     0
370
     0
100
AcDbCircle
 10
121.12632
 20
248.86454
 30
0.0
 40
15.3216267176287
100
AcDbArc
 50
125.727269
 51
177.634185
  0
ARC
  5
4B
330
48
100
AcDbEntity
  8
0
  6
Continuous
 62
     0
370
     0
100
AcDbCircle
 10
121.12632
 20
248.86454
 30
0.0
 40
15.3216267176287
100
AcDbArc
 50
215.727269
 51
267.634185
  0
ARC
  5
4C
330
48
100
AcDbEntity
  8
0
  6
Continuous
 62
     0
370
     0
100
AcDbCircle
 10
121.12632
 20
248.86454
 30
0.0
 40
15.3216267176287
100
AcDbArc
 50
305.727269
 51
357.634185
  0
ARC
  5
4D
330
48
100
AcDbEntity
  8
0
  6
Continuous
 62
     0
370
     0
100
AcDbCircle
 10
121.12632
 20
248.86454
 30
0.0
 40
23.20500521730943
100
AcDbArc
 50
0.0
 51
4.160759
  0
ARC
  5
4E
330
48
100
AcDbEntity
  8
0
  6
Continuous
 62
     0
370
     0
100
AcDbCircle
 10
121.12632
 20
248.86454
 30
0.0
 40
23.20500521730943
100
AcDbArc
 50
29.200695
 51
94.160759
  0
ARC
  5
4F
330
48
100
AcDbEntity
  8
0
  6
Continuous
 62
     0
370
     0
100
AcDbCircle
 10
121.12632
 20
248.86454
 30
0.0
 40
23.20500521730943
100
AcDbArc
 50
119.200695
 51
184.160759
  0
ARC
  5
50
330
48
100
AcDbEntity
  8
0
  6
Continuous
 62
     0
370
     0
100
AcDbCircle
 10
121.12632
 20
248.86454
 30
0.0
 40
23.20500521730943
100
AcDbArc
 50
209.200695
 51
274.160759
  0
ARC
  5
51
330
48
100
AcDbEntity
  8
0
  6
Continuous
 62
     0
370
     0
100
AcDbCircle
 10
121.12632
 20
248.86454
 30
0.0
 40
23.20500521730943
100
AcDbArc
 50
299.200695
 51
0.0
  0
ARC
  5
52
330
48
100
AcDbEntity
  8
0
  6
Continuous
 62
     0
370
     0
100
AcDbCircle
 10
121.12632
 20
248.86454
 30
0.0
 40
27.32755986930937
100
AcDbArc
 50
0.0
 51
3.576851
  0
ARC
  5
53
330
48
100
AcDbEntity
  8
0
  6
Continuous
 62
     0
370
     0
100
AcDbCircle
 10
121.12632
 20
248.86454
 30
0.0
 40
27.32755986930937
100
AcDbArc
 50
29.784604
 51
93.576851
  0
ARC
  5
54
330
48
100
AcDbEntity
  8
0
  6
Continuous
 62
     0
370
     0
100
AcDbCircle
 10
121.12632
 20
248.86454
 30
0.0
 40
27.32755986930937
100
AcDbArc
 50
119.784604
 51
183.576851
  0
ARC
  5
55
330
48
100
AcDbEntity
  8
0
  6
Continuous
 62
     0
370
     0
100
AcDbCircle
 10
121.12632
 20
248.86454
 30
0.0
 40
27.32755986930937
100
AcDbArc
 50
209.784604
 51
273.576851
  0
ARC
  5
56
330
48
100
AcDbEntity
  8
0
  6
Continuous
 62
     0
370
     0
100
AcDbCircle
 10
121.12632
 20
248.86454
 30
0.0
 40
27.32755986930937
100
AcDbArc
 50
299.784604
 51
0.0
  0
ARC
  5
57
330
48
100
AcDbEntity
  8
0
  6
Continuous
 62
     0
370
     0
100
AcDbCircle
 10
121.12632
 20
248.86454
 30
0.0
 40
30.0043606326756
100
AcDbArc
 50
0.0
 51
1.821759
  0
ARC
  5
58
330
48
100
AcDbEntity
  8
0
  6
Continuous
 62
     0
370
     0
100
AcDbCircle
 10
121.12632
 20
248.86454
 30
0.0
 40
30.0043606326756
100
AcDbArc
 50
31.539695
 51
91.821759
  0
ARC
  5
59
330
48
100
AcDbEntity
  8
0
  6
Continuous
 62
     0
370
     0
100
AcDbCircle
 10
121.12632
 20
248.86454
 30
0.0
 40
30.0043606326756
100
AcDbArc
 50
121.539695
 51
181.821759
  0
ARC
  5
5A
330
48
100
AcDbEntity
  8
0
  6
Continuous
 62
     0
370
     0
100
AcDbCircle
 10
121.12632
 20
248.86454
 30
0.0
 40
30.0043606326756
100
AcDbArc
 50
211.539695
 51
271.821759
  0
ARC
  5
5B
330
48
100
AcDbEntity
  8
0
  6
Continuous
 62
     0
370
     0
100
AcDbCircle
 10
121.12632
 20
248.86454
 30
0.0
 40
30.0043606326756
100
AcDbArc
 50
301.539695
 51
0.0
  0
ARC
  5
5C
330
48
100
AcDbEntity
  8
0
  6
Continuous
 62
     0
370
    30
100
AcDbCircle
 10
121.12632
 20
248.86454
 30
0.0
 40
32.49999999987168
100
AcDbArc
 50
0.0
 51
2.660303
  0
ARC
  5
5D
330
48
100
AcDbEntity
  8
0
  6
Continuous
 62
     0
370
    30
100
AcDbCircle
 10
121.12632
 20
248.86454
 30
0.0
 40
32.49999999987168
100
AcDbArc
 50
30.701151
 51
92.660303
  0
ARC
  5
5E
330
48
100
AcDbEntity
  8
0
  6
Continuous
 62
     0
370
    30
100
AcDbCircle
 10
121.12632
 20
248.86454
 30
0.0
 40
32.49999999987168
100
AcDbArc
 50
120.701151
 51
182.660303
  0
ARC
  5
5F
330
48
100
AcDbEntity
  8
0
  6
Continuous
 62
     0
370
    30
100
AcDbCircle
 10
121.12632
 20
248.86454
 30
0.0
 40
32.49999999987168
100
AcDbArc
 50
210.701151
 51
272.660303
  0
ARC
  5
60
330
48
100
AcDbEntity
  8
0
  6
Continuous
 62
     0
370
    30
100
AcDbCircle
 10
121.12632
 20
248.86454
 30
0.0
 40
32.49999999987168
100
AcDbArc
 50
300.701151
 51
0.0
  0
ARC
  5
61
330
48
100
AcDbEntity
  8
0
  6
Continuous
 62
     0
370
    30
100
AcDbCircle
 10
121.12632
 20
248.86454
 30
0.0
 40
32.50036058926898
100
AcDbArc
 50
0.0
 51
2.660648
  0
ARC
  5
62
330
48
100
AcDbEntity
  8
0
  6
Continuous
 62
     0
370
    30
100
AcDbCircle
 10
121.12632
 20
248.86454
 30
0.0
 40
32.50036058926898
100
AcDbArc
 50
30.700806
 51
92.660648
  0
ARC
  5
63
330
48
100
AcDbEntity
  8
0
  6
Continuous
 62
     0
370
    30
100
AcDbCircle
 10
121.12632
 20
248.86454
 30
0.0
 40
32.50036058926898
100
AcDbArc
 50
120.700806
 51
182.660648
  0
ARC
  5
64
330
48
100
AcDbEntity
  8
0
  6
Continuous
 62
     0
370
    30
100
AcDbCircle
 10
121.12632
 20
248.86454
 30
0.0
 40
32.50036058926898
100
AcDbArc
 50
210.700806
 51
272.660648
  0
ARC
  5
65
330
48
100
AcDbEntity
  8
0
  6
Continuous
 62
     0
370
    30
100
AcDbCircle
 10
121.12632
 20
248.86454
 30
0.0
 40
32.50036058926898
100
AcDbArc
 50
300.700806
 51
0.0
  0
LINE
  5
66
330
48
100
AcDbEntity
  8
0
  6
Continuous
 62
     0
370
     0
100
AcDbLine
 10
140.644976
 20
259.932909
 30
0.0
 11
142.080168
 21
255.143314
 31
0.0
  0
LINE
  5
67
330
48
100
AcDbEntity
  8
0
  6
Continuous
 62
     0
370
     0
100
AcDbLine
 10
142.080168
 20
255.143314
 30
0.0
 11
143.515359
 21
250.353718
 31
0.0
  0
LINE
  5
68
330
48
100
AcDbEntity
  8
0
  6
Continuous
 62
     0
370
     0
100
AcDbLine
 10
145.955482
 20
263.761182
 30
0.0
 11
148.005755
 21
256.918903
 31
0.0
  0
LINE
  5
69
330
48
100
AcDbEntity
  8
0
  6
Continuous
 62
     0
370
     0
100
AcDbLine
 10
148.005755
 20
256.918903
 30
0.0
 11
150.056029
 21
250.076624
 31
0.0
  0
LINE
  5
6A
330
48
100
AcDbEntity
  8
0
  6
Continuous
 62
     0
370
     0
100
AcDbLine
 10
151.716222
 20
264.592578
 30
0.0
 11
153.520463
 21
258.571373
 31
0.0
  0
LINE
  5
6B
330
48
100
AcDbEntity
  8
0
  6
Continuous
 62
     0
370
     0
100
AcDbLine
 10
153.520463
 20
258.571373
 30
0.0
 11
155.324703
 21
252.550167
 31
0.0
  0
LINE
  5
6C
330
48
100
AcDbEntity
  8
0
  6
Continuous
 62
     0
370
     0
100
AcDbLine
 10
110.057951
 20
268.383196
 30
0.0
 11
114.847546
 21
269.818388
 31
0.0
  0
LINE
  5
6D
330
48
100
AcDbEntity
  8
0
  6
Continuous
 62
     0
370
     0
100
AcDbLine
 10
114.847546
 20
269.818388
 30
0.0
 11
119.637142
 21
271.253579
 31
0.0
  0
LINE
  5
6E
330
48
100
AcDbEntity
  8
0
  6
Continuous
 62
     0
370
     0
100
AcDbLine
 10
106.229678
 20
273.693702
 30
0.0
 11
113.071957
 21
275.743976
 31
0.0
  0
LINE
  5
6F
330
48
100
AcDbEntity
  8
0
  6
Continuous
 62
     0
370
     0
100
AcDbLine
 10
113.071957
 20
275.743976
 30
0.0
 11
119.914236
 21
277.794249
 31
0.0
  0
LINE
  5
70
330
48
100
AcDbEntity
  8
0
  6
Continuous
 62
     0
370
     0
100
AcDbLine
 10
105.398282
 20
279.454442
 30
0.0
 11
111.419487
 21
281.258683
 31
0.0
  0
LINE
  5
71
330
48
100
AcDbEntity
  8
0
  6
Continuous
 62
     0
370
     0
100
AcDbLine
 10
111.419487
 20
281.258683
 30
0.0
 11
117.440693
 21
283.062924
 31
0.0
  0
LINE
  5
72
330
48
100
AcDbEntity
  8
0
  6
Continuous
 62
     0
370
     0
100
AcDbLine
 10
101.607664
 20
237.796171
 30
0.0
 11
100.172472
 21
242.585766
 31
0.0
  0
LINE
  5
73
330
48
100
AcDbEntity
  8
0
  6
Continuous
 62
     0
370
     0
100
AcDbLine
 10
100.172472
 20
242.585766
 30
0.0
 11
98.73728
 21
247.375362
 31
0.0
  0
LINE
  5
74
330
48
100
AcDbEntity
  8
0
  6
Continuous
 62
     0
370
     0
100
AcDbLine
 10
96.297158
 20
233.967898
 30
0.0
 11
94.246884
 21
240.810177
 31
0.0
  0
LINE
  5
75
330
48
100
AcDbEntity
  8
0
  6
Continuous
 62
     0
370
     0
100
AcDbLine
 10
94.246884
 20
240.810177
 30
0.0
 11
92.196611
 21
247.652457
 31
0.0
  0
LINE
  5
76
330
48
100
AcDbEntity
  8
0
  6
Continuous
 62
     0
370
     0
100
AcDbLine
 10
90.536418
 20
233.136502
 30
0.0
 11
88.732177
 21
239.157708
 31
0.0
  0
LINE
  5
77
330
48
100
AcDbEntity
  8
0
  6
Continuous
 62
     0
370
     0
100
AcDbLine
 10
88.732177
 20
239.157708
 30
0.0
 11
86.927936
 21
245.178913
 31
0.0
  0
LINE
  5
78
330
48
100
AcDbEntity
  8
0
  6
Continuous
 62
     0
370
     0
100
AcDbLine
 10
132.194689
 20
229.345884
 30
0.0
 11
127.405094
 21
227.910692
 31
0.0
  0
LINE
  5
79
330
48
100
AcDbEntity
  8
0
  6
Continuous
 62
     0
370
     0
100
AcDbLine
 10
127.405094
 20
227.910692
 30
0.0
 11
122.615498
 21
226.475501
 31
0.0
  0
LINE
  5
7A
330
48
100
AcDbEntity
  8
0
  6
Continuous
 62
     0
370
     0
100
AcDbLine
 10
136.022962
 20
224.035378
 30
0.0
 11
129.180683
 21
221.985105
 31
0.0
  0
LINE
  5
7B
330
48
100
AcDbEntity
  8
0
  6
Continuous
 62
     0
370
     0
100
AcDbLine
 10
129.180683
 20
221.985105
 30
0.0
 11
122.338403
 21
219.934831
 31
0.0
  0
LINE
  5
7C
330
48
100
AcDbEntity
  8
0
  6
Continuous
 62
     0
370
     0
100
AcDbLine
 10
136.854358
 20
218.274638
 30
0.0
 11
130.833152
 21
216.470397
 31
0.0
  0
LINE
  5
7D
330
48
100
AcDbEntity
  8
0
  6
Continuous
 62
     0
370
     0
100
AcDbLine
 10
130.833152
 20
216.470397
 30
0.0
 11
124.811947
 21
214.666157
 31
0.0
  0
CIRCLE
  5
7E
330
48
100
AcDbEntity
  8
0
  6
Continuous
 62
     0
370
    30
100
AcDbCircle
 10
121.12632
 20
248.86454
 30
0.0
 40
13.00000326245959
  0
CIRCLE
  5
7F
330
48
100
AcDbEntity
  8
0
  6
Continuous
 62
     0
370
     0
100
AcDbCircle
 10
121.12632
 20
248.86454
 30
0.0
 40
8.000003262459584
  0
CIRCLE
  5
80
330
48
100
AcDbEntity
  8
0
  6
Continuous
 62
     0
370
    30
100
AcDbCircle
 10
121.12632
 20
248.86454
 30
0.0
 40
7.100003262459608
  0
CIRCLE
  5
81
330
48
100
AcDbEntity
  8
0
  6
Continuous
 62
     0
370
    30
100
AcDbCircle
 10
121.12632
 20
248.86454
 30
0.0
 40
7.0
  0
ARC
  5
82
330
48
100
AcDbEntity
  8
0
  6
Continuous
 62
     0
370
    30
100
AcDbCircle
 10
128.242009
 20
225.117696
 30
0.0
 40
10.999999999956
100
AcDbArc
 50
251.830823
 51
286.680727
  0
ARC
  5
83
330
48
100
AcDbEntity
  8
0
  6
Continuous
 62
     0
370
    30
100
AcDbCircle
 10
128.242009
 20
225.117696
 30
0.0
 40
10.999999999956
100
AcDbArc
 50
286.680727
 51
321.530632
  0
ARC
  5
84
330
48
100
AcDbEntity
  8
0
  6
Continuous
 62
     0
370
    30
100
AcDbCircle
 10
126.059242
 20
218.466716
 30
0.0
 40
3.999999999984001
100
AcDbArc
 50
158.467516
 51
251.830823
  0
ARC
  5
85
330
48
100
AcDbEntity
  8
0
  6
Continuous
 62
     0
370
    30
100
AcDbCircle
 10
133.722595
 20
220.763023
 30
0.0
 40
3.999999999984001
100
AcDbArc
 50
321.530632
 51
54.893938
  0
ARC
  5
86
330
48
100
AcDbEntity
  8
0
  6
Continuous
 62
     0
370
    30
100
AcDbCircle
 10
113.036307
 20
223.605118
 30
0.0
 40
9.999999999960004
100
AcDbArc
 50
338.467516
 51
16.680727
  0
ARC
  5
87
330
48
100
AcDbEntity
  8
0
  6
Continuous
 62
     0
370
    30
100
AcDbCircle
 10
141.77388
 20
232.216267
 30
0.0
 40
9.999999999960004
100
AcDbArc
 50
196.680727
 51
234.893938
  0
LINE
  5
88
330
48
100
AcDbEntity
  8
0
  6
Continuous
 62
     0
370
    30
100
AcDbLine
 10
119.781187
 20
235.934311
 30
0.0
 11
122.615498
 21
226.475501
 31
0.0
  0
LINE
  5
89
330
48
100
AcDbEntity
  8
0
  6
Continuous
 62
     0
370
    30
100
AcDbLine
 10
129.360378
 20
238.804694
 30
0.0
 11
132.194689
 21
229.345884
 31
0.0
  0
ARC
  5
8A
330
48
100
AcDbEntity
  8
0
  6
Continuous
 62
     0
370
    30
100
AcDbCircle
 10
97.379476
 20
241.748851
 30
0.0
 40
10.999999999956
100
AcDbArc
 50
161.830823
 51
196.680727
  0
ARC
  5
8B
330
48
100
AcDbEntity
  8
0
  6
Continuous
 62
     0
370
    30
100
AcDbCircle
 10
97.379476
 20
241.748851
 30
0.0
 40
10.999999999956
100
AcDbArc
 50
196.680727
 51
231.530632
  0
ARC
  5
8C
330
48
100
AcDbEntity
  8
0
  6
Continuous
 62
     0
370
    30
100
AcDbCircle
 10
90.728496
 20
243.931618
 30
0.0
 40
3.999999999984001
100
AcDbArc
 50
68.467516
 51
161.830823
  0
ARC
  5
8D
330
48
100
AcDbEntity
  8
0
  6
Continuous
 62
     0
370
    30
100
AcDbCircle
 10
93.024803
 20
236.268265
 30
0.0
 40
3.999999999984001
100
AcDbArc
 50
231.530632
 51
324.893938
  0
ARC
  5
8E
330
48
100
AcDbEntity
  8
0
  6
Continuous
 62
     0
370
    30
100
AcDbCircle
 10
95.866897
 20
256.954553
 30
0.0
 40
9.999999999960004
100
AcDbArc
 50
248.467516
 51
286.680727
  0
ARC
  5
8F
330
48
100
AcDbEntity
  8
0
  6
Continuous
 62
     0
370
    30
100
AcDbCircle
 10
104.478047
 20
228.21698
 30
0.0
 40
9.999999999960004
100
AcDbArc
 50
106.680727
 51
144.893938
  0
LINE
  5
90
330
48
100
AcDbEntity
  8
0
  6
Continuous
 62
     0
370
    30
100
AcDbLine
 10
108.196091
 20
250.209673
 30
0.0
 11
98.73728
 21
247.375362
 31
0.0
  0
LINE
  5
91
330
48
100
AcDbEntity
  8
0
  6
Continuous
 62
     0
370
    30
100
AcDbLine
 10
111.066474
 20
240.630482
 30
0.0
 11
101.607664
 21
237.796171
 31
0.0
  0
ARC
  5
92
330
48
100
AcDbEntity
  8
0
  6
Continuous
 62
     0
370
    30
100
AcDbCircle
 10
114.010631
 20
272.611384
 30
0.0
 40
10.999999999956
100
AcDbArc
 50
71.830823
 51
106.680727
  0
ARC
  5
93
330
48
100
AcDbEntity
  8
0
  6
Continuous
 62
     0
370
    30
100
AcDbCircle
 10
114.010631
 20
272.611384
 30
0.0
 40
10.999999999956
100
AcDbArc
 50
106.680727
 51
141.530632
  0
ARC
  5
94
330
48
100
AcDbEntity
  8
0
  6
Continuous
 62
     0
370
    30
100
AcDbCircle
 10
116.193398
 20
279.262364
 30
0.0
 40
3.999999999984001
100
AcDbArc
 50
338.467516
 51
71.830823
  0
ARC
  5
95
330
48
100
AcDbEntity
  8
0
  6
Continuous
 62
     0
370
    30
100
AcDbCircle
 10
108.530045
 20
276.966057
 30
0.0
 40
3.999999999984001
100
AcDbArc
 50
141.530632
 51
234.893938
  0
ARC
  5
96
330
48
100
AcDbEntity
  8
0
  6
Continuous
 62
     0
370
    30
100
AcDbCircle
 10
129.216333
 20
274.123963
 30
0.0
 40
9.999999999960004
100
AcDbArc
 50
158.467516
 51
196.680727
  0
ARC
  5
97
330
48
100
AcDbEntity
  8
0
  6
Continuous
 62
     0
370
    30
100
AcDbCircle
 10
100.47876
 20
265.512813
 30
0.0
 40
9.999999999960004
100
AcDbArc
 50
16.680727
 51
54.893938
  0
LINE
  5
98
330
48
100
AcDbEntity
  8
0
  6
Continuous
 62
     0
370
    30
100
AcDbLine
 10
122.471453
 20
261.794769
 30
0.0
 11
119.637142
 21
271.253579
 31
0.0
  0
LINE
  5
99
330
48
100
AcDbEntity
  8
0
  6
Continuous
 62
     0
370
    30
100
AcDbLine
 10
112.892262
 20
258.924386
 30
0.0
 11
110.057951
 21
268.383196
 31
0.0
  0
ARC
  5
9A
330
48
100
AcDbEntity
  8
0
  6
Continuous
 62
     0
370
    30
100
AcDbCircle
 10
144.873164
 20
255.980229
 30
0.0
 40
10.999999999956
100
AcDbArc
 50
341.830823
 51
16.680727
  0
ARC
  5
9B
330
48
100
AcDbEntity
  8
0
  6
Continuous
 62
     0
370
    30
100
AcDbCircle
 10
144.873164
 20
255.980229
 30
0.0
 40
10.999999999956
100
AcDbArc
 50
16.680727
 51
51.530632
  0
ARC
  5
9C
330
48
100
AcDbEntity
  8
0
  6
Continuous
 62
     0
370
    30
100
AcDbCircle
 10
151.524144
 20
253.797462
 30
0.0
 40
3.999999999984001
100
AcDbArc
 50
248.467516
 51
341.830823
  0
ARC
  5
9D
330
48
100
AcDbEntity
  8
0
  6
Continuous
 62
     0
370
    30
100
AcDbCircle
 10
149.227837
 20
261.460815
 30
0.0
 40
3.999999999984001
100
AcDbArc
 50
51.530632
 51
144.893938
  0
ARC
  5
9E
330
48
100
AcDbEntity
  8
0
  6
Continuous
 62
     0
370
    30
100
AcDbCircle
 10
146.385742
 20
240.774527
 30
0.0
 40
9.999999999960004
100
AcDbArc
 50
68.467516
 51
106.680727
  0
ARC
  5
9F
330
48
100
AcDbEntity
  8
0
  6
Continuous
 62
     0
370
    30
100
AcDbCircle
 10
137.774593
 20
269.5121
 30
0.0
 40
9.999999999960004
100
AcDbArc
 50
286.680727
 51
324.893938
  0
LINE
  5
A0
330
48
100
AcDbEntity
  8
0
  6
Continuous
 62
     0
370
    30
100
AcDbLine
 10
134.056549
 20
247.519407
 30
0.0
 11
143.515359
 21
250.353718
 31
0.0
  0
LINE
  5
A1
330
48
100
AcDbEntity
  8
0
  6
Continuous
 62
     0
370
    30
100
AcDbLine
 10
131.186166
 20
257.098598
 30
0.0
 11
140.644976
 21
259.932909
 31
0.0
  0
ENDBLK
  5
A3
330
48
100
AcDbEntity
  8
0
100
AcDbBlockEnd
  0
BLOCK
  5
E6
330
A5
100
AcDbEntity
  8
0
100
AcDbBlockBegin
  2
b
 70
     0
 10
57.616455
 20
40.893126
 30
0.0
  3
b
  1

  0
ARC
  5
A6
330
A5
100
AcDbEntity
  8
0
  6
Continuous
 62
     0
370
    30
100
AcDbCircle
 10
136.447947
 20
89.020594
 30
0.0
 40
7.999999999936003
100
AcDbArc
 50
270.0
 51
350.204853
  0
LINE
  5
A7
330
A5
100
AcDbEntity
  8
0
  6
Continuous
 62
     0
370
    30
100
AcDbLine
 10
144.331325
 20
87.659586
 30
0.0
 11
148.45388
 21
111.538691
 31
0.0
  0
ARC
  5
A8
330
A5
100
AcDbEntity
  8
0
  6
Continuous
 62
     0
370
    30
100
AcDbCircle
 10
157.322681
 20
110.007556
 30
0.0
 40
8.999999999964002
100
AcDbArc
 50
133.472
 51
170.204853
  0
ARC
  5
A9
330
A5
100
AcDbEntity
  8
0
  6
Continuous
 62
     0
370
    30
100
AcDbCircle
 10
145.62668
 20
122.344638
 30
0.0
 40
7.999999999936003
100
AcDbArc
 50
313.472
 51
0.544002
  0
LINE
  5
AA
330
A5
100
AcDbEntity
  8
0
  6
Continuous
 62
     0
370
    30
100
AcDbLine
 10
105.804693
 20
81.020594
 30
0.0
 11
136.447947
 21
81.020594
 31
0.0
  0
LINE
  5
AB
330
A5
100
AcDbEntity
  8
0
  6
Continuous
 62
     0
370
     0
100
AcDbLine
 10
97.921315
 20
87.659586
 30
0.0
 11
144.331325
 21
87.659586
 31
0.0
  0
LINE
  5
AC
330
A5
100
AcDbEntity
  8
0
  6
Continuous
 62
     0
370
     0
100
AcDbLine
 10
93.79876
 20
111.538691
 30
0.0
 11
148.45388
 21
111.538691
 31
0.0
  0
LINE
  5
AD
330
A5
100
AcDbEntity
  8
0
  6
Continuous
 62
     0
370
     0
100
AcDbLine
 10
91.121959
 20
116.538953
 30
0.0
 11
151.130681
 21
116.538953
 31
0.0
  0
LINE
  5
AE
330
A5
100
AcDbEntity
  8
0
  6
Continuous
 62
     0
370
    30
100
AcDbLine
 10
88.62632
 20
122.420594
 30
0.0
 11
153.62632
 21
122.420594
 31
0.0
  0
ARC
  5
AF
330
A5
100
AcDbEntity
  8
0
  6
Continuous
 62
     0
370
    30
100
AcDbCircle
 10
96.625959
 20
122.344638
 30
0.0
 40
7.999999999936003
100
AcDbArc
 50
179.455998
 51
226.528
  0
ARC
  5
B0
330
A5
100
AcDbEntity
  8
0
  6
Continuous
 62
     0
370
    30
100
AcDbCircle
 10
84.929959
 20
110.007556
 30
0.0
 40
8.999999999964002
100
AcDbArc
 50
9.795147
 51
46.528
  0
LINE
  5
B1
330
A5
100
AcDbEntity
  8
0
  6
Continuous
 62
     0
370
    30
100
AcDbLine
 10
97.921315
 20
87.659586
 30
0.0
 11
93.79876
 21
111.538691
 31
0.0
  0
ARC
  5
B2
330
A5
100
AcDbEntity
  8
0
  6
Continuous
 62
     0
370
    30
100
AcDbCircle
 10
105.804693
 20
89.020594
 30
0.0
 40
7.999999999936003
100
AcDbArc
 50
189.795147
 51
270.0
  0
LINE
  5
B3
330
A5
100
AcDbEntity
  8
0
  6
Continuous
 62
     0
370
     0
100
AcDbLine
 10
111.662034
 20
72.657868
 30
0.0
 11
130.19234
 21
72.657868
 31
0.0
  0
LINE
  5
B4
330
A5
100
AcDbEntity
  8
0
  6
Continuous
 62
     0
370
     0
100
AcDbLine
 10
130.19234
 20
72.657868
 30
0.0
 11
130.590606
 21
72.657868
 31
0.0
  0
LINE
  5
B5
330
A5
100
AcDbEntity
  8
0
  6
Continuous
 62
     0
370
     0
100
AcDbLine
 10
114.876216
 20
77.360292
 30
0.0
 11
127.113413
 21
77.360292
 31
0.0
  0
LINE
  5
B6
330
A5
100
AcDbEntity
  8
0
  6
Continuous
 62
     0
370
     0
100
AcDbLine
 10
127.113413
 20
77.360292
 30
0.0
 11
127.376423
 21
77.360292
 31
0.0
  0
ELLIPSE
  5
B7
330
A5
100
AcDbEntity
  8
0
  6
Continuous
 62
     0
370
     0
100
AcDbEllipse
 10
142.080168
 20
63.020592
 30
0.0
 11
6.549005523145269E-8
 21
4.999999999979931
 31
0.0
210
0.0
220
0.0
230
1.0
 40
0.287038
 41
0.0000000456316167
 42
3.14159269922141
  0
ELLIPSE
  5
B8
330
A5
100
AcDbEntity
  8
0
  6
Continuous
 62
     0
370
     0
100
AcDbEllipse
 10
148.005755
 20
63.020592
 30
0.0
 11
9.355722175921738E-8
 21
7.142857142828415
 31
0.0
210
0.0
220
0.0
230
1.0
 40
0.287038
 41
0.2381555167043219
 42
2.903436333428089
  0
ELLIPSE
  5
B9
330
A5
100
AcDbEntity
  8
0
  6
Continuous
 62
     0
370
     0
100
AcDbEllipse
 10
153.520463
 20
63.020592
 30
0.0
 11
8.233035514810515E-8
 21
6.285714285688536
 31
0.0
210
0.0
220
0.0
230
1.0
 40
0.287038
 41
5.838322030742304
 42
9.424778006400988
  0
ELLIPSE
  5
BA
330
A5
100
AcDbEntity
  8
0
  6
Continuous
 62
     0
370
     0
100
AcDbEllipse
 10
153.520463
 20
63.020592
 30
0.0
 11
8.233035514810515E-8
 21
6.285714285688536
 31
0.0
210
0.0
220
0.0
230
1.0
 40
0.287038
 41
3.141592699221401
 42
3.586458046682926
  0
ELLIPSE
  5
BB
330
A5
100
AcDbEntity
  8
0
  6
Continuous
 62
     0
370
     0
100
AcDbEllipse
 10
111.419487
 20
63.020591
 30
0.0
 11
9.169342607970826E-7
 21
-6.28571428568847
 31
0.0
210
0.0
220
0.0
230
1.0
 40
0.957919
 41
0.0
 42
6.283185307179586
  0
ELLIPSE
  5
BC
330
A5
100
AcDbEntity
  8
0
  6
Continuous
 62
     0
370
     0
100
AcDbEllipse
 10
100.172472
 20
63.020592
 30
0.0
 11
-6.549005756524427E-8
 21
-4.999999999979931
 31
0.0
210
0.0
220
0.0
230
-1.0
 40
0.287038
 41
6.283185261547988
 42
9.42477791513777
  0
ELLIPSE
  5
BD
330
A5
100
AcDbEntity
  8
0
  6
Continuous
 62
     0
370
     0
100
AcDbEllipse
 10
94.246884
 20
63.020592
 30
0.0
 11
-9.355722509320535E-8
 21
-7.142857142828415
 31
0.0
210
0.0
220
0.0
230
-1.0
 40
0.287038
 41
6.045028894984001
 42
6.283185261547986
  0
ELLIPSE
  5
BE
330
A5
100
AcDbEntity
  8
0
  6
Continuous
 62
     0
370
     0
100
AcDbEllipse
 10
94.246884
 20
63.020592
 30
0.0
 11
-9.355722509320535E-8
 21
-7.142857142828415
 31
0.0
210
0.0
220
0.0
230
-1.0
 40
0.287038
 41
6.283185261547986
 42
9.662934280931083
  0
ELLIPSE
  5
BF
330
A5
100
AcDbEntity
  8
0
  6
Continuous
 62
     0
370
     0
100
AcDbEllipse
 10
88.732177
 20
63.020592
 30
0.0
 11
-8.233035808201456E-8
 21
-6.285714285688536
 31
0.0
210
0.0
220
0.0
230
-1.0
 40
0.287038
 41
0.4448629521465688
 42
2.696729428141087
  0
LINE
  5
C0
330
A5
100
AcDbEntity
  8
0
  6
Continuous
 62
     0
370
     0
100
AcDbLine
 10
134.126323
 20
51.020594
 30
0.0
 11
117.619572
 21
51.020594
 31
0.0
  0
LINE
  5
C1
330
A5
100
AcDbEntity
  8
0
  6
Continuous
 62
     0
370
     0
100
AcDbLine
 10
117.619572
 20
51.020594
 30
0.0
 11
108.126317
 21
51.020594
 31
0.0
  0
LINE
  5
C2
330
A5
100
AcDbEntity
  8
0
  6
Continuous
 62
     0
370
    30
100
AcDbLine
 10
129.126323
 20
46.020594
 30
0.0
 11
118.968321
 21
46.020594
 31
0.0
  0
LINE
  5
C3
330
A5
100
AcDbEntity
  8
0
  6
Continuous
 62
     0
370
    30
100
AcDbLine
 10
118.968321
 20
46.020594
 30
0.0
 11
113.126317
 21
46.020594
 31
0.0
  0
LINE
  5
C4
330
A5
100
AcDbEntity
  8
0
  6
Continuous
 62
     0
370
    30
100
AcDbLine
 10
133.579268
 20
58.020592
 30
0.0
 11
142.080168
 21
58.020592
 31
0.0
  0
LINE
  5
C5
330
A5
100
AcDbEntity
  8
0
  6
Continuous
 62
     0
370
     0
100
AcDbLine
 10
119.535367
 20
67.520594
 30
0.0
 11
132.777433
 21
67.520594
 31
0.0
  0
LINE
  5
C6
330
A5
100
AcDbEntity
  8
0
  6
Continuous
 62
     0
370
    30
100
AcDbLine
 10
106.247747
 20
58.020592
 30
0.0
 11
100.172472
 21
58.020592
 31
0.0
  0
LWPOLYLINE
  5
C7
330
A5
100
AcDbEntity
  8
0
  6
Continuous
 62
     0
370
    30
100
AcDbPolyline
 90
       24
 70
     0
 43
0.0
 10
132.777435
 20
67.520592
 10
132.538956
 20
67.237053
 10
132.300095
 20
66.897568
 10
132.067871
 20
66.50692
 10
131.849167
 20
66.069672
 10
131.65094
 20
65.590637
 10
131.480225
 20
65.07515
 10
131.343613
 20
64.529373
 10
131.246979
 20
63.960499
 10
131.194885
 20
63.376629
 10
131.189957
 20
62.787033
 10
131.232346
 20
62.201183
 10
131.320068
 20
61.628498
 10
131.448776
 20
61.077244
 10
131.61293
 20
60.554955
 10
131.806015
 20
60.067886
 10
132.021042
 20
59.621532
 10
132.251053
 20
59.22076
 10
132.489044
 20
58.870327
 10
132.728088
 20
58.574856
 10
132.961761
 20
58.33852
 10
133.183868
 20
58.165276
 10
133.388611
 20
58.058628
 10
133.579269
 20
58.020592
  0
LWPOLYLINE
  5
C8
330
A5
100
AcDbEntity
  8
0
  6
Continuous
 62
     0
370
    30
100
AcDbPolyline
 90
        5
 70
     0
 43
0.0
 10
133.557449
 20
68.020592
 10
133.392136
 20
67.990654
 10
133.211487
 20
67.901329
 10
133.016129
 20
67.753891
 10
132.777435
 20
67.520592
  0
ARC
  5
C9
330
A5
100
AcDbEntity
  8
0
  6
Continuous
 62
     0
370
    30
100
AcDbCircle
 10
117.293639
 20
62.875999
 30
0.0
 40
5.157286380732696
100
AcDbArc
 50
64.235573
 51
75.40286
  0
LWPOLYLINE
  5
CA
330
A5
100
AcDbEntity
  8
0
  6
Continuous
 62
     0
370
    30
100
AcDbPolyline
 90
       22
 70
     0
 43
0.0
 10
118.594139
 20
58.175358
 10
119.144936
 20
58.352108
 10
119.676109
 20
58.591049
 10
120.179901
 20
58.888283
 10
120.649048
 20
59.23967
 10
121.077286
 20
59.64064
 10
121.458626
 20
60.086521
 10
121.78714
 20
60.572495
 10
122.057106
 20
61.093132
 10
122.263161
 20
61.642231
 10
122.40065
 20
62.212353
 10
122.465942
 20
62.795334
 10
122.457344
 20
63.381889
 10
122.375038
 20
63.962696
 10
122.221275
 20
64.528633
 10
121.999908
 20
65.071709
 10
121.715858
 20
65.584846
 10
121.374573
 20
66.061974
 10
120.98185
 20
66.497826
 10
120.543556
 20
66.887665
 10
120.06562
 20
67.226974
 10
119.53537
 20
67.520592
  0
LINE
  5
CB
330
A5
100
AcDbEntity
  8
0
  6
Continuous
 62
     0
370
    30
100
AcDbLine
 10
134.12632
 20
51.020594
 30
0.0
 11
134.12632
 21
58.020592
 31
0.0
  0
LINE
  5
CC
330
A5
100
AcDbEntity
  8
0
  6
Continuous
 62
     0
370
    30
100
AcDbLine
 10
108.12632
 20
51.020594
 30
0.0
 11
108.12632
 21
56.290967
 31
0.0
  0
ARC
  5
CD
330
A5
100
AcDbEntity
  8
0
  6
Continuous
 62
     0
370
    30
100
AcDbCircle
 10
113.126317
 20
51.020594
 30
0.0
 40
5.0
100
AcDbArc
 50
180.0
 51
270.0
  0
ARC
  5
CE
330
A5
100
AcDbEntity
  8
0
  6
Continuous
 62
     0
370
    30
100
AcDbCircle
 10
129.126323
 20
51.020594
 30
0.0
 40
5.0
100
AcDbArc
 50
270.0
 51
0.0
  0
LWPOLYLINE
  5
CF
330
A5
100
AcDbEntity
  8
0
  6
Continuous
 62
     0
370
    30
100
AcDbPolyline
 90
        6
 70
     0
 43
0.0
 10
136.005066
 20
68.020592
 10
135.591995
 20
68.506248
 10
135.141678
 20
68.956833
 10
134.656845
 20
69.369247
 10
134.14061
 20
69.740784
 10
133.462067
 20
70.140823
  0
LWPOLYLINE
  5
D0
330
A5
100
AcDbEntity
  8
0
  6
Continuous
 62
     0
370
    30
100
AcDbPolyline
 90
        5
 70
     0
 43
0.0
 10
134.126312
 20
56.29097
 10
134.607117
 20
56.633247
 10
135.061096
 20
57.010998
 10
135.485748
 20
57.422058
 10
136.004898
 20
58.020592
  0
ARC
  5
D1
330
A5
100
AcDbEntity
  8
0
  6
Continuous
 62
     0
370
    30
100
AcDbCircle
 10
97.379476
 20
63.020592
 30
0.0
 40
11.00000057265001
100
AcDbArc
 50
148.948314
 51
211.051653
  0
LWPOLYLINE
  5
D2
330
A5
100
AcDbEntity
  8
0
  6
Continuous
 62
     0
370
    30
100
AcDbPolyline
 90
       15
 70
     0
 43
0.0
 10
94.730568
 20
69.961838
 10
94.283119
 20
70.296112
 10
93.792465
 20
70.575508
 10
93.266624
 20
70.79187
 10
92.714478
 20
70.938698
 10
92.146408
 20
71.012184
 10
91.573158
 20
71.009918
 10
91.005745
 20
70.932114
 10
90.454887
 20
70.780914
 10
89.930794
 20
70.560745
 10
89.442612
 20
70.277786
 10
88.997879
 20
69.940651
 10
88.601906
 20
69.55912
 10
88.257034
 20
69.143959
 10
87.95575
 20
68.694511
  0
LWPOLYLINE
  5
D3
330
A5
100
AcDbEntity
  8
0
  6
Continuous
 62
     0
370
    30
100
AcDbPolyline
 90
        7
 70
     0
 43
0.0
 10
94.730568
 20
56.079346
 10
94.335075
 20
55.779671
 10
93.904808
 20
55.522541
 10
93.445251
 20
55.31395
 10
92.962425
 20
55.158821
 10
92.463203
 20
55.060497
 10
91.876648
 20
55.020592
  0
LWPOLYLINE
  5
D4
330
A5
100
AcDbEntity
  8
0
  6
Continuous
 62
     0
370
    30
100
AcDbPolyline
 90
       10
 70
     0
 43
0.0
 10
87.95575
 20
57.346676
 10
88.230797
 20
56.932697
 10
88.549889
 20
56.53912
 10
88.91423
 20
56.174034
 10
89.322441
 20
55.846214
 10
89.770599
 20
55.564301
 10
90.252831
 20
55.335819
 10
90.761948
 20
55.166431
 10
91.289993
 20
55.060532
 10
91.876648
 20
55.020592
  0
LWPOLYLINE
  5
D5
330
A5
100
AcDbEntity
  8
0
  6
Continuous
 62
     0
370
    30
100
AcDbPolyline
 90
        9
 70
     0
 43
0.0
 10
100.17247
 20
68.020592
 10
99.407127
 20
68.054092
 10
98.649612
 20
68.154091
 10
97.908653
 20
68.318863
 10
97.192596
 20
68.545044
 10
96.509872
 20
68.828613
 10
95.869606
 20
69.162453
 10
95.281296
 20
69.537651
 10
94.730568
 20
69.961838
  0
LWPOLYLINE
  5
D6
330
A5
100
AcDbEntity
  8
0
  6
Continuous
 62
     0
370
    30
100
AcDbPolyline
 90
        9
 70
     0
 43
0.0
 10
100.17247
 20
58.020592
 10
99.407127
 20
57.987091
 10
98.649612
 20
57.887096
 10
97.908653
 20
57.722321
 10
97.192596
 20
57.49614
 10
96.509872
 20
57.212574
 10
95.869606
 20
56.878735
 10
95.281296
 20
56.503536
 10
94.730568
 20
56.079346
  0
LINE
  5
D7
330
A5
100
AcDbEntity
  8
0
  6
Continuous
 62
     0
370
    30
100
AcDbLine
 10
106.24758
 20
68.020592
 30
0.0
 11
100.172472
 21
68.020592
 31
0.0
  0
LWPOLYLINE
  5
D8
330
A5
100
AcDbEntity
  8
0
  6
Continuous
 62
     0
370
    30
100
AcDbPolyline
 90
       65
 70
     0
 43
0.0
 10
112.361725
 20
55.020592
 10
111.589821
 20
55.059525
 10
110.825615
 20
55.175919
 10
110.076729
 20
55.368538
 10
109.350494
 20
55.635326
 10
108.654099
 20
55.97353
 10
107.994247
 20
56.379608
 10
107.377274
 20
56.849422
 10
106.809143
 20
57.378307
 10
106.295013
 20
57.960876
 10
105.8395
 20
58.591309
 10
105.447006
 20
59.263645
 10
105.121002
 20
59.971371
 10
104.86441
 20
60.707733
 10
104.679344
 20
61.465714
 10
104.567589
 20
62.238239
 10
104.53006
 20
63.018082
 10
104.567101
 20
63.797943
 10
104.678375
 20
64.570549
 10
104.862953
 20
65.328651
 10
105.119141
 20
66.065155
 10
105.444725
 20
66.773071
 10
105.836784
 20
67.445671
 10
106.291786
 20
68.076477
 10
106.805618
 20
68.659332
 10
107.373489
 20
69.188522
 10
107.990166
 20
69.658722
 10
108.649712
 20
70.065269
 10
109.345909
 20
70.403893
 10
110.071938
 20
70.671165
 10
110.820717
 20
70.86422
 10
111.584808
 20
70.981148
 10
112.356659
 20
71.020546
 10
113.128555
 20
70.98217
 10
113.892807
 20
70.866249
 10
114.64183
 20
70.674187
 10
115.368187
 20
70.407837
 10
116.064827
 20
70.070152
 10
116.724922
 20
69.66449
 10
117.342186
 20
69.195084
 10
117.910721
 20
68.666611
 10
118.425308
 20
68.084442
 10
118.881088
 20
67.454216
 10
119.274025
 20
66.782135
 10
119.600464
 20
66.074623
 10
119.857613
 20
65.338463
 10
120.043091
 20
64.580582
 10
120.155365
 20
63.808125
 10
120.193382
 20
63.028316
 10
120.156845
 20
62.248428
 10
120.046028
 20
61.475754
 10
119.861984
 20
60.717514
 10
119.606224
 20
59.980869
 10
119.281082
 20
59.272739
 10
118.889511
 20
58.599854
 10
118.434906
 20
57.968742
 10
117.92144
 20
57.385582
 10
117.353828
 20
56.856091
 10
116.737556
 20
56.385376
 10
116.078262
 20
55.978374
 10
115.382294
 20
55.639339
 10
114.656471
 20
55.371719
 10
113.907852
 20
55.178013
 10
113.143593
 20
55.060547
 10
112.361725
 20
55.020592
  0
ARC
  5
D9
330
A5
100
AcDbEntity
  8
0
  6
Continuous
 62
     0
370
    30
100
AcDbCircle
 10
144.873163
 20
63.020592
 30
0.0
 40
11.00000057264821
100
AcDbArc
 50
328.948347
 51
31.051686
  0
LWPOLYLINE
  5
DA
330
A5
100
AcDbEntity
  8
0
  6
Continuous
 62
     0
370
    30
100
AcDbPolyline
 90
       15
 70
     0
 43
0.0
 10
147.522079
 20
69.961838
 10
147.969528
 20
70.296112
 10
148.460175
 20
70.575508
 10
148.986023
 20
70.79187
 10
149.538162
 20
70.938698
 10
150.106232
 20
71.012184
 10
150.679474
 20
71.009918
 10
151.246902
 20
70.932114
 10
151.79776
 20
70.780914
 10
152.321854
 20
70.560745
 10
152.810028
 20
70.277786
 10
153.254761
 20
69.940651
 10
153.650742
 20
69.55912
 10
153.995605
 20
69.143959
 10
154.29689
 20
68.694511
  0
LWPOLYLINE
  5
DB
330
A5
100
AcDbEntity
  8
0
  6
Continuous
 62
     0
370
    30
100
AcDbPolyline
 90
        7
 70
     0
 43
0.0
 10
147.522079
 20
56.079346
 10
147.917572
 20
55.779671
 10
148.347824
 20
55.522537
 10
148.807388
 20
55.31395
 10
149.290222
 20
55.158821
 10
149.789429
 20
55.060497
 10
150.375992
 20
55.020592
  0
LWPOLYLINE
  5
DC
330
A5
100
AcDbEntity
  8
0
  6
Continuous
 62
     0
370
    30
100
AcDbPolyline
 90
       10
 70
     0
 43
0.0
 10
154.29689
 20
57.346676
 10
154.021851
 20
56.932697
 10
153.702759
 20
56.53912
 10
153.338409
 20
56.174034
 10
152.930206
 20
55.846214
 10
152.48204
 20
55.564297
 10
151.999817
 20
55.335819
 10
151.490692
 20
55.166431
 10
150.962646
 20
55.060532
 10
150.375992
 20
55.020592
  0
LWPOLYLINE
  5
DD
330
A5
100
AcDbEntity
  8
0
  6
Continuous
 62
     0
370
    30
100
AcDbPolyline
 90
        9
 70
     0
 43
0.0
 10
142.08017
 20
68.020592
 10
142.845505
 20
68.054092
 10
143.603027
 20
68.154091
 10
144.343994
 20
68.318863
 10
145.060043
 20
68.545044
 10
145.742767
 20
68.828613
 10
146.383026
 20
69.162453
 10
146.971344
 20
69.537651
 10
147.522079
 20
69.961838
  0
LWPOLYLINE
  5
DE
330
A5
100
AcDbEntity
  8
0
  6
Continuous
 62
     0
370
    30
100
AcDbPolyline
 90
        9
 70
     0
 43
0.0
 10
142.08017
 20
58.020592
 10
142.845505
 20
57.987091
 10
143.603027
 20
57.887096
 10
144.343994
 20
57.722321
 10
145.060043
 20
57.49614
 10
145.742767
 20
57.21257
 10
146.383026
 20
56.878731
 10
146.971344
 20
56.503532
 10
147.522079
 20
56.079346
  0
LINE
  5
DF
330
A5
100
AcDbEntity
  8
0
  6
Continuous
 62
     0
370
    30
100
AcDbLine
 10
133.557452
 20
68.020592
 30
0.0
 11
142.080168
 21
68.020592
 31
0.0
  0
LINE
  5
E0
330
A5
100
AcDbEntity
  8
0
  6
Continuous
 62
     0
370
    30
100
AcDbLine
 10
127.376423
 20
77.360292
 30
0.0
 11
127.388201
 21
81.020594
 31
0.0
  0
LINE
  5
E1
330
A5
100
AcDbEntity
  8
0
  6
Continuous
 62
     0
370
    30
100
AcDbLine
 10
114.876216
 20
77.360292
 30
0.0
 11
114.864439
 21
81.020594
 31
0.0
  0
ARC
  5
E2
330
A5
100
AcDbEntity
  8
0
  6
Continuous
 62
     0
370
    30
100
AcDbCircle
 10
132.37632
 20
77.328117
 30
0.0
 40
4.999999999980002
100
AcDbArc
 50
179.631289
 51
249.075168
  0
ARC
  5
E3
330
A5
100
AcDbEntity
  8
0
  6
Continuous
 62
     0
370
    30
100
AcDbCircle
 10
109.87632
 20
77.328117
 30
0.0
 40
4.999999999980002
100
AcDbArc
 50
290.924832
 51
0.368711
  0
ARC
  5
E4
330
A5
100
AcDbEntity
  8
0
  6
Continuous
 62
     0
370
    30
100
AcDbCircle
 10
128.62632
 20
67.520594
 30
0.0
 40
5.499999999978002
100
AcDbArc
 50
5.215888
 51
69.075168
  0
ARC
  5
E5
330
A5
100
AcDbEntity
  8
0
  6
Continuous
 62
     0
370
    30
100
AcDbCircle
 10
113.62632
 20
67.520594
 30
0.0
 40
5.499999999978002
100
AcDbArc
 50
110.924832
 51
151.549163
  0
ENDBLK
  5
E7
330
A5
100
AcDbEntity
  8
0
100
AcDbBlockEnd
  0
BLOCK
  5
128
330
E9
100
AcDbEntity
  8
0
100
AcDbBlockBegin
  2
c
 70
     0
 10
57.616455
 20
61.262081
 30
0.0
  3
c
  1

  0
LINE
  5
EA
330
E9
100
AcDbEntity
  8
0
  6
Continuous
 62
     0
370
    30
100
AcDbLine
 10
298.619603
 20
233.542898
 30
0.0
 11
298.619603
 21
264.186152
 31
0.0
  0
LINE
  5
EB
330
E9
100
AcDbEntity
  8
0
  6
Continuous
 62
     0
370
     0
100
AcDbLine
 10
291.980611
 20
225.65952
 30
0.0
 11
291.980611
 21
272.06953
 31
0.0
  0
LINE
  5
EC
330
E9
100
AcDbEntity
  8
0
  6
Continuous
 62
     0
370
     0
100
AcDbLine
 10
268.101506
 20
221.536965
 30
0.0
 11
268.101506
 21
276.192085
 31
0.0
  0
LINE
  5
ED
330
E9
100
AcDbEntity
  8
0
  6
Continuous
 62
     0
370
     0
100
AcDbLine
 10
263.101244
 20
218.860164
 30
0.0
 11
263.101244
 21
278.868885
 31
0.0
  0
LINE
  5
EE
330
E9
100
AcDbEntity
  8
0
  6
Continuous
 62
     0
370
    30
100
AcDbLine
 10
257.219603
 20
216.364525
 30
0.0
 11
257.219603
 21
281.364525
 31
0.0
  0
ARC
  5
EF
330
E9
100
AcDbEntity
  8
0
  6
Continuous
 62
     0
370
    30
100
AcDbCircle
 10
257.295559
 20
224.364164
 30
0.0
 40
7.999999999936003
100
AcDbArc
 50
269.455998
 51
316.528
  0
ARC
  5
F0
330
E9
100
AcDbEntity
  8
0
  6
Continuous
 62
     0
370
    30
100
AcDbCircle
 10
257.295559
 20
273.364885
 30
0.0
 40
7.999999999936003
100
AcDbArc
 50
43.472
 51
90.544002
  0
ARC
  5
F1
330
E9
100
AcDbEntity
  8
0
  6
Continuous
 62
     0
370
    30
100
AcDbCircle
 10
269.63264
 20
212.668164
 30
0.0
 40
8.999999999964002
100
AcDbArc
 50
99.795147
 51
136.528
  0
ARC
  5
F2
330
E9
100
AcDbEntity
  8
0
  6
Continuous
 62
     0
370
    30
100
AcDbCircle
 10
269.63264
 20
285.060886
 30
0.0
 40
8.999999999964002
100
AcDbArc
 50
223.472
 51
260.204853
  0
LINE
  5
F3
330
E9
100
AcDbEntity
  8
0
  6
Continuous
 62
     0
370
    30
100
AcDbLine
 10
291.980611
 20
225.65952
 30
0.0
 11
268.101506
 21
221.536965
 31
0.0
  0
LINE
  5
F4
330
E9
100
AcDbEntity
  8
0
  6
Continuous
 62
     0
370
    30
100
AcDbLine
 10
291.980611
 20
272.06953
 30
0.0
 11
268.101506
 21
276.192085
 31
0.0
  0
ARC
  5
F5
330
E9
100
AcDbEntity
  8
0
  6
Continuous
 62
     0
370
    30
100
AcDbCircle
 10
290.619603
 20
233.542898
 30
0.0
 40
7.999999999936003
100
AcDbArc
 50
279.795147
 51
0.0
  0
ARC
  5
F6
330
E9
100
AcDbEntity
  8
0
  6
Continuous
 62
     0
370
    30
100
AcDbCircle
 10
290.619603
 20
264.186152
 30
0.0
 40
7.999999999936003
100
AcDbArc
 50
360.0
 51
80.204853
  0
LINE
  5
F7
330
E9
100
AcDbEntity
  8
0
  6
Continuous
 62
     0
370
     0
100
AcDbLine
 10
306.982329
 20
239.400239
 30
0.0
 11
306.982329
 21
258.328811
 31
0.0
  0
LINE
  5
F8
330
E9
100
AcDbEntity
  8
0
  6
Continuous
 62
     0
370
     0
100
AcDbLine
 10
302.279904
 20
242.614421
 30
0.0
 11
302.279904
 21
255.114628
 31
0.0
  0
ELLIPSE
  5
F9
330
E9
100
AcDbEntity
  8
0
  6
Continuous
 62
     0
370
     0
100
AcDbEllipse
 10
316.619605
 20
269.818373
 30
0.0
 11
-4.999999999979931
 21
6.549010102976461E-8
 31
0.0
210
0.0
220
0.0
230
1.0
 40
0.287038
 41
0.0000000456314657
 42
3.141592699221414
  0
ELLIPSE
  5
FA
330
E9
100
AcDbEntity
  8
0
  6
Continuous
 62
     0
370
     0
100
AcDbEllipse
 10
316.619605
 20
275.74396
 30
0.0
 11
-7.142857142828415
 21
9.355728718537728E-8
 31
0.0
210
0.0
220
0.0
230
1.0
 40
0.287038
 41
0.2381555218717271
 42
2.903436333428024
  0
ELLIPSE
  5
FB
330
E9
100
AcDbEntity
  8
0
  6
Continuous
 62
     0
370
     0
100
AcDbEllipse
 10
316.619605
 20
281.258668
 30
0.0
 11
-6.285714285688536
 21
8.233041272312587E-8
 31
0.0
210
0.0
220
0.0
230
1.0
 40
0.287038
 41
5.83832165992208
 42
9.424778006401
  0
ELLIPSE
  5
FC
330
E9
100
AcDbEntity
  8
0
  6
Continuous
 62
     0
370
     0
100
AcDbEllipse
 10
316.619605
 20
281.258668
 30
0.0
 11
-6.285714285688536
 21
8.233041272312587E-8
 31
0.0
210
0.0
220
0.0
230
1.0
 40
0.287038
 41
3.141592699221414
 42
3.586458046682937
  0
ELLIPSE
  5
FD
330
E9
100
AcDbEntity
  8
0
  6
Continuous
 62
     0
370
     0
100
AcDbEllipse
 10
316.619606
 20
239.157692
 30
0.0
 11
6.28571428568847
 21
9.169344239015959E-7
 31
0.0
210
0.0
220
0.0
230
1.0
 40
0.957919
 41
0.0
 42
6.283185307179586
  0
ELLIPSE
  5
FE
330
E9
100
AcDbEntity
  8
0
  6
Continuous
 62
     0
370
     0
100
AcDbEllipse
 10
316.619605
 20
227.910677
 30
0.0
 11
4.999999999979931
 21
-6.549010242206639E-8
 31
0.0
210
0.0
220
0.0
230
-1.0
 40
0.287038
 41
6.283185261547978
 42
9.42477791513777
  0
ELLIPSE
  5
FF
330
E9
100
AcDbEntity
  8
0
  6
Continuous
 62
     0
370
     0
100
AcDbEllipse
 10
316.619604
 20
221.985089
 30
0.0
 11
7.142857142828415
 21
-9.355728917437981E-8
 31
0.0
210
0.0
220
0.0
230
-1.0
 40
0.287038
 41
6.04502889575468
 42
6.283185261547978
  0
ELLIPSE
  5
100
330
E9
100
AcDbEntity
  8
0
  6
Continuous
 62
     0
370
     0
100
AcDbEllipse
 10
316.619604
 20
221.985089
 30
0.0
 11
7.142857142828415
 21
-9.355728917437981E-8
 31
0.0
210
0.0
220
0.0
230
-1.0
 40
0.287038
 41
6.283185261547978
 42
9.662934280931008
  0
ELLIPSE
  5
101
330
E9
100
AcDbEntity
  8
0
  6
Continuous
 62
     0
370
     0
100
AcDbEllipse
 10
316.619604
 20
216.470382
 30
0.0
 11
6.285714285688536
 21
-8.233041447344809E-8
 31
0.0
210
0.0
220
0.0
230
-1.0
 40
0.287038
 41
0.4448626502151374
 42
2.696729285889409
  0
LINE
  5
102
330
E9
100
AcDbEntity
  8
0
  6
Continuous
 62
     0
370
     0
100
AcDbLine
 10
328.619603
 20
261.864528
 30
0.0
 11
328.619603
 21
261.382624
 31
0.0
  0
LINE
  5
103
330
E9
100
AcDbEntity
  8
0
  6
Continuous
 62
     0
370
     0
100
AcDbLine
 10
328.619603
 20
261.382624
 30
0.0
 11
328.619603
 21
235.864522
 31
0.0
  0
LINE
  5
104
330
E9
100
AcDbEntity
  8
0
  6
Continuous
 62
     0
370
    30
100
AcDbLine
 10
333.619603
 20
256.864528
 30
0.0
 11
333.619603
 21
256.567972
 31
0.0
  0
LINE
  5
105
330
E9
100
AcDbEntity
  8
0
  6
Continuous
 62
     0
370
    30
100
AcDbLine
 10
333.619603
 20
256.567972
 30
0.0
 11
333.619603
 21
240.864522
 31
0.0
  0
LINE
  5
106
330
E9
100
AcDbEntity
  8
0
  6
Continuous
 62
     0
370
     0
100
AcDbLine
 10
312.119603
 20
247.273572
 30
0.0
 11
312.119603
 21
260.515638
 31
0.0
  0
LINE
  5
107
330
E9
100
AcDbEntity
  8
0
  6
Continuous
 62
     0
370
    30
100
AcDbLine
 10
321.619605
 20
261.317473
 30
0.0
 11
321.619605
 21
269.818373
 31
0.0
  0
LINE
  5
108
330
E9
100
AcDbEntity
  8
0
  6
Continuous
 62
     0
370
    30
100
AcDbLine
 10
321.619605
 20
233.985952
 30
0.0
 11
321.619605
 21
227.910677
 31
0.0
  0
LWPOLYLINE
  5
109
330
E9
100
AcDbEntity
  8
0
  6
Continuous
 62
     0
370
    30
100
AcDbPolyline
 90
       24
 70
     0
 43
0.0
 10
312.119598
 20
260.515625
 10
312.403137
 20
260.277161
 10
312.742615
 20
260.0383
 10
313.13327
 20
259.806061
 10
313.570526
 20
259.587372
 10
314.049561
 20
259.38913
 10
314.565033
 20
259.218445
 10
315.110809
 20
259.081818
 10
315.679688
 20
258.985199
 10
316.26358
 20
258.933105
 10
316.853149
 20
258.928162
 10
317.439026
 20
258.970551
 10
318.011688
 20
259.058258
 10
318.562958
 20
259.186981
 10
319.085236
 20
259.351135
 10
319.572327
 20
259.54422
 10
320.018677
 20
259.759247
 10
320.419434
 20
259.989258
 10
320.769867
 20
260.227264
 10
321.065338
 20
260.466278
 10
321.301666
 20
260.699951
 10
321.474915
 20
260.922058
 10
321.581573
 20
261.126801
 10
321.619598
 20
261.317474
  0
LWPOLYLINE
  5
10A
330
E9
100
AcDbEntity
  8
0
  6
Continuous
 62
     0
370
    30
100
AcDbPolyline
 90
       22
 70
     0
 43
0.0
 10
321.464844
 20
246.332352
 10
321.288086
 20
246.883148
 10
321.049133
 20
247.414322
 10
320.751923
 20
247.918106
 10
320.400513
 20
248.387253
 10
319.999542
 20
248.815491
 10
319.55368
 20
249.196838
 10
319.067688
 20
249.525345
 10
318.547058
 20
249.795303
 10
317.997955
 20
250.001358
 10
317.427856
 20
250.138855
 10
316.844849
 20
250.204147
 10
316.258301
 20
250.195541
 10
315.67749
 20
250.113235
 10
315.111572
 20
249.959488
 10
314.568481
 20
249.738113
 10
314.055359
 20
249.454071
 10
313.578217
 20
249.112778
 10
313.142365
 20
248.720062
 10
312.752533
 20
248.281769
 10
312.413208
 20
247.803818
 10
312.119598
 20
247.273575
  0
LWPOLYLINE
  5
10B
330
E9
100
AcDbEntity
  8
0
  6
Continuous
 62
     0
370
    30
100
AcDbPolyline
 90
        5
 70
     0
 43
0.0
 10
311.619598
 20
261.295654
 10
311.649628
 20
261.130402
 10
311.738953
 20
260.949646
 10
311.886383
 20
260.75415
 10
312.119598
 20
260.515625
  0
ARC
  5
10C
330
E9
100
AcDbEntity
  8
0
  6
Continuous
 62
     0
370
    30
100
AcDbCircle
 10
316.764198
 20
245.031844
 30
0.0
 40
5.157286380778506
100
AcDbArc
 50
154.235573
 51
165.40286
  0
LINE
  5
10D
330
E9
100
AcDbEntity
  8
0
  6
Continuous
 62
     0
370
    30
100
AcDbLine
 10
328.619603
 20
235.864525
 30
0.0
 11
323.34923
 21
235.864525
 31
0.0
  0
LINE
  5
10E
330
E9
100
AcDbEntity
  8
0
  6
Continuous
 62
     0
370
    30
100
AcDbLine
 10
328.619603
 20
261.864525
 30
0.0
 11
321.619605
 21
261.864525
 31
0.0
  0
ARC
  5
10F
330
E9
100
AcDbEntity
  8
0
  6
Continuous
 62
     0
370
    30
100
AcDbCircle
 10
328.619603
 20
240.864522
 30
0.0
 40
5.0
100
AcDbArc
 50
270.0
 51
360.0
  0
ARC
  5
110
330
E9
100
AcDbEntity
  8
0
  6
Continuous
 62
     0
370
    30
100
AcDbCircle
 10
328.619603
 20
256.864528
 30
0.0
 40
5.0
100
AcDbArc
 50
0.0
 51
90.0
  0
ARC
  5
111
330
E9
100
AcDbEntity
  8
0
  6
Continuous
 62
     0
370
    30
100
AcDbCircle
 10
316.619605
 20
225.117681
 30
0.0
 40
11.00000057265051
100
AcDbArc
 50
238.948314
 51
301.051653
  0
LWPOLYLINE
  5
112
330
E9
100
AcDbEntity
  8
0
  6
Continuous
 62
     0
370
    30
100
AcDbPolyline
 90
       15
 70
     0
 43
0.0
 10
309.678345
 20
222.468765
 10
309.344086
 20
222.021317
 10
309.064697
 20
221.53067
 10
308.848328
 20
221.004822
 10
308.701508
 20
220.452682
 10
308.628021
 20
219.884613
 10
308.63028
 20
219.311371
 10
308.708069
 20
218.743942
 10
308.859283
 20
218.193085
 10
309.079437
 20
217.668991
 10
309.362427
 20
217.180817
 10
309.699554
 20
216.736084
 10
310.081085
 20
216.340103
 10
310.496246
 20
215.995239
 10
310.945679
 20
215.693954
  0
LWPOLYLINE
  5
113
330
E9
100
AcDbEntity
  8
0
  6
Continuous
 62
     0
370
    30
100
AcDbPolyline
 90
        7
 70
     0
 43
0.0
 10
323.560852
 20
222.468765
 10
323.860535
 20
222.073273
 10
324.117645
 20
221.643021
 10
324.326233
 20
221.183456
 10
324.481384
 20
220.700623
 10
324.579712
 20
220.201416
 10
324.619598
 20
219.614853
  0
LWPOLYLINE
  5
114
330
E9
100
AcDbEntity
  8
0
  6
Continuous
 62
     0
370
    30
100
AcDbPolyline
 90
       10
 70
     0
 43
0.0
 10
322.293518
 20
215.693954
 10
322.707489
 20
215.968994
 10
323.101074
 20
216.288086
 10
323.466156
 20
216.652435
 10
323.793976
 20
217.060638
 10
324.075897
 20
217.508804
 10
324.304382
 20
217.991028
 10
324.473755
 20
218.500153
 10
324.579651
 20
219.028198
 10
324.619598
 20
219.614853
  0
LWPOLYLINE
  5
115
330
E9
100
AcDbEntity
  8
0
  6
Continuous
 62
     0
370
    30
100
AcDbPolyline
 90
        9
 70
     0
 43
0.0
 10
311.619598
 20
227.910675
 10
311.58609
 20
227.14534
 10
311.486115
 20
226.387817
 10
311.32132
 20
225.646851
 10
311.095154
 20
224.930801
 10
310.811584
 20
224.248077
 10
310.477753
 20
223.607819
 10
310.102539
 20
223.019501
 10
309.678345
 20
222.468765
  0
LWPOLYLINE
  5
116
330
E9
100
AcDbEntity
  8
0
  6
Continuous
 62
     0
370
    30
100
AcDbPolyline
 90
        9
 70
     0
 43
0.0
 10
321.619598
 20
227.910675
 10
321.653107
 20
227.14534
 10
321.753113
 20
226.387817
 10
321.917877
 20
225.646851
 10
322.144043
 20
224.930801
 10
322.427612
 20
224.248077
 10
322.761475
 20
223.607819
 10
323.136658
 20
223.019501
 10
323.560852
 20
222.468765
  0
LINE
  5
117
330
E9
100
AcDbEntity
  8
0
  6
Continuous
 62
     0
370
    30
100
AcDbLine
 10
311.619605
 20
233.985785
 30
0.0
 11
311.619605
 21
227.910677
 31
0.0
  0
LWPOLYLINE
  5
118
330
E9
100
AcDbEntity
  8
0
  6
Continuous
 62
     0
370
    30
100
AcDbPolyline
 90
       65
 70
     0
 43
0.0
 10
324.619598
 20
240.09993
 10
324.580658
 20
239.328033
 10
324.464264
 20
238.563812
 10
324.271667
 20
237.814941
 10
324.004883
 20
237.088699
 10
323.666656
 20
236.392303
 10
323.26059
 20
235.732452
 10
322.790771
 20
235.115479
 10
322.261902
 20
234.547348
 10
321.679321
 20
234.033218
 10
321.048889
 20
233.577698
 10
320.376556
 20
233.185211
 10
319.668823
 20
232.859207
 10
318.932465
 20
232.602615
 10
318.174469
 20
232.417542
 10
317.401947
 20
232.305801
 10
316.622131
 20
232.268265
 10
315.842255
 20
232.305313
 10
315.069641
 20
232.41658
 10
314.311554
 20
232.601166
 10
313.575043
 20
232.857346
 10
312.867126
 20
233.182922
 10
312.194519
 20
233.574997
 10
311.563721
 20
234.029984
 10
310.980865
 20
234.543823
 10
310.45166
 20
235.111694
 10
309.981476
 20
235.728363
 10
309.574921
 20
236.387924
 10
309.236298
 20
237.084122
 10
308.969025
 20
237.81015
 10
308.77597
 20
238.558929
 10
308.659058
 20
239.323013
 10
308.619659
 20
240.094864
 10
308.65802
 20
240.86676
 10
308.773956
 20
241.631012
 10
308.966003
 20
242.380035
 10
309.232361
 20
243.1064
 10
309.570038
 20
243.80304
 10
309.975708
 20
244.463135
 10
310.445099
 20
245.080399
 10
310.973572
 20
245.648926
 10
311.555756
 20
246.163513
 10
312.185974
 20
246.619293
 10
312.858063
 20
247.012222
 10
313.565582
 20
247.338669
 10
314.301727
 20
247.595825
 10
315.059601
 20
247.781296
 10
315.832062
 20
247.89357
 10
316.611877
 20
247.93158
 10
317.391754
 20
247.89505
 10
318.164429
 20
247.784241
 10
318.922668
 20
247.600189
 10
319.659332
 20
247.344421
 10
320.367462
 20
247.019287
 10
321.040344
 20
246.627716
 10
321.671448
 20
246.173111
 10
322.254608
 20
245.659637
 10
322.784119
 20
245.092041
 10
323.254822
 20
244.475769
 10
323.661835
 20
243.816467
 10
324.000854
 20
243.120499
 10
324.268463
 20
242.394684
 10
324.462189
 20
241.646057
 10
324.579651
 20
240.88179
 10
324.619598
 20
240.09993
  0
ARC
  5
119
330
E9
100
AcDbEntity
  8
0
  6
Continuous
 62
     0
370
    30
100
AcDbCircle
 10
316.619605
 20
272.611368
 30
0.0
 40
11.00000057264887
100
AcDbArc
 50
58.948347
 51
121.051686
  0
LWPOLYLINE
  5
11A
330
E9
100
AcDbEntity
  8
0
  6
Continuous
 62
     0
370
    30
100
AcDbPolyline
 90
       15
 70
     0
 43
0.0
 10
309.678345
 20
275.260284
 10
309.344086
 20
275.707733
 10
309.064697
 20
276.198395
 10
308.848328
 20
276.724213
 10
308.701508
 20
277.276367
 10
308.628021
 20
277.844421
 10
308.63028
 20
278.417694
 10
308.708069
 20
278.985107
 10
308.859283
 20
279.53595
 10
309.079468
 20
280.060059
 10
309.362427
 20
280.548248
 10
309.699554
 20
280.99295
 10
310.081085
 20
281.388947
 10
310.496246
 20
281.733795
 10
310.945679
 20
282.035095
  0
LWPOLYLINE
  5
11B
330
E9
100
AcDbEntity
  8
0
  6
Continuous
 62
     0
370
    30
100
AcDbPolyline
 90
        7
 70
     0
 43
0.0
 10
323.560852
 20
275.260284
 10
323.860535
 20
275.655762
 10
324.117645
 20
276.086029
 10
324.326263
 20
276.545593
 10
324.481384
 20
277.028412
 10
324.579712
 20
277.527649
 10
324.619598
 20
278.114197
  0
LWPOLYLINE
  5
11C
330
E9
100
AcDbEntity
  8
0
  6
Continuous
 62
     0
370
    30
100
AcDbPolyline
 90
       10
 70
     0
 43
0.0
 10
322.293518
 20
282.035095
 10
322.707489
 20
281.76004
 10
323.101074
 20
281.440948
 10
323.466156
 20
281.07663
 10
323.793976
 20
280.668396
 10
324.075897
 20
280.220245
 10
324.304382
 20
279.738007
 10
324.473755
 20
279.228912
 10
324.579651
 20
278.700836
 10
324.619598
 20
278.114197
  0
LWPOLYLINE
  5
11D
330
E9
100
AcDbEntity
  8
0
  6
Continuous
 62
     0
370
    30
100
AcDbPolyline
 90
        9
 70
     0
 43
0.0
 10
311.619598
 20
269.818359
 10
311.58609
 20
270.58371
 10
311.486115
 20
271.341248
 10
311.32135
 20
272.082184
 10
311.095154
 20
272.798248
 10
310.811584
 20
273.480988
 10
310.477753
 20
274.121246
 10
310.102539
 20
274.709534
 10
309.678345
 20
275.260284
  0
LWPOLYLINE
  5
11E
330
E9
100
AcDbEntity
  8
0
  6
Continuous
 62
     0
370
    30
100
AcDbPolyline
 90
        9
 70
     0
 43
0.0
 10
321.619598
 20
269.818359
 10
321.653107
 20
270.58371
 10
321.753113
 20
271.341248
 10
321.917877
 20
272.082184
 10
322.144043
 20
272.798248
 10
322.427612
 20
273.480988
 10
322.761475
 20
274.121246
 10
323.136658
 20
274.709534
 10
323.560852
 20
275.260284
  0
LINE
  5
11F
330
E9
100
AcDbEntity
  8
0
  6
Continuous
 62
     0
370
    30
100
AcDbLine
 10
311.619605
 20
261.295657
 30
0.0
 11
311.619605
 21
269.818373
 31
0.0
  0
LWPOLYLINE
  5
120
330
E9
100
AcDbEntity
  8
0
  6
Continuous
 62
     0
370
    30
100
AcDbPolyline
 90
        6
 70
     0
 43
0.0
 10
311.619598
 20
263.743256
 10
311.133942
 20
263.3302
 10
310.68338
 20
262.879883
 10
310.270935
 20
262.39505
 10
309.899414
 20
261.878815
 10
309.49939
 20
261.200256
  0
LWPOLYLINE
  5
121
330
E9
100
AcDbEntity
  8
0
  6
Continuous
 62
     0
370
    30
100
AcDbPolyline
 90
        5
 70
     0
 43
0.0
 10
323.349243
 20
261.864532
 10
323.006958
 20
262.345306
 10
322.629211
 20
262.799316
 10
322.21814
 20
263.223969
 10
321.619598
 20
263.743103
  0
LINE
  5
122
330
E9
100
AcDbEntity
  8
0
  6
Continuous
 62
     0
370
    30
100
AcDbLine
 10
302.279904
 20
242.614421
 30
0.0
 11
298.619603
 21
242.602644
 31
0.0
  0
LINE
  5
123
330
E9
100
AcDbEntity
  8
0
  6
Continuous
 62
     0
370
    30
100
AcDbLine
 10
302.279904
 20
255.114628
 30
0.0
 11
298.619603
 21
255.126406
 31
0.0
  0
ARC
  5
124
330
E9
100
AcDbEntity
  8
0
  6
Continuous
 62
     0
370
    30
100
AcDbCircle
 10
302.31208
 20
237.614525
 30
0.0
 40
4.999999999980002
100
AcDbArc
 50
20.924832
 51
90.368711
  0
ARC
  5
125
330
E9
100
AcDbEntity
  8
0
  6
Continuous
 62
     0
370
    30
100
AcDbCircle
 10
302.31208
 20
260.114525
 30
0.0
 40
4.999999999980002
100
AcDbArc
 50
269.631289
 51
339.075168
  0
ARC
  5
126
330
E9
100
AcDbEntity
  8
0
  6
Continuous
 62
     0
370
    30
100
AcDbCircle
 10
312.119603
 20
241.364525
 30
0.0
 40
5.499999999978002
100
AcDbArc
 50
200.924832
 51
241.549163
  0
ARC
  5
127
330
E9
100
AcDbEntity
  8
0
  6
Continuous
 62
     0
370
    30
100
AcDbCircle
 10
312.119603
 20
256.364525
 30
0.0
 40
5.499999999978002
100
AcDbArc
 50
95.215888
 51
159.075168
  0
ENDBLK
  5
129
330
E9
100
AcDbEntity
  8
0
100
AcDbBlockEnd
  0
ENDSEC
  0
SECTION
  2
ENTITIES
  0
INSERT
  5
A4
330
1F
100
AcDbEntity
  8
0
  6
Continuous
 62
     7
370
     0
100
AcDbBlockReference
  2
a
 10
57.616455
 20
61.262081
 30
0.0
  0
INSERT
  5
E8
330
1F
100
AcDbEntity
  8
0
  6
Continuous
 62
     7
370
     0
100
AcDbBlockReference
  2
b
 10
57.616455
 20
40.893126
 30
0.0
  0
INSERT
  5
12A
330
1F
100
AcDbEntity
  8
0
  6
Continuous
 62
     7
370
     0
100
AcDbBlockReference
  2
c
 10
57.616455
 20
61.262081
 30
0.0
  0
ENDSEC
  0
SECTION
  2
OBJECTS
  0
DICTIONARY
  5
C
330
0
100
AcDbDictionary
281
     1
  3
ACAD_GROUP
350
D
  3
ACAD_LAYOUT
350
1A
  3
ACAD_MLEADERSTYLE
350
12D
  3
ACAD_MLINESTYLE
350
17
  3
ACAD_PLOTSETTINGS
350
19
  3
ACAD_PLOTSTYLENAME
350
E
  3
ACAD_VISUALSTYLE
350
2A
  3
AcDbVariableDictionary
350
12B
  0
DICTIONARY
  5
D
102
{ACAD_REACTORS
330
C
102
}
330
C
100
AcDbDictionary
281
     1
  0
DICTIONARY
  5
1A
102
{ACAD_REACTORS
330
C
102
}
330
C
100
AcDbDictionary
281
     1
  3
Layout1
350
1E
  3
Layout2
350
26
  3
Model
350
22
  0
DICTIONARY
  5
12D
102
{ACAD_REACTORS
330
C
102
}
330
C
100
AcDbDictionary
281
     1
  0
DICTIONARY
  5
17
102
{ACAD_REACTORS
330
C
102
}
330
C
100
AcDbDictionary
281
     1
  3
Standard
350
18
  0
DICTIONARY
  5
19
102
{ACAD_REACTORS
330
C
102
}
330
C
100
AcDbDictionary
281
     1
  0
ACDBDICTIONARYWDFLT
  5
E
102
{ACAD_REACTORS
330
C
102
}
330
C
100
AcDbDictionary
281
     1
  3
Normal
350
F
100
AcDbDictionaryWithDefault
340
F
  0
DICTIONARY
  5
2A
102
{ACAD_REACTORS
330
C
102
}
330
C
100
AcDbDictionary
281
     1
  3
2dWireframe
350
2F
  3
3D Hidden
350
31
  3
3dWireframe
350
30
  3
Basic
350
32
  3
Brighten
350
36
  3
ColorChange
350
3A
  3
Conceptual
350
34
  3
Dim
350
35
  3
Facepattern
350
39
  3
Flat
350
2B
  3
FlatWithEdges
350
2C
  3
Gouraud
350
2D
  3
GouraudWithEdges
350
2E
  3
Linepattern
350
38
  3
Realistic
350
33
  3
Thicken
350
37
  0
DICTIONARY
  5
12B
102
{ACAD_REACTORS
330
C
102
}
330
C
100
AcDbDictionary
281
     1
  3
PSOLHEIGHT
350
12F
  3
PSOLWIDTH
350
12E
  0
LAYOUT
  5
1E
102
{ACAD_REACTORS
330
1A
102
}
330
1A
100
AcDbPlotSettings
  1

  2
none_device
  4

  6

 40
0.0
 41
0.0
 42
0.0
 43
0.0
 44
0.0
 45
0.0
 46
0.0
 47
0.0
 48
0.0
 49
0.0
140
0.0
141
0.0
142
1.0
143
1.0
 70
   688
 72
     0
 73
     0
 74
     5
  7

 75
    16
147
1.0
148
0.0
149
0.0
100
AcDbLayout
  1
Layout1
 70
     1
 71
     1
 10
0.0
 20
0.0
 11
420.0
 21
297.0
 12
0.0
 22
0.0
 32
0.0
 14
1.000000E+20
 24
1.000000E+20
 34
1.000000E+20
 15
-1.000000E+20
 25
-1.000000E+20
 35
-1.000000E+20
146
0.0
 13
0.0
 23
0.0
 33
0.0
 16
1.0
 26
0.0
 36
0.0
 17
0.0
 27
1.0
 37
0.0
 76
     0
330
1B
  0
LAYOUT
  5
26
102
{ACAD_REACTORS
330
1A
102
}
330
1A
100
AcDbPlotSettings
  1

  2
none_device
  4

  6

 40
0.0
 41
0.0
 42
0.0
 43
0.0
 44
0.0
 45
0.0
 46
0.0
 47
0.0
 48
0.0
 49
0.0
140
0.0
141
0.0
142
1.0
143
1.0
 70
   688
 72
     0
 73
     0
 74
     5
  7

 75
    16
147
1.0
148
0.0
149
0.0
100
AcDbLayout
  1
Layout2
 70
     1
 71
     2
 10
0.0
 20
0.0
 11
0.0
 21
0.0
 12
0.0
 22
0.0
 32
0.0
 14
0.0
 24
0.0
 34
0.0
 15
0.0
 25
0.0
 35
0.0
146
0.0
 13
0.0
 23
0.0
 33
0.0
 16
1.0
 26
0.0
 36
0.0
 17
0.0
 27
1.0
 37
0.0
 76
     0
330
23
  0
LAYOUT
  5
22
102
{ACAD_REACTORS
330
1A
102
}
330
1A
100
AcDbPlotSettings
  1

  2
none_device
  4

  6

 40
0.0
 41
0.0
 42
0.0
 43
0.0
 44
0.0
 45
0.0
 46
0.0
 47
0.0
 48
0.0
 49
0.0
140
0.0
141
0.0
142
1.0
143
1.0
 70
  1712
 72
     0
 73
     0
 74
     0
  7

 75
     0
147
1.0
148
0.0
149
0.0
100
AcDbLayout
  1
Model
 70
     1
 71
     0
 10
86.380409
 20
37.561028
 11
333.619598
 21
283.610474
 12
0.0
 22
0.0
 32
0.0
 14
86.380409
 24
37.561028
 34
0.0
 15
333.619598
 25
283.610474
 35
0.0
146
0.0
 13
0.0
 23
0.0
 33
0.0
 16
1.0
 26
0.0
 36
0.0
 17
0.0
 27
1.0
 37
0.0
 76
     0
330
1F
331
29
  0
MLINESTYLE
  5
18
102
{ACAD_REACTORS
330
17
102
}
330
17
100
AcDbMlineStyle
  2
Standard
 70
     0
  3

 62
   256
 51
90.0
 52
90.0
 71
     2
 49
0.5
 62
   256
  6
BYLAYER
 49
-0.5
 62
   256
  6
BYLAYER
  0
ACDBPLACEHOLDER
  5
F
102
{ACAD_REACTORS
330
E
102
}
330
E
  0
VISUALSTYLE
  5
2F
102
{ACAD_REACTORS
330
2A
102
}
330
2A
100
AcDbVisualStyle
  2
2dWireframe
 70
     4
 71
     0
 72
     2
 73
     0
 90
        0
 40
-0.6
 41
-30.0
 62
     5
 63
     7
 74
     1
 91
        4
 64
     7
 65
   257
 75
     1
175
     1
 42
1.0
 92
        0
 66
   257
 43
1.0
 76
     1
 77
     6
 78
     2
 67
     7
 79
     5
170
     0
171
     0
290
     0
174
     0
 93
        1
 44
0.0
173
     0
291
     0
 45
0.0
1001
ACAD
1000
AcDbSavedByObjectVersion
1070
     0
  0
VISUALSTYLE
  5
31
102
{ACAD_REACTORS
330
2A
102
}
330
2A
100
AcDbVisualStyle
  2
3D Hidden
 70
     6
 71
     1
 72
     2
 73
     2
 90
        0
 40
-0.6
 41
-30.0
 62
     5
 63
     7
 74
     2
 91
        2
 64
     7
 65
   257
 75
     2
175
     1
 42
40.0
 92
        0
 66
   257
 43
1.0
 76
     1
 77
     6
 78
     2
 67
     7
 79
     3
170
     0
171
     0
290
     0
174
     0
 93
        1
 44
0.0
173
     0
291
     0
 45
0.0
1001
ACAD
1000
AcDbSavedByObjectVersion
1070
     0
  0
VISUALSTYLE
  5
30
102
{ACAD_REACTORS
330
2A
102
}
330
2A
100
AcDbVisualStyle
  2
3dWireframe
 70
     5
 71
     0
 72
     2
 73
     0
 90
        0
 40
-0.6
 41
-30.0
 62
     5
 63
     7
 74
     1
 91
        4
 64
     7
 65
   257
 75
     1
175
     1
 42
1.0
 92
        0
 66
   257
 43
1.0
 76
     1
 77
     6
 78
     2
 67
     7
 79
     5
170
     0
171
     0
290
     0
174
     0
 93
        1
 44
0.0
173
     0
291
     0
 45
0.0
1001
ACAD
1000
AcDbSavedByObjectVersion
1070
     0
  0
VISUALSTYLE
  5
32
102
{ACAD_REACTORS
330
2A
102
}
330
2A
100
AcDbVisualStyle
  2
Basic
 70
     7
 71
     1
 72
     0
 73
     1
 90
        0
 40
-0.6
 41
-30.0
 62
     5
 63
     7
 74
     0
 91
        4
 64
     7
 65
   257
 75
     1
175
     1
 42
1.0
 92
        8
 66
     7
 43
1.0
 76
     1
 77
     6
 78
     2
 67
     7
 79
     5
170
     0
171
     0
290
     0
174
     0
 93
        1
 44
0.0
173
     0
291
     1
 45
0.0
1001
ACAD
1000
AcDbSavedByObjectVersion
1070
     0
  0
VISUALSTYLE
  5
36
102
{ACAD_REACTORS
330
2A
102
}
330
2A
100
AcDbVisualStyle
  2
Brighten
 70
    12
 71
     2
 72
     2
 73
     0
 90
        0
 40
-0.6
 41
-30.0
 62
     5
 63
     7
 74
     1
 91
        4
 64
     7
 65
   257
 75
     1
175
     1
 42
1.0
 92
        8
 66
     7
 43
1.0
 76
     1
 77
     6
 78
     2
 67
     7
 79
     5
170
     0
171
     0
290
     0
174
     0
 93
        1
 44
50.0
173
     0
291
     1
 45
0.0
1001
ACAD
1000
AcDbSavedByObjectVersion
1070
     0
  0
VISUALSTYLE
  5
3A
102
{ACAD_REACTORS
330
2A
102
}
330
2A
100
AcDbVisualStyle
  2
ColorChange
 70
    16
 71
     2
 72
     2
 73
     3
 90
        0
 40
-0.6
 41
-30.0
 62
     5
 63
     8
 74
     1
 91
        4
 64
     7
 65
   257
 75
     1
175
     1
 42
1.0
 92
        8
 66
     8
 43
1.0
 76
     1
 77
     6
 78
     2
 67
     7
 79
     5
170
     0
171
     0
290
     0
174
     0
 93
        1
 44
0.0
173
     0
291
     1
 45
0.0
1001
ACAD
1000
AcDbSavedByObjectVersion
1070
     0
  0
VISUALSTYLE
  5
34
102
{ACAD_REACTORS
330
2A
102
}
330
2A
100
AcDbVisualStyle
  2
Conceptual
 70
     9
 71
     3
 72
     2
 73
     0
 90
        0
 40
-0.6
 41
-30.0
 62
     5
 63
     7
 74
     2
 91
        2
 64
     7
 65
   257
 75
     1
175
     1
 42
40.0
 92
        8
 66
     7
 43
1.0
 76
     1
 77
     6
 78
     2
 67
     7
 79
     3
170
     0
171
     0
290
     0
174
     0
 93
        1
 44
0.0
173
     0
291
     0
 45
0.0
1001
ACAD
1000
AcDbSavedByObjectVersion
1070
     0
  0
VISUALSTYLE
  5
35
102
{ACAD_REACTORS
330
2A
102
}
330
2A
100
AcDbVisualStyle
  2
Dim
 70
    11
 71
     2
 72
     2
 73
     0
 90
        0
 40
-0.6
 41
-30.0
 62
     5
 63
     7
 74
     1
 91
        4
 64
     7
 65
   257
 75
     1
175
     1
 42
1.0
 92
        8
 66
     7
 43
1.0
 76
     1
 77
     6
 78
     2
 67
     7
 79
     5
170
     0
171
     0
290
     0
174
     0
 93
        1
 44
-50.0
173
     0
291
     1
 45
0.0
1001
ACAD
1000
AcDbSavedByObjectVersion
1070
     0
  0
VISUALSTYLE
  5
39
102
{ACAD_REACTORS
330
2A
102
}
330
2A
100
AcDbVisualStyle
  2
Facepattern
 70
    15
 71
     2
 72
     2
 73
     0
 90
        0
 40
-0.6
 41
-30.0
 62
     5
 63
     7
 74
     1
 91
        4
 64
     7
 65
   257
 75
     1
175
     1
 42
1.0
 92
        8
 66
     7
 43
1.0
 76
     1
 77
     6
 78
     2
 67
     7
 79
     5
170
     0
171
     0
290
     0
174
     0
 93
        1
 44
0.0
173
     0
291
     1
 45
0.0
1001
ACAD
1000
AcDbSavedByObjectVersion
1070
     0
  0
VISUALSTYLE
  5
2B
102
{ACAD_REACTORS
330
2A
102
}
330
2A
100
AcDbVisualStyle
  2
Flat
 70
     0
 71
     2
 72
     1
 73
     1
 90
        2
 40
-0.6
 41
30.0
 62
     5
 63
     7
 74
     0
 91
        4
 64
     7
 65
   257
 75
     1
175
     1
 42
1.0
 92
        8
 66
     7
 43
1.0
 76
     1
 77
     6
 78
     2
 67
     7
 79
     5
170
     0
171
     0
290
     0
174
     0
 93
       13
 44
0.0
173
     0
291
     1
 45
0.0
1001
ACAD
1000
AcDbSavedByObjectVersion
1070
     0
  0
VISUALSTYLE
  5
2C
102
{ACAD_REACTORS
330
2A
102
}
330
2A
100
AcDbVisualStyle
  2
FlatWithEdges
 70
     1
 71
     2
 72
     1
 73
     1
 90
        2
 40
-0.6
 41
30.0
 62
     5
 63
     7
 74
     1
 91
        4
 64
     7
 65
   257
 75
     1
175
     1
 42
1.0
 92
        0
 66
   257
 43
1.0
 76
     1
 77
     6
 78
     2
 67
     7
 79
     5
170
     0
171
     0
290
     0
174
     0
 93
       13
 44
0.0
173
     0
291
     1
 45
0.0
1001
ACAD
1000
AcDbSavedByObjectVersion
1070
     0
  0
VISUALSTYLE
  5
2D
102
{ACAD_REACTORS
330
2A
102
}
330
2A
100
AcDbVisualStyle
  2
Gouraud
 70
     2
 71
     2
 72
     2
 73
     1
 90
        2
 40
-0.6
 41
30.0
 62
     5
 63
     7
 74
     0
 91
        4
 64
     7
 65
   257
 75
     1
175
     1
 42
1.0
 92
        0
 66
     7
 43
1.0
 76
     1
 77
     6
 78
     2
 67
     7
 79
     5
170
     0
171
     0
290
     0
174
     0
 93
       13
 44
0.0
173
     0
291
     1
 45
0.0
1001
ACAD
1000
AcDbSavedByObjectVersion
1070
     0
  0
VISUALSTYLE
  5
2E
102
{ACAD_REACTORS
330
2A
102
}
330
2A
100
AcDbVisualStyle
  2
GouraudWithEdges
 70
     3
 71
     2
 72
     2
 73
     1
 90
        2
 40
-0.6
 41
30.0
 62
     5
 63
     7
 74
     1
 91
        4
 64
     7
 65
   257
 75
     1
175
     1
 42
1.0
 92
        0
 66
   257
 43
1.0
 76
     1
 77
     6
 78
     2
 67
     7
 79
     5
170
     0
171
     0
290
     0
174
     0
 93
       13
 44
0.0
173
     0
291
     1
 45
0.0
1001
ACAD
1000
AcDbSavedByObjectVersion
1070
     0
  0
VISUALSTYLE
  5
38
102
{ACAD_REACTORS
330
2A
102
}
330
2A
100
AcDbVisualStyle
  2
Linepattern
 70
    14
 71
     2
 72
     2
 73
     0
 90
        0
 40
-0.6
 41
-30.0
 62
     5
 63
     7
 74
     1
 91
        4
 64
     7
 65
   257
 75
     7
175
     7
 42
1.0
 92
        8
 66
     7
 43
1.0
 76
     1
 77
     6
 78
     2
 67
     7
 79
     5
170
     0
171
     0
290
     0
174
     0
 93
        1
 44
0.0
173
     0
291
     1
 45
0.0
1001
ACAD
1000
AcDbSavedByObjectVersion
1070
     0
  0
VISUALSTYLE
  5
33
102
{ACAD_REACTORS
330
2A
102
}
330
2A
100
AcDbVisualStyle
  2
Realistic
 70
     8
 71
     2
 72
     2
 73
     0
 90
        0
 40
-0.6
 41
-30.0
 62
     5
 63
     7
 74
     1
 91
        0
 64
     7
 65
   257
 75
     1
175
     1
 42
1.0
 92
        8
 66
     8
 43
1.0
 76
     1
 77
     6
 78
     2
 67
     7
 79
     5
170
     0
171
     0
290
     0
174
     0
 93
       13
 44
0.0
173
     0
291
     0
 45
0.0
1001
ACAD
1000
AcDbSavedByObjectVersion
1070
     0
  0
VISUALSTYLE
  5
37
102
{ACAD_REACTORS
330
2A
102
}
330
2A
100
AcDbVisualStyle
  2
Thicken
 70
    13
 71
     2
 72
     2
 73
     0
 90
        0
 40
-0.6
 41
-30.0
 62
     5
 63
     7
 74
     1
 91
        4
 64
     7
 65
   257
 75
     1
175
     1
 42
1.0
 92
       12
 66
     7
 43
1.0
 76
     1
 77
     6
 78
     2
 67
     7
 79
     5
170
     0
171
     0
290
     0
174
     0
 93
        1
 44
0.0
173
     0
291
     1
 45
0.0
1001
ACAD
1000
AcDbSavedByObjectVersion
1070
     0
  0
DICTIONARYVAR
  5
12F
102
{ACAD_REACTORS
330
12B
102
}
330
12B
100
DictionaryVariables
280
     0
  1
80.000000
  0
DICTIONARYVAR
  5
12E
102
{ACAD_REACTORS
330
12B
102
}
330
12B
100
DictionaryVariables
280
     0
  1
5.000000
  0
ENDSEC
  0
EOF
