  0
SECTION
  2
HEADER
  9
$ACADVER
  1
AC1015
  9
$ACADMAINTVER
 70
     6
  9
$DWGCODEPAGE
  3
ANSI_1252
  9
$INSBASE
 10
0.0
 20
0.0
 30
0.0
  9
$EXTMIN
 10
140.904633
 20
51.542625
 30
0.0
  9
$EXTMAX
 10
639.264893
 20
843.773071
 30
0.0
  9
$LIMMIN
 10
140.904633
 20
51.542625
  9
$LIMMAX
 10
639.264893
 20
843.773071
  9
$ORTHOMODE
 70
     0
  9
$REGENMODE
 70
     1
  9
$FILLMODE
 70
     1
  9
$QTEXTMODE
 70
     0
  9
$MIRRTEXT
 70
     1
  9
$LTSCALE
 40
1.0
  9
$ATTMODE
 70
     1
  9
$TEXTSIZE
 40
2.5
  9
$TRACEWID
 40
1.0
  9
$TEXTSTYLE
  7
Standard
  9
$CLAYER
  8
0
  9
$CELTYPE
  6
ByLayer
  9
$CECOLOR
 62
   256
  9
$CELTSCALE
 40
1.0
  9
$DISPSILH
 70
     0
  9
$DIMSCALE
 40
1.0
  9
$DIMASZ
 40
2.5
  9
$DIMEXO
 40
0.625
  9
$DIMDLI
 40
3.75
  9
$DIMRND
 40
0.0
  9
$DIMDLE
 40
0.0
  9
$DIMEXE
 40
1.25
  9
$DIMTP
 40
0.0
  9
$DIMTM
 40
0.0
  9
$DIMTXT
 40
2.5
  9
$DIMCEN
 40
2.5
  9
$DIMTSZ
 40
0.0
  9
$DIMTOL
 70
     0
  9
$DIMLIM
 70
     0
  9
$DIMTIH
 70
     0
  9
$DIMTOH
 70
     0
  9
$DIMSE1
 70
     0
  9
$DIMSE2
 70
     0
  9
$DIMTAD
 70
     1
  9
$DIMZIN
 70
     8
  9
$DIMBLK
  1

  9
$DIMASO
 70
     1
  9
$DIMSHO
 70
     1
  9
$DIMPOST
  1

  9
$DIMAPOST
  1

  9
$DIMALT
 70
     0
  9
$DIMALTD
 70
     3
  9
$DIMALTF
 40
0.03937
  9
$DIMLFAC
 40
1.0
  9
$DIMTOFL
 70
     1
  9
$DIMTVP
 40
0.0
  9
$DIMTIX
 70
     0
  9
$DIMSOXD
 70
     0
  9
$DIMSAH
 70
     0
  9
$DIMBLK1
  1

  9
$DIMBLK2
  1

  9
$DIMSTYLE
  2
ISO-25
  9
$DIMCLRD
 70
     0
  9
$DIMCLRE
 70
     0
  9
$DIMCLRT
 70
     0
  9
$DIMTFAC
 40
1.0
  9
$DIMGAP
 40
0.625
  9
$DIMJUST
 70
     0
  9
$DIMSD1
 70
     0
  9
$DIMSD2
 70
     0
  9
$DIMTOLJ
 70
     0
  9
$DIMTZIN
 70
     8
  9
$DIMALTZ
 70
     0
  9
$DIMALTTZ
 70
     0
  9
$DIMUPT
 70
     0
  9
$DIMDEC
 70
     2
  9
$DIMTDEC
 70
     2
  9
$DIMALTU
 70
     2
  9
$DIMALTTD
 70
     3
  9
$DIMTXSTY
  7
Standard
  9
$DIMAUNIT
 70
     0
  9
$DIMADEC
 70
     0
  9
$DIMALTRND
 40
0.0
  9
$DIMAZIN
 70
     0
  9
$DIMDSEP
 70
    44
  9
$DIMATFIT
 70
     3
  9
$DIMFRAC
 70
     0
  9
$DIMLDRBLK
  1

  9
$DIMLUNIT
 70
     2
  9
$DIMLWD
 70
    -2
  9
$DIMLWE
 70
    -2
  9
$DIMTMOVE
 70
     0
  9
$LUNITS
 70
     2
  9
$LUPREC
 70
     4
  9
$SKETCHINC
 40
1.0
  9
$FILLETRAD
 40
10.0
  9
$AUNITS
 70
     0
  9
$AUPREC
 70
     0
  9
$MENU
  1
.
  9
$ELEVATION
 40
0.0
  9
$PELEVATION
 40
0.0
  9
$THICKNESS
 40
0.0
  9
$LIMCHECK
 70
     0
  9
$CHAMFERA
 40
10.0
  9
$CHAMFERB
 40
10.0
  9
$CHAMFERC
 40
20.0
  9
$CHAMFERD
 40
0.0
  9
$SKPOLY
 70
     0
  9
$TDCREATE
 40
2455572.600987535
  9
$TDUCREATE
 40
2455572.559320868
  9
$TDUPDATE
 40
2455572.600987546
  9
$TDUUPDATE
 40
2455572.55932088
  9
$TDINDWG
 40
0.0000000116
  9
$TDUSRTIMER
 40
0.0000000116
  9
$USRTIMER
 70
     1
  9
$ANGBASE
 50
0.0
  9
$ANGDIR
 70
     0
  9
$PDMODE
 70
     0
  9
$PDSIZE
 40
0.0
  9
$PLINEWID
 40
0.0
  9
$SPLFRAME
 70
     0
  9
$SPLINETYPE
 70
     6
  9
$SPLINESEGS
 70
     8
  9
$HANDSEED
  5
1B5
  9
$SURFTAB1
 70
     6
  9
$SURFTAB2
 70
     6
  9
$SURFTYPE
 70
     6
  9
$SURFU
 70
     6
  9
$SURFV
 70
     6
  9
$UCSBASE
  2

  9
$UCSNAME
  2

  9
$UCSORG
 10
0.0
 20
0.0
 30
0.0
  9
$UCSXDIR
 10
1.0
 20
0.0
 30
0.0
  9
$UCSYDIR
 10
0.0
 20
1.0
 30
0.0
  9
$UCSORTHOREF
  2

  9
$UCSORTHOVIEW
 70
     0
  9
$UCSORGTOP
 10
0.0
 20
0.0
 30
0.0
  9
$UCSORGBOTTOM
 10
0.0
 20
0.0
 30
0.0
  9
$UCSORGLEFT
 10
0.0
 20
0.0
 30
0.0
  9
$UCSORGRIGHT
 10
0.0
 20
0.0
 30
0.0
  9
$UCSORGFRONT
 10
0.0
 20
0.0
 30
0.0
  9
$UCSORGBACK
 10
0.0
 20
0.0
 30
0.0
  9
$PUCSBASE
  2

  9
$PUCSNAME
  2

  9
$PUCSORG
 10
0.0
 20
0.0
 30
0.0
  9
$PUCSXDIR
 10
1.0
 20
0.0
 30
0.0
  9
$PUCSYDIR
 10
0.0
 20
1.0
 30
0.0
  9
$PUCSORTHOREF
  2

  9
$PUCSORTHOVIEW
 70
     0
  9
$PUCSORGTOP
 10
0.0
 20
0.0
 30
0.0
  9
$PUCSORGBOTTOM
 10
0.0
 20
0.0
 30
0.0
  9
$PUCSORGLEFT
 10
0.0
 20
0.0
 30
0.0
  9
$PUCSORGRIGHT
 10
0.0
 20
0.0
 30
0.0
  9
$PUCSORGFRONT
 10
0.0
 20
0.0
 30
0.0
  9
$PUCSORGBACK
 10
0.0
 20
0.0
 30
0.0
  9
$USERI1
 70
     0
  9
$USERI2
 70
     0
  9
$USERI3
 70
     0
  9
$USERI4
 70
     0
  9
$USERI5
 70
     0
  9
$USERR1
 40
0.0
  9
$USERR2
 40
0.0
  9
$USERR3
 40
0.0
  9
$USERR4
 40
0.0
  9
$USERR5
 40
0.0
  9
$WORLDVIEW
 70
     1
  9
$SHADEDGE
 70
     3
  9
$SHADEDIF
 70
    70
  9
$TILEMODE
 70
     1
  9
$MAXACTVP
 70
    64
  9
$PINSBASE
 10
0.0
 20
0.0
 30
0.0
  9
$PLIMCHECK
 70
     0
  9
$PEXTMIN
 10
1.000000E+20
 20
1.000000E+20
 30
1.000000E+20
  9
$PEXTMAX
 10
-1.000000E+20
 20
-1.000000E+20
 30
-1.000000E+20
  9
$PLIMMIN
 10
0.0
 20
0.0
  9
$PLIMMAX
 10
420.0
 20
297.0
  9
$UNITMODE
 70
     0
  9
$VISRETAIN
 70
     1
  9
$PLINEGEN
 70
     0
  9
$PSLTSCALE
 70
     1
  9
$TREEDEPTH
 70
  3020
  9
$CMLSTYLE
  2
Standard
  9
$CMLJUST
 70
     0
  9
$CMLSCALE
 40
20.0
  9
$PROXYGRAPHICS
 70
     1
  9
$MEASUREMENT
 70
     1
  9
$CELWEIGHT
370
    -1
  9
$ENDCAPS
280
     0
  9
$JOINSTYLE
280
     0
  9
$LWDISPLAY
290
     0
  9
$INSUNITS
 70
     4
  9
$HYPERLINKBASE
  1

  9
$STYLESHEET
  1

  9
$XEDIT
290
     1
  9
$CEPSNTYPE
380
     0
  9
$PSTYLEMODE
290
     1
  9
$FINGERPRINTGUID
  2
{BA4868A8-9EF8-4597-83D6-514CD393926D}
  9
$VERSIONGUID
  2
{FAEB1C32-E019-11D5-929B-00C0DF256EC4}
  9
$EXTNAMES
290
     1
  9
$PSVPSCALE
 40
0.0
  9
$OLESTARTUP
290
     0
  0
ENDSEC
  0
SECTION
  2
CLASSES
  0
CLASS
  1
ACDBDICTIONARYWDFLT
  2
AcDbDictionaryWithDefault
  3
ObjectDBX Classes
 90
        0
280
     0
281
     0
  0
CLASS
  1
VISUALSTYLE
  2
AcDbVisualStyle
  3
ObjectDBX Classes
 90
     4095
280
     0
281
     0
  0
CLASS
  1
DICTIONARYVAR
  2
AcDbDictionaryVar
  3
ObjectDBX Classes
 90
        0
280
     0
281
     0
  0
CLASS
  1
ACDBPLACEHOLDER
  2
AcDbPlaceHolder
  3
ObjectDBX Classes
 90
        0
280
     0
281
     0
  0
CLASS
  1
LAYOUT
  2
AcDbLayout
  3
ObjectDBX Classes
 90
        0
280
     0
281
     0
  0
ENDSEC
  0
SECTION
  2
TABLES
  0
TABLE
  2
VPORT
  5
8
330
0
100
AcDbSymbolTable
 70
     1
  0
VPORT
  5
29
330
8
100
AcDbSymbolTableRecord
100
AcDbViewportTableRecord
  2
*Active
 70
     0
 10
0.0
 20
0.0
 11
1.0
 21
1.0
 12
344.186916
 22
148.5
 13
0.0
 23
0.0
 14
10.0
 24
10.0
 15
10.0
 25
10.0
 16
0.0
 26
0.0
 36
1.0
 17
0.0
 27
0.0
 37
0.0
 40
297.0
 41
1.972973
 42
50.0
 43
0.0
 44
0.0
 50
0.0
 51
0.0
 71
     0
 72
   100
 73
     1
 74
     3
 75
     0
 76
     0
 77
     0
 78
     0
281
     0
 65
     1
110
0.0
120
0.0
130
0.0
111
1.0
121
0.0
131
0.0
112
0.0
122
1.0
132
0.0
 79
     0
146
0.0
  0
ENDTAB
  0
TABLE
  2
LTYPE
  5
5
330
0
100
AcDbSymbolTable
 70
     1
  0
LTYPE
  5
14
330
5
100
AcDbSymbolTableRecord
100
AcDbLinetypeTableRecord
  2
ByBlock
 70
     0
  3

 72
    65
 73
     0
 40
0.0
  0
LTYPE
  5
15
330
5
100
AcDbSymbolTableRecord
100
AcDbLinetypeTableRecord
  2
ByLayer
 70
     0
  3

 72
    65
 73
     0
 40
0.0
  0
LTYPE
  5
16
330
5
100
AcDbSymbolTableRecord
100
AcDbLinetypeTableRecord
  2
Continuous
 70
     0
  3
Solid line
 72
    65
 73
     0
 40
0.0
  0
ENDTAB
  0
TABLE
  2
LAYER
  5
2
330
0
100
AcDbSymbolTable
 70
     1
  0
LAYER
  5
10
330
2
100
AcDbSymbolTableRecord
100
AcDbLayerTableRecord
  2
0
 70
     0
 62
   106
  6
Continuous
370
     0
390
F
  0
ENDTAB
  0
TABLE
  2
STYLE
  5
3
330
0
100
AcDbSymbolTable
 70
     4
  0
STYLE
  5
11
330
3
100
AcDbSymbolTableRecord
100
AcDbTextStyleTableRecord
  2
Standard
 70
     0
 40
0.0
 41
1.0
 50
0.0
 71
     0
 42
2.5
  3
txt
  4

  0
STYLE
  5
3B
330
3
100
AcDbSymbolTableRecord
100
AcDbTextStyleTableRecord
  2
Default
 70
     0
 40
0.0
 41
1.0
 50
0.0
 71
     0
 42
0.2
  3

  4

1001
ACAD
1000
txt
1071
        0
  0
STYLE
  5
3C
330
3
100
AcDbSymbolTableRecord
100
AcDbTextStyleTableRecord
  2
ISO
 70
     0
 40
0.0
 41
1.0
 50
0.0
 71
     0
 42
0.2
  3

  4

1001
ACAD
1000
txt
1071
        0
  0
STYLE
  5
3D
330
3
100
AcDbSymbolTableRecord
100
AcDbTextStyleTableRecord
  2
GIANLU
 70
     0
 40
0.0
 41
1.0
 50
0.0
 71
     0
 42
0.2
  3

  4

1001
ACAD
1000
Arial
1071
        0
  0
ENDTAB
  0
TABLE
  2
VIEW
  5
6
330
0
100
AcDbSymbolTable
 70
     0
  0
ENDTAB
  0
TABLE
  2
UCS
  5
7
330
0
100
AcDbSymbolTable
 70
     0
  0
ENDTAB
  0
TABLE
  2
APPID
  5
9
330
0
100
AcDbSymbolTable
 70
     1
  0
APPID
  5
12
330
9
100
AcDbSymbolTableRecord
100
AcDbRegAppTableRecord
  2
ACAD
 70
     0
  0
ENDTAB
  0
TABLE
  2
DIMSTYLE
  5
A
330
0
100
AcDbSymbolTable
 70
     4
100
AcDbDimStyleTable
  0
DIMSTYLE
105
27
330
A
100
AcDbSymbolTableRecord
100
AcDbDimStyleTableRecord
  2
ISO-25
 70
     0
 41
2.5
 42
0.625
 43
3.75
 44
1.25
 73
     0
 74
     0
 77
     1
 78
     8
140
2.5
141
2.5
143
0.03937
147
0.625
171
     3
172
     1
271
     2
272
     2
274
     3
278
    44
283
     0
284
     8
340
11
  0
DIMSTYLE
105
3E
330
A
100
AcDbSymbolTableRecord
100
AcDbDimStyleTableRecord
  2
Default
 70
     0
  3
<>
 41
4.375
 42
1.05
 44
2.1
 73
     0
 74
     0
 77
     1
 78
     8
140
3.5
146
0.4
147
1.75
178
     3
271
     2
272
     3
284
     8
340
3B
341
3F
342
3F
  0
DIMSTYLE
105
46
330
A
100
AcDbSymbolTableRecord
100
AcDbDimStyleTableRecord
  2
ISO
 70
     0
  3
<>
 41
4.375
 42
1.05
 44
2.1
 73
     0
 74
     0
 77
     1
 78
     8
140
3.5
146
0.4
147
1.75
178
     3
271
     2
272
     3
284
     8
340
3C
341
3F
342
3F
  0
DIMSTYLE
105
47
330
A
100
AcDbSymbolTableRecord
100
AcDbDimStyleTableRecord
  2
zucchetti_unico
 70
     0
  3
<>
 41
3.0
 42
0.9
 44
1.8
 73
     0
 74
     0
 77
     1
 78
     8
140
3.0
146
0.6
147
1.5
176
   104
177
     3
178
     3
271
     2
272
     2
284
     8
340
3D
  0
ENDTAB
  0
TABLE
  2
BLOCK_RECORD
  5
1
330
0
100
AcDbSymbolTable
 70
     7
  0
BLOCK_RECORD
  5
1F
330
1
100
AcDbSymbolTableRecord
100
AcDbBlockTableRecord
  2
*Model_Space
340
22
  0
BLOCK_RECORD
  5
1B
330
1
100
AcDbSymbolTableRecord
100
AcDbBlockTableRecord
  2
*Paper_Space
340
1E
  0
BLOCK_RECORD
  5
23
330
1
100
AcDbSymbolTableRecord
100
AcDbBlockTableRecord
  2
*Paper_Space0
340
26
  0
BLOCK_RECORD
  5
3F
330
1
100
AcDbSymbolTableRecord
100
AcDbBlockTableRecord
  2
_CLOSED
340
0
  0
BLOCK_RECORD
  5
48
330
1
100
AcDbSymbolTableRecord
100
AcDbBlockTableRecord
  2
a
340
0
102
{BLKREFS
331
83
102
}
  0
BLOCK_RECORD
  5
84
330
1
100
AcDbSymbolTableRecord
100
AcDbBlockTableRecord
  2
b
340
0
102
{BLKREFS
331
A5
102
}
  0
BLOCK_RECORD
  5
A6
330
1
100
AcDbSymbolTableRecord
100
AcDbBlockTableRecord
  2
c
340
0
102
{BLKREFS
331
F8
102
}
  0
BLOCK_RECORD
  5
F9
330
1
100
AcDbSymbolTableRecord
100
AcDbBlockTableRecord
  2
d
340
0
102
{BLKREFS
331
15C
102
}
  0
BLOCK_RECORD
  5
15D
330
1
100
AcDbSymbolTableRecord
100
AcDbBlockTableRecord
  2
e
340
0
102
{BLKREFS
331
1AF
102
}
  0
ENDTAB
  0
ENDSEC
  0
SECTION
  2
BLOCKS
  0
BLOCK
  5
20
330
1F
100
AcDbEntity
  8
0
100
AcDbBlockBegin
  2
*Model_Space
 70
     0
 10
0.0
 20
0.0
 30
0.0
  3
*Model_Space
  1

  0
ENDBLK
  5
21
330
1F
100
AcDbEntity
  8
0
100
AcDbBlockEnd
  0
BLOCK
  5
1C
330
1B
100
AcDbEntity
 67
     1
  8
0
100
AcDbBlockBegin
  2
*Paper_Space
 70
     0
 10
0.0
 20
0.0
 30
0.0
  3
*Paper_Space
  1

  0
ENDBLK
  5
1D
330
1B
100
AcDbEntity
 67
     1
  8
0
100
AcDbBlockEnd
  0
BLOCK
  5
24
330
23
100
AcDbEntity
  8
0
100
AcDbBlockBegin
  2
*Paper_Space0
 70
     0
 10
0.0
 20
0.0
 30
0.0
  3
*Paper_Space0
  1

  0
ENDBLK
  5
25
330
23
100
AcDbEntity
  8
0
100
AcDbBlockEnd
  0
BLOCK
  5
40
330
3F
100
AcDbEntity
  8
0
100
AcDbBlockBegin
  2
_CLOSED
 70
     0
 10
0.0
 20
0.0
 30
0.0
  3
_CLOSED
  1

  0
LINE
  5
42
330
3F
100
AcDbEntity
  8
0
  6
ByBlock
 62
     0
370
    -2
100
AcDbLine
 10
-1.0
 20
0.166667
 30
0.0
 11
0.0
 21
0.0
 31
0.0
  0
LINE
  5
43
330
3F
100
AcDbEntity
  8
0
  6
ByBlock
 62
     0
370
    -2
100
AcDbLine
 10
0.0
 20
0.0
 30
0.0
 11
-1.0
 21
-0.166667
 31
0.0
  0
LINE
  5
44
330
3F
100
AcDbEntity
  8
0
  6
ByBlock
 62
     0
370
    -2
100
AcDbLine
 10
-1.0
 20
0.166667
 30
0.0
 11
-1.0
 21
-0.166667
 31
0.0
  0
LINE
  5
45
330
3F
100
AcDbEntity
  8
0
  6
ByBlock
 62
     0
370
    -2
100
AcDbLine
 10
0.0
 20
0.0
 30
0.0
 11
-1.0
 21
0.0
 31
0.0
  0
ENDBLK
  5
41
330
3F
100
AcDbEntity
  8
0
100
AcDbBlockEnd
  0
BLOCK
  5
81
330
48
100
AcDbEntity
  8
0
100
AcDbBlockBegin
  2
a
 70
     0
 10
296.672394
 20
181.477646
 30
0.0
  3
a
  1

  0
LWPOLYLINE
  5
49
330
48
100
AcDbEntity
  8
0
  6
Continuous
 62
     0
370
     0
100
AcDbPolyline
 90
       12
 70
     0
 43
0.0
 10
367.502838
 20
824.796875
 10
367.560913
 20
824.843567
 10
367.734497
 20
824.979675
 10
368.02124
 20
825.194702
 10
368.41864
 20
825.473267
 10
368.92334
 20
825.794312
 10
369.531799
 20
826.13562
 10
370.241821
 20
826.474121
 10
371.053253
 20
826.785034
 10
371.960022
 20
827.040039
 10
372.942902
 20
827.210632
 10
374.002838
 20
827.273071
  0
LWPOLYLINE
  5
4A
330
48
100
AcDbEntity
  8
0
  6
Continuous
 62
     0
370
     0
100
AcDbPolyline
 90
       12
 70
     0
 43
0.0
 10
374.002838
 20
827.273071
 10
375.03064
 20
827.214111
 10
376.015625
 20
827.046814
 10
376.925262
 20
826.794128
 10
377.739716
 20
826.484558
 10
378.452972
 20
826.146423
 10
379.064697
 20
825.804871
 10
379.572754
 20
825.482788
 10
379.973572
 20
825.202576
 10
380.263824
 20
824.985413
 10
380.44101
 20
824.846619
 10
380.502808
 20
824.796997
  0
LINE
  5
4B
330
48
100
AcDbEntity
  8
0
  6
Continuous
 62
     0
370
     0
100
AcDbLine
 10
374.00284
 20
838.773083
 30
0.0
 11
367.50284
 21
838.773083
 31
0.0
  0
LINE
  5
4C
330
48
100
AcDbEntity
  8
0
  6
Continuous
 62
     0
370
     0
100
AcDbLine
 10
380.50284
 20
838.773083
 30
0.0
 11
374.00284
 21
838.773083
 31
0.0
  0
LINE
  5
4D
330
48
100
AcDbEntity
  8
0
  6
Continuous
 62
     0
370
    30
100
AcDbLine
 10
380.00284
 20
839.273083
 30
0.0
 11
374.00284
 21
839.273083
 31
0.0
  0
LINE
  5
4E
330
48
100
AcDbEntity
  8
0
  6
Continuous
 62
     0
370
    30
100
AcDbLine
 10
374.00284
 20
839.273083
 30
0.0
 11
368.00284
 21
839.273083
 31
0.0
  0
ARC
  5
4F
330
48
100
AcDbEntity
  8
0
  6
Continuous
 62
     0
370
    30
100
AcDbCircle
 10
374.00284
 20
803.773083
 30
0.0
 40
19.50000000000001
100
AcDbArc
 50
90.0
 51
270.0
  0
ARC
  5
50
330
48
100
AcDbEntity
  8
0
  6
Continuous
 62
     0
370
    30
100
AcDbCircle
 10
374.00284
 20
803.773083
 30
0.0
 40
19.50000000000001
100
AcDbArc
 50
270.0
 51
90.0
  0
ARC
  5
51
330
48
100
AcDbEntity
  8
0
  6
Continuous
 62
     0
370
     0
100
AcDbCircle
 10
374.00284
 20
803.773083
 30
0.0
 40
18.99999999999997
100
AcDbArc
 50
270.0
 51
90.0
  0
ARC
  5
52
330
48
100
AcDbEntity
  8
0
  6
Continuous
 62
     0
370
     0
100
AcDbCircle
 10
374.00284
 20
803.773083
 30
0.0
 40
18.99999999999997
100
AcDbArc
 50
90.0
 51
270.0
  0
LINE
  5
53
330
48
100
AcDbEntity
  8
0
  6
Continuous
 62
     0
370
    30
100
AcDbLine
 10
414.00284
 20
843.773071
 30
0.0
 11
414.00284
 21
763.773071
 31
0.0
  0
LINE
  5
54
330
48
100
AcDbEntity
  8
0
  6
Continuous
 62
     0
370
    30
100
AcDbLine
 10
334.00284
 20
843.773071
 30
0.0
 11
414.00284
 21
843.773071
 31
0.0
  0
LINE
  5
55
330
48
100
AcDbEntity
  8
0
  6
Continuous
 62
     0
370
    30
100
AcDbLine
 10
334.00284
 20
763.773071
 30
0.0
 11
334.00284
 21
843.773071
 31
0.0
  0
LINE
  5
56
330
48
100
AcDbEntity
  8
0
  6
Continuous
 62
     0
370
    30
100
AcDbLine
 10
334.00284
 20
763.773071
 30
0.0
 11
414.00284
 21
763.773071
 31
0.0
  0
ARC
  5
57
330
48
100
AcDbEntity
  8
0
  6
Continuous
 62
     0
370
    30
100
AcDbCircle
 10
368.002843
 20
838.77308
 30
0.0
 40
0.5000027445354476
100
AcDbArc
 50
90.001664
 51
179.999686
  0
ARC
  5
58
330
48
100
AcDbEntity
  8
0
  6
Continuous
 62
     0
370
    30
100
AcDbCircle
 10
380.002837
 20
838.77308
 30
0.0
 40
0.5000027457929002
100
AcDbArc
 50
0.000315
 51
89.998399
  0
LINE
  5
59
330
48
100
AcDbEntity
  8
0
  6
Continuous
 62
     0
370
    30
100
AcDbLine
 10
380.50284
 20
824.796762
 30
0.0
 11
380.50284
 21
838.773083
 31
0.0
  0
LINE
  5
5A
330
48
100
AcDbEntity
  8
0
  6
Continuous
 62
     0
370
    30
100
AcDbLine
 10
367.50284
 20
824.796762
 30
0.0
 11
367.50284
 21
838.773083
 31
0.0
  0
LWPOLYLINE
  5
5B
330
48
100
AcDbEntity
  8
0
  6
Continuous
 62
     0
370
    30
100
AcDbPolyline
 90
        7
 70
     0
 43
0.0
 10
380.502808
 20
824.796997
 10
380.570129
 20
824.06665
 10
380.769501
 20
823.36084
 10
381.094452
 20
822.703369
 10
381.533997
 20
822.116272
 10
382.073395
 20
821.619324
 10
382.715515
 20
821.218445
  0
LWPOLYLINE
  5
5C
330
48
100
AcDbEntity
  8
0
  6
Continuous
 62
     0
370
    30
100
AcDbPolyline
 90
       11
 70
     0
 43
0.0
 10
367.502838
 20
824.796875
 10
367.478119
 20
824.354065
 10
367.404694
 20
823.916504
 10
367.283295
 20
823.489929
 10
367.115295
 20
823.079346
 10
366.902954
 20
822.689941
 10
366.648712
 20
822.326416
 10
366.355865
 20
821.993225
 10
366.027832
 20
821.694641
 10
365.668793
 20
821.434204
 10
365.2901
 20
821.218384
  0
LWPOLYLINE
  5
5D
330
48
100
AcDbEntity
  8
0
  6
Continuous
 62
     0
370
     0
100
AcDbPolyline
 90
       12
 70
     0
 43
0.0
 10
367.502838
 20
724.796875
 10
367.560913
 20
724.843567
 10
367.734497
 20
724.979675
 10
368.02124
 20
725.194702
 10
368.41864
 20
725.473267
 10
368.92334
 20
725.794312
 10
369.531799
 20
726.13562
 10
370.241821
 20
726.474121
 10
371.053253
 20
726.785034
 10
371.960022
 20
727.040039
 10
372.942902
 20
727.210632
 10
374.002838
 20
727.273071
  0
LWPOLYLINE
  5
5E
330
48
100
AcDbEntity
  8
0
  6
Continuous
 62
     0
370
     0
100
AcDbPolyline
 90
       12
 70
     0
 43
0.0
 10
374.002838
 20
727.273071
 10
375.03064
 20
727.214111
 10
376.015625
 20
727.046814
 10
376.925262
 20
726.794128
 10
377.739716
 20
726.484558
 10
378.452972
 20
726.146423
 10
379.064697
 20
725.804871
 10
379.572754
 20
725.482788
 10
379.973572
 20
725.202576
 10
380.263824
 20
724.985413
 10
380.44101
 20
724.846619
 10
380.502808
 20
724.796997
  0
LINE
  5
5F
330
48
100
AcDbEntity
  8
0
  6
Continuous
 62
     0
370
     0
100
AcDbLine
 10
374.00284
 20
738.773083
 30
0.0
 11
367.50284
 21
738.773083
 31
0.0
  0
LINE
  5
60
330
48
100
AcDbEntity
  8
0
  6
Continuous
 62
     0
370
     0
100
AcDbLine
 10
380.50284
 20
738.773083
 30
0.0
 11
374.00284
 21
738.773083
 31
0.0
  0
LINE
  5
61
330
48
100
AcDbEntity
  8
0
  6
Continuous
 62
     0
370
    30
100
AcDbLine
 10
380.00284
 20
739.273083
 30
0.0
 11
374.00284
 21
739.273083
 31
0.0
  0
LINE
  5
62
330
48
100
AcDbEntity
  8
0
  6
Continuous
 62
     0
370
    30
100
AcDbLine
 10
374.00284
 20
739.273083
 30
0.0
 11
368.00284
 21
739.273083
 31
0.0
  0
ARC
  5
63
330
48
100
AcDbEntity
  8
0
  6
Continuous
 62
     0
370
    30
100
AcDbCircle
 10
374.00284
 20
703.773083
 30
0.0
 40
19.50000000000001
100
AcDbArc
 50
90.0
 51
270.0
  0
ARC
  5
64
330
48
100
AcDbEntity
  8
0
  6
Continuous
 62
     0
370
    30
100
AcDbCircle
 10
374.00284
 20
703.773083
 30
0.0
 40
19.50000000000001
100
AcDbArc
 50
270.0
 51
90.0
  0
ARC
  5
65
330
48
100
AcDbEntity
  8
0
  6
Continuous
 62
     0
370
     0
100
AcDbCircle
 10
374.00284
 20
703.773083
 30
0.0
 40
19.0
100
AcDbArc
 50
270.0
 51
90.0
  0
ARC
  5
66
330
48
100
AcDbEntity
  8
0
  6
Continuous
 62
     0
370
     0
100
AcDbCircle
 10
374.00284
 20
703.773083
 30
0.0
 40
19.0
100
AcDbArc
 50
90.0
 51
270.0
  0
LINE
  5
67
330
48
100
AcDbEntity
  8
0
  6
Continuous
 62
     0
370
    30
100
AcDbLine
 10
414.00284
 20
743.773071
 30
0.0
 11
414.00284
 21
663.773071
 31
0.0
  0
LINE
  5
68
330
48
100
AcDbEntity
  8
0
  6
Continuous
 62
     0
370
    30
100
AcDbLine
 10
334.00284
 20
743.773071
 30
0.0
 11
414.00284
 21
743.773071
 31
0.0
  0
LINE
  5
69
330
48
100
AcDbEntity
  8
0
  6
Continuous
 62
     0
370
    30
100
AcDbLine
 10
334.00284
 20
663.773071
 30
0.0
 11
334.00284
 21
743.773071
 31
0.0
  0
LINE
  5
6A
330
48
100
AcDbEntity
  8
0
  6
Continuous
 62
     0
370
    30
100
AcDbLine
 10
334.00284
 20
663.773071
 30
0.0
 11
414.00284
 21
663.773071
 31
0.0
  0
ARC
  5
6B
330
48
100
AcDbEntity
  8
0
  6
Continuous
 62
     0
370
    30
100
AcDbCircle
 10
368.002843
 20
738.77308
 30
0.0
 40
0.5000027445293794
100
AcDbArc
 50
90.001664
 51
179.999686
  0
ARC
  5
6C
330
48
100
AcDbEntity
  8
0
  6
Continuous
 62
     0
370
    30
100
AcDbCircle
 10
380.002837
 20
738.77308
 30
0.0
 40
0.5000027450058695
100
AcDbArc
 50
0.000315
 51
89.998399
  0
LINE
  5
6D
330
48
100
AcDbEntity
  8
0
  6
Continuous
 62
     0
370
    30
100
AcDbLine
 10
380.50284
 20
724.796762
 30
0.0
 11
380.50284
 21
738.773083
 31
0.0
  0
LINE
  5
6E
330
48
100
AcDbEntity
  8
0
  6
Continuous
 62
     0
370
    30
100
AcDbLine
 10
367.50284
 20
724.796762
 30
0.0
 11
367.50284
 21
738.773083
 31
0.0
  0
LWPOLYLINE
  5
6F
330
48
100
AcDbEntity
  8
0
  6
Continuous
 62
     0
370
    30
100
AcDbPolyline
 90
        7
 70
     0
 43
0.0
 10
380.502808
 20
724.796997
 10
380.570129
 20
724.06665
 10
380.769501
 20
723.36084
 10
381.094452
 20
722.703369
 10
381.533997
 20
722.116272
 10
382.073395
 20
721.619324
 10
382.715515
 20
721.218445
  0
LWPOLYLINE
  5
70
330
48
100
AcDbEntity
  8
0
  6
Continuous
 62
     0
370
    30
100
AcDbPolyline
 90
       11
 70
     0
 43
0.0
 10
367.502838
 20
724.796875
 10
367.478119
 20
724.354065
 10
367.404694
 20
723.916504
 10
367.283295
 20
723.489929
 10
367.115295
 20
723.079346
 10
366.902954
 20
722.689941
 10
366.648712
 20
722.326416
 10
366.355865
 20
721.993225
 10
366.027832
 20
721.694641
 10
365.668793
 20
721.434204
 10
365.2901
 20
721.218384
  0
LINE
  5
71
330
48
100
AcDbEntity
  8
0
  6
Continuous
 62
     0
370
    30
100
AcDbLine
 10
370.552828
 20
580.623077
 30
0.0
 11
374.002828
 21
580.623077
 31
0.0
  0
LINE
  5
72
330
48
100
AcDbEntity
  8
0
  6
Continuous
 62
     0
370
    30
100
AcDbLine
 10
374.002828
 20
580.623077
 30
0.0
 11
377.452828
 21
580.623077
 31
0.0
  0
LINE
  5
73
330
48
100
AcDbEntity
  8
0
  6
Continuous
 62
     0
370
    30
100
AcDbLine
 10
377.952828
 20
580.123077
 30
0.0
 11
374.002828
 21
580.123077
 31
0.0
  0
LINE
  5
74
330
48
100
AcDbEntity
  8
0
  6
Continuous
 62
     0
370
    30
100
AcDbLine
 10
374.002828
 20
580.123077
 30
0.0
 11
370.052828
 21
580.123077
 31
0.0
  0
ARC
  5
75
330
48
100
AcDbEntity
  8
0
  6
Continuous
 62
     0
370
    30
100
AcDbCircle
 10
374.002828
 20
554.273079
 30
0.0
 40
19.50000000000128
100
AcDbArc
 50
0.0
 51
180.0
  0
ARC
  5
76
330
48
100
AcDbEntity
  8
0
  6
Continuous
 62
     0
370
    30
100
AcDbCircle
 10
374.002828
 20
554.273079
 30
0.0
 40
19.50000000000128
100
AcDbArc
 50
180.0
 51
0.0
  0
ARC
  5
77
330
48
100
AcDbEntity
  8
0
  6
Continuous
 62
     0
370
     0
100
AcDbCircle
 10
374.002828
 20
554.273079
 30
0.0
 40
19.00000000000128
100
AcDbArc
 50
180.0
 51
0.0
  0
ARC
  5
78
330
48
100
AcDbEntity
  8
0
  6
Continuous
 62
     0
370
     0
100
AcDbCircle
 10
374.002828
 20
554.273079
 30
0.0
 40
19.00000000000128
100
AcDbArc
 50
0.0
 51
180.0
  0
LINE
  5
79
330
48
100
AcDbEntity
  8
0
  6
Continuous
 62
     0
370
    30
100
AcDbLine
 10
424.80284
 20
612.273071
 30
0.0
 11
424.80284
 21
495.273071
 31
0.0
  0
LINE
  5
7A
330
48
100
AcDbEntity
  8
0
  6
Continuous
 62
     0
370
    30
100
AcDbLine
 10
323.20284
 20
612.273071
 30
0.0
 11
424.80284
 21
612.273071
 31
0.0
  0
LINE
  5
7B
330
48
100
AcDbEntity
  8
0
  6
Continuous
 62
     0
370
    30
100
AcDbLine
 10
323.20284
 20
495.273071
 30
0.0
 11
323.20284
 21
612.273071
 31
0.0
  0
LINE
  5
7C
330
48
100
AcDbEntity
  8
0
  6
Continuous
 62
     0
370
    30
100
AcDbLine
 10
323.20284
 20
495.273071
 30
0.0
 11
424.80284
 21
495.273071
 31
0.0
  0
LINE
  5
7D
330
48
100
AcDbEntity
  8
0
  6
Continuous
 62
     0
370
    30
100
AcDbLine
 10
370.052828
 20
580.123077
 30
0.0
 11
370.052828
 21
573.36913
 31
0.0
  0
LINE
  5
7E
330
48
100
AcDbEntity
  8
0
  6
Continuous
 62
     0
370
    30
100
AcDbLine
 10
377.952828
 20
580.123077
 30
0.0
 11
377.952828
 21
573.369213
 31
0.0
  0
LINE
  5
7F
330
48
100
AcDbEntity
  8
0
  6
Continuous
 62
     0
370
    30
100
AcDbLine
 10
370.052828
 20
580.123077
 30
0.0
 11
370.552828
 21
580.623077
 31
0.0
  0
LINE
  5
80
330
48
100
AcDbEntity
  8
0
  6
Continuous
 62
     0
370
    30
100
AcDbLine
 10
377.952828
 20
580.123077
 30
0.0
 11
377.452828
 21
580.623077
 31
0.0
  0
ENDBLK
  5
82
330
48
100
AcDbEntity
  8
0
100
AcDbBlockEnd
  0
BLOCK
  5
A3
330
84
100
AcDbEntity
  8
0
100
AcDbBlockBegin
  2
b
 70
     0
 10
296.672394
 20
220.010529
 30
0.0
  3
b
  1

  0
LWPOLYLINE
  5
85
330
84
100
AcDbEntity
  8
0
  6
Continuous
 62
     0
370
     0
100
AcDbPolyline
 90
       30
 70
     0
 43
0.0
 10
374.002838
 20
236.294678
 10
375.055176
 20
236.217667
 10
376.080627
 20
235.991653
 10
377.056763
 20
235.628036
 10
377.968567
 20
235.143646
 10
378.806976
 20
234.554398
 10
379.567047
 20
233.874832
 10
380.247345
 20
233.117096
 10
380.847473
 20
232.291641
 10
381.366882
 20
231.406387
 10
381.804749
 20
230.468765
 10
382.159393
 20
229.486038
 10
382.428833
 20
228.466187
 10
382.610748
 20
227.418213
 10
382.703247
 20
226.352371
 10
382.705017
 20
225.280258
 10
382.616119
 20
224.213867
 10
382.438049
 20
223.165421
 10
382.172211
 20
222.144363
 10
381.819885
 20
221.157806
 10
381.382843
 20
220.214005
 10
380.86319
 20
219.322159
 10
380.262939
 20
218.491531
 10
379.583893
 20
217.731339
 10
378.826019
 20
217.050385
 10
377.989685
 20
216.45874
 10
377.079285
 20
215.971466
 10
376.104279
 20
215.60498
 10
375.081268
 20
215.375671
 10
374.002838
 20
215.294693
  0
LWPOLYLINE
  5
86
330
84
100
AcDbEntity
  8
0
  6
Continuous
 62
     0
370
     0
100
AcDbPolyline
 90
       30
 70
     0
 43
0.0
 10
374.002838
 20
215.294693
 10
372.95224
 20
215.371323
 10
371.928131
 20
215.596848
 10
370.951569
 20
215.959976
 10
370.039337
 20
216.444336
 10
369.201019
 20
217.033493
 10
368.440948
 20
217.71225
 10
367.759705
 20
218.470459
 10
367.157318
 20
219.299332
 10
366.635468
 20
220.189697
 10
366.196228
 20
221.132294
 10
365.841644
 20
222.117859
 10
365.573456
 20
223.138123
 10
365.393036
 20
224.186005
 10
365.301788
 20
225.252121
 10
365.301178
 20
226.324265
 10
365.391296
 20
227.390442
 10
365.570923
 20
228.439087
 10
365.838135
 20
229.459854
 10
366.190582
 20
230.443649
 10
366.626282
 20
231.382492
 10
367.143616
 20
232.269257
 10
367.741699
 20
233.096466
 10
368.420074
 20
233.856033
 10
369.17807
 20
234.537811
 10
370.014282
 20
235.129868
 10
370.924194
 20
235.617279
 10
371.899078
 20
235.983994
 10
372.923615
 20
236.213608
 10
374.002838
 20
236.294678
  0
ARC
  5
87
330
84
100
AcDbEntity
  8
0
  6
Continuous
 62
     0
370
    30
100
AcDbCircle
 10
374.00284
 20
225.794689
 30
0.0
 40
6.5
100
AcDbArc
 50
90.0
 51
270.0
  0
ARC
  5
88
330
84
100
AcDbEntity
  8
0
  6
Continuous
 62
     0
370
    30
100
AcDbCircle
 10
374.00284
 20
225.794689
 30
0.0
 40
6.5
100
AcDbArc
 50
270.0
 51
90.0
  0
ARC
  5
89
330
84
100
AcDbEntity
  8
0
  6
Continuous
 62
     0
370
     0
100
AcDbCircle
 10
374.00284
 20
225.794689
 30
0.0
 40
6.0
100
AcDbArc
 50
270.0
 51
90.0
  0
ARC
  5
8A
330
84
100
AcDbEntity
  8
0
  6
Continuous
 62
     0
370
     0
100
AcDbCircle
 10
374.00284
 20
225.794689
 30
0.0
 40
6.0
100
AcDbArc
 50
90.0
 51
270.0
  0
LINE
  5
8B
330
84
100
AcDbEntity
  8
0
  6
Continuous
 62
     0
370
     0
100
AcDbLine
 10
354.50284
 20
211.29469
 30
0.0
 11
374.00284
 21
211.29469
 31
0.0
  0
LINE
  5
8C
330
84
100
AcDbEntity
  8
0
  6
Continuous
 62
     0
370
     0
100
AcDbLine
 10
374.00284
 20
211.29469
 30
0.0
 11
393.50284
 21
211.29469
 31
0.0
  0
LINE
  5
8D
330
84
100
AcDbEntity
  8
0
  6
Continuous
 62
     0
370
    30
100
AcDbLine
 10
393.50284
 20
252.79469
 30
0.0
 11
374.00284
 21
252.79469
 31
0.0
  0
LINE
  5
8E
330
84
100
AcDbEntity
  8
0
  6
Continuous
 62
     0
370
    30
100
AcDbLine
 10
374.00284
 20
252.79469
 30
0.0
 11
354.50284
 21
252.79469
 31
0.0
  0
LINE
  5
8F
330
84
100
AcDbEntity
  8
0
  6
Continuous
 62
     0
370
    30
100
AcDbLine
 10
374.00284
 20
210.79469
 30
0.0
 11
393.00284
 21
210.79469
 31
0.0
  0
LINE
  5
90
330
84
100
AcDbEntity
  8
0
  6
Continuous
 62
     0
370
    30
100
AcDbLine
 10
355.00284
 20
210.79469
 30
0.0
 11
374.00284
 21
210.79469
 31
0.0
  0
LINE
  5
91
330
84
100
AcDbEntity
  8
0
  6
Continuous
 62
     0
370
    30
100
AcDbLine
 10
414.00284
 20
268.594688
 30
0.0
 11
414.00284
 21
253.594688
 31
0.0
  0
LINE
  5
92
330
84
100
AcDbEntity
  8
0
  6
Continuous
 62
     0
370
    30
100
AcDbLine
 10
414.00284
 20
268.594688
 30
0.0
 11
334.00284
 21
268.594688
 31
0.0
  0
LINE
  5
93
330
84
100
AcDbEntity
  8
0
  6
Continuous
 62
     0
370
    30
100
AcDbLine
 10
334.00284
 20
268.594688
 30
0.0
 11
334.00284
 21
253.594688
 31
0.0
  0
LINE
  5
94
330
84
100
AcDbEntity
  8
0
  6
Continuous
 62
     0
370
    30
100
AcDbLine
 10
334.00284
 20
253.594688
 30
0.0
 11
414.00284
 21
253.594688
 31
0.0
  0
LINE
  5
95
330
84
100
AcDbEntity
  8
0
  6
Continuous
 62
     0
370
    30
100
AcDbLine
 10
380.50284
 20
253.59469
 30
0.0
 11
380.50284
 21
252.79469
 31
0.0
  0
LINE
  5
96
330
84
100
AcDbEntity
  8
0
  6
Continuous
 62
     0
370
    30
100
AcDbLine
 10
367.50284
 20
253.59469
 30
0.0
 11
367.50284
 21
252.79469
 31
0.0
  0
ARC
  5
97
330
84
100
AcDbEntity
  8
0
  6
Continuous
 62
     0
370
    30
100
AcDbCircle
 10
355.002843
 20
211.294693
 30
0.0
 40
0.5000027564769742
100
AcDbArc
 50
180.000316
 51
269.995496
  0
ARC
  5
98
330
84
100
AcDbEntity
  8
0
  6
Continuous
 62
     0
370
    30
100
AcDbCircle
 10
393.002837
 20
211.294693
 30
0.0
 40
0.5000027565167647
100
AcDbArc
 50
270.004504
 51
359.999684
  0
LINE
  5
99
330
84
100
AcDbEntity
  8
0
  6
Continuous
 62
     0
370
    30
100
AcDbLine
 10
393.50284
 20
252.79469
 30
0.0
 11
393.50284
 21
211.29469
 31
0.0
  0
LINE
  5
9A
330
84
100
AcDbEntity
  8
0
  6
Continuous
 62
     0
370
    30
100
AcDbLine
 10
354.50284
 20
252.79469
 30
0.0
 11
354.50284
 21
211.29469
 31
0.0
  0
LINE
  5
9B
330
84
100
AcDbEntity
  8
0
  6
Continuous
 62
     0
370
    30
100
AcDbLine
 10
424.80284
 20
268.594698
 30
0.0
 11
424.80284
 21
253.594698
 31
0.0
  0
LINE
  5
9C
330
84
100
AcDbEntity
  8
0
  6
Continuous
 62
     0
370
    30
100
AcDbLine
 10
334.00284
 20
268.594698
 30
0.0
 11
323.20284
 21
268.594698
 31
0.0
  0
LINE
  5
9D
330
84
100
AcDbEntity
  8
0
  6
Continuous
 62
     0
370
    30
100
AcDbLine
 10
424.80284
 20
268.594698
 30
0.0
 11
414.00284
 21
268.594698
 31
0.0
  0
LINE
  5
9E
330
84
100
AcDbEntity
  8
0
  6
Continuous
 62
     0
370
    30
100
AcDbLine
 10
323.20284
 20
268.594698
 30
0.0
 11
323.20284
 21
253.594698
 31
0.0
  0
LINE
  5
9F
330
84
100
AcDbEntity
  8
0
  6
Continuous
 62
     0
370
    30
100
AcDbLine
 10
414.00284
 20
253.594698
 30
0.0
 11
424.80284
 21
253.594698
 31
0.0
  0
LINE
  5
A0
330
84
100
AcDbEntity
  8
0
  6
Continuous
 62
     0
370
    30
100
AcDbLine
 10
323.20284
 20
253.594698
 30
0.0
 11
334.00284
 21
253.594698
 31
0.0
  0
LINE
  5
A1
330
84
100
AcDbEntity
  8
0
  6
Continuous
 62
     0
370
    30
100
AcDbLine
 10
355.00284
 20
253.594701
 30
0.0
 11
355.00284
 21
252.794701
 31
0.0
  0
LINE
  5
A2
330
84
100
AcDbEntity
  8
0
  6
Continuous
 62
     0
370
    30
100
AcDbLine
 10
393.00284
 20
253.594701
 30
0.0
 11
393.00284
 21
252.794701
 31
0.0
  0
ENDBLK
  5
A4
330
84
100
AcDbEntity
  8
0
100
AcDbBlockEnd
  0
BLOCK
  5
F6
330
A6
100
AcDbEntity
  8
0
100
AcDbBlockBegin
  2
c
 70
     0
 10
344.083405
 20
181.477585
 30
0.0
  3
c
  1

  0
ARC
  5
A7
330
A6
100
AcDbEntity
  8
0
  6
Continuous
 62
     0
370
    30
100
AcDbCircle
 10
610.58839
 20
827.273052
 30
0.0
 40
4.000000000011553
100
AcDbArc
 50
180.0
 51
270.0
  0
LWPOLYLINE
  5
A8
330
A6
100
AcDbEntity
  8
0
  6
Continuous
 62
     0
370
     0
100
AcDbPolyline
 90
       26
 70
     0
 43
0.0
 10
593.588379
 20
827.273071
 10
593.652405
 20
827.22699
 10
593.839172
 20
827.094849
 10
594.136169
 20
826.891296
 10
594.527527
 20
826.635498
 10
594.998291
 20
826.347534
 10
595.53595
 20
826.045898
 10
596.130554
 20
825.747498
 10
596.77417
 20
825.467834
 10
597.459595
 20
825.221436
 10
598.179871
 20
825.021729
 10
598.926636
 20
824.880432
 10
599.69043
 20
824.806763
 10
600.460205
 20
824.805542
 10
601.224426
 20
824.876831
 10
601.971497
 20
825.015686
 10
602.69342
 20
825.213928
 10
603.382874
 20
825.460571
 10
604.03125
 20
825.740906
 10
604.629456
 20
826.039795
 10
605.168701
 20
826.341736
 10
605.640503
 20
826.630005
 10
606.033691
 20
826.886597
 10
606.332764
 20
827.091431
 10
606.521851
 20
827.22522
 10
606.588379
 20
827.273071
  0
LWPOLYLINE
  5
A9
330
A6
100
AcDbEntity
  8
0
  6
Continuous
 62
     0
370
     0
100
AcDbPolyline
 90
       30
 70
     0
 43
0.0
 10
610.588379
 20
823.273071
 10
610.511597
 20
823.244629
 10
610.285706
 20
823.162109
 10
609.921997
 20
823.032166
 10
609.43689
 20
822.865112
 10
608.846863
 20
822.671509
 10
608.167114
 20
822.461853
 10
607.407837
 20
822.245422
 10
606.57782
 20
822.030945
 10
605.686218
 20
821.826721
 10
604.742432
 20
821.64093
 10
603.755676
 20
821.481689
 10
602.734253
 20
821.355896
 10
601.685181
 20
821.268677
 10
600.618042
 20
821.223938
 10
599.544922
 20
821.224182
 10
598.478027
 20
821.26947
 10
597.428772
 20
821.357422
 10
596.407654
 20
821.483704
 10
595.423645
 20
821.642578
 10
594.484802
 20
821.827393
 10
593.598267
 20
822.030701
 10
592.771545
 20
822.244629
 10
592.012695
 20
822.46106
 10
591.332031
 20
822.670959
 10
590.741516
 20
822.864685
 10
590.256165
 20
823.03186
 10
589.89209
 20
823.161743
 10
589.66571
 20
823.244385
 10
589.588379
 20
823.273071
  0
LINE
  5
AA
330
A6
100
AcDbEntity
  8
0
  6
Continuous
 62
     0
370
    30
100
AcDbLine
 10
606.58839
 20
827.273052
 30
0.0
 11
606.58839
 21
838.773052
 31
0.0
  0
LINE
  5
AB
330
A6
100
AcDbEntity
  8
0
  6
Continuous
 62
     0
370
     0
100
AcDbLine
 10
606.58839
 20
838.773052
 30
0.0
 11
593.58839
 21
838.773052
 31
0.0
  0
LWPOLYLINE
  5
AC
330
A6
100
AcDbEntity
  8
0
  6
Continuous
 62
     0
370
    30
100
AcDbPolyline
 90
       21
 70
     0
 43
0.0
 10
606.088379
 20
839.273071
 10
606.025208
 20
839.273071
 10
605.82428
 20
839.273071
 10
605.474304
 20
839.273071
 10
604.974365
 20
839.273071
 10
604.335632
 20
839.273071
 10
603.58136
 20
839.273071
 10
602.743896
 20
839.273071
 10
601.860596
 20
839.273071
 10
600.968323
 20
839.273071
 10
600.099487
 20
839.273071
 10
599.231567
 20
839.273071
 10
598.339539
 20
839.273071
 10
597.455505
 20
839.273071
 10
596.616455
 20
839.273071
 10
595.859558
 20
839.273071
 10
595.217468
 20
839.273071
 10
594.713623
 20
839.273071
 10
594.359741
 20
839.273071
 10
594.154968
 20
839.273071
 10
594.088379
 20
839.273071
  0
LINE
  5
AD
330
A6
100
AcDbEntity
  8
0
  6
Continuous
 62
     0
370
    30
100
AcDbLine
 10
573.08839
 20
784.273052
 30
0.0
 11
598.18839
 21
784.273052
 31
0.0
  0
LWPOLYLINE
  5
AE
330
A6
100
AcDbEntity
  8
0
  6
Continuous
 62
     0
370
    30
100
AcDbPolyline
 90
       22
 70
     0
 43
0.0
 10
598.188416
 20
784.273071
 10
598.24585
 20
784.287903
 10
598.415833
 20
784.331116
 10
598.692932
 20
784.398926
 10
599.072571
 20
784.485413
 10
599.544922
 20
784.58313
 10
600.101379
 20
784.683777
 10
600.729675
 20
784.778625
 10
601.416077
 20
784.858826
 10
602.14563
 20
784.917053
 10
602.9021
 20
784.947754
 10
603.66803
 20
784.947876
 10
604.424683
 20
784.91748
 10
605.154541
 20
784.859436
 10
605.84137
 20
784.779419
 10
606.470215
 20
784.684631
 10
607.027344
 20
784.583984
 10
607.500549
 20
784.486206
 10
607.88092
 20
784.399597
 10
608.158997
 20
784.331604
 10
608.329834
 20
784.288147
 10
608.388367
 20
784.273071
  0
LINE
  5
AF
330
A6
100
AcDbEntity
  8
0
  6
Continuous
 62
     0
370
    30
100
AcDbLine
 10
608.38839
 20
784.273052
 30
0.0
 11
614.58839
 21
784.273052
 31
0.0
  0
LINE
  5
B0
330
A6
100
AcDbEntity
  8
0
  6
Continuous
 62
     0
370
     0
100
AcDbLine
 10
614.58839
 20
784.273052
 30
0.0
 11
614.58839
 21
823.273052
 31
0.0
  0
LINE
  5
B1
330
A6
100
AcDbEntity
  8
0
  6
Continuous
 62
     0
370
    30
100
AcDbLine
 10
573.08839
 20
823.273052
 30
0.0
 11
573.08839
 21
784.273052
 31
0.0
  0
LINE
  5
B2
330
A6
100
AcDbEntity
  8
0
  6
Continuous
 62
     0
370
    30
100
AcDbLine
 10
615.08839
 20
784.773052
 30
0.0
 11
615.08839
 21
822.773052
 31
0.0
  0
ARC
  5
B3
330
A6
100
AcDbEntity
  8
0
  6
Continuous
 62
     0
370
    30
100
AcDbCircle
 10
614.58839
 20
784.773052
 30
0.0
 40
0.4999999999827409
100
AcDbArc
 50
270.0
 51
0.0
  0
ARC
  5
B4
330
A6
100
AcDbEntity
  8
0
  6
Continuous
 62
     0
370
    30
100
AcDbCircle
 10
606.08839
 20
838.773052
 30
0.0
 40
0.5000000000935751
100
AcDbArc
 50
0.0
 51
89.999919
  0
LINE
  5
B5
330
A6
100
AcDbEntity
  8
0
  6
Continuous
 62
     0
370
    30
100
AcDbLine
 10
557.288393
 20
843.773041
 30
0.0
 11
572.288393
 21
843.773041
 31
0.0
  0
LINE
  5
B6
330
A6
100
AcDbEntity
  8
0
  6
Continuous
 62
     0
370
    30
100
AcDbLine
 10
557.288393
 20
843.773041
 30
0.0
 11
557.288393
 21
763.773041
 31
0.0
  0
LINE
  5
B7
330
A6
100
AcDbEntity
  8
0
  6
Continuous
 62
     0
370
    30
100
AcDbLine
 10
557.288393
 20
763.773041
 30
0.0
 11
572.288393
 21
763.773041
 31
0.0
  0
LINE
  5
B8
330
A6
100
AcDbEntity
  8
0
  6
Continuous
 62
     0
370
    30
100
AcDbLine
 10
572.288393
 20
763.773041
 30
0.0
 11
572.288393
 21
843.773041
 31
0.0
  0
LINE
  5
B9
330
A6
100
AcDbEntity
  8
0
  6
Continuous
 62
     0
370
    30
100
AcDbLine
 10
572.288391
 20
797.273041
 30
0.0
 11
573.08839
 21
797.273041
 31
0.0
  0
LINE
  5
BA
330
A6
100
AcDbEntity
  8
0
  6
Continuous
 62
     0
370
    30
100
AcDbLine
 10
572.288391
 20
810.273041
 30
0.0
 11
573.08839
 21
810.273041
 31
0.0
  0
ARC
  5
BB
330
A6
100
AcDbEntity
  8
0
  6
Continuous
 62
     0
370
    30
100
AcDbCircle
 10
594.088394
 20
838.773049
 30
0.0
 40
0.5000034422680784
100
AcDbArc
 50
90.000394
 51
179.999606
  0
ARC
  5
BC
330
A6
100
AcDbEntity
  8
0
  6
Continuous
 62
     0
370
    30
100
AcDbCircle
 10
614.588388
 20
822.77305
 30
0.0
 40
0.5000026981536831
100
AcDbArc
 50
0.000309
 51
89.999691
  0
LINE
  5
BD
330
A6
100
AcDbEntity
  8
0
  6
Continuous
 62
     0
370
    30
100
AcDbLine
 10
573.08839
 20
823.273052
 30
0.0
 11
589.588397
 21
823.273052
 31
0.0
  0
LINE
  5
BE
330
A6
100
AcDbEntity
  8
0
  6
Continuous
 62
     0
370
    30
100
AcDbLine
 10
610.58839
 20
823.273052
 30
0.0
 11
614.58839
 21
823.273052
 31
0.0
  0
LINE
  5
BF
330
A6
100
AcDbEntity
  8
0
  6
Continuous
 62
     0
370
    30
100
AcDbLine
 10
593.58839
 20
827.273052
 30
0.0
 11
593.58839
 21
838.773052
 31
0.0
  0
ARC
  5
C0
330
A6
100
AcDbEntity
  8
0
  6
Continuous
 62
     0
370
    30
100
AcDbCircle
 10
589.588372
 20
827.273064
 30
0.0
 40
4.000019079336832
100
AcDbArc
 50
270.000357
 51
359.999829
  0
ARC
  5
C1
330
A6
100
AcDbEntity
  8
0
  6
Continuous
 62
     0
370
    30
100
AcDbCircle
 10
610.58839
 20
727.273052
 30
0.0
 40
4.000000000003169
100
AcDbArc
 50
180.0
 51
270.0
  0
LWPOLYLINE
  5
C2
330
A6
100
AcDbEntity
  8
0
  6
Continuous
 62
     0
370
     0
100
AcDbPolyline
 90
       26
 70
     0
 43
0.0
 10
593.588379
 20
727.273071
 10
593.652405
 20
727.22699
 10
593.839172
 20
727.094849
 10
594.136169
 20
726.891296
 10
594.527527
 20
726.635498
 10
594.998291
 20
726.347534
 10
595.53595
 20
726.045898
 10
596.130554
 20
725.747498
 10
596.77417
 20
725.467834
 10
597.459595
 20
725.221436
 10
598.179871
 20
725.021729
 10
598.926636
 20
724.880432
 10
599.69043
 20
724.806763
 10
600.460205
 20
724.805542
 10
601.224426
 20
724.876831
 10
601.971497
 20
725.015686
 10
602.69342
 20
725.213928
 10
603.382874
 20
725.460571
 10
604.03125
 20
725.740906
 10
604.629456
 20
726.039795
 10
605.168701
 20
726.341736
 10
605.640503
 20
726.630005
 10
606.033691
 20
726.886597
 10
606.332764
 20
727.091431
 10
606.521851
 20
727.22522
 10
606.588379
 20
727.273071
  0
LWPOLYLINE
  5
C3
330
A6
100
AcDbEntity
  8
0
  6
Continuous
 62
     0
370
     0
100
AcDbPolyline
 90
       30
 70
     0
 43
0.0
 10
610.588379
 20
723.273071
 10
610.511597
 20
723.244629
 10
610.285706
 20
723.162109
 10
609.921997
 20
723.032166
 10
609.43689
 20
722.865112
 10
608.846863
 20
722.671509
 10
608.167114
 20
722.461853
 10
607.407837
 20
722.245422
 10
606.57782
 20
722.030945
 10
605.686218
 20
721.826721
 10
604.742432
 20
721.64093
 10
603.755676
 20
721.481689
 10
602.734253
 20
721.355896
 10
601.685181
 20
721.268677
 10
600.618042
 20
721.223938
 10
599.544922
 20
721.224182
 10
598.478027
 20
721.26947
 10
597.428772
 20
721.357422
 10
596.407654
 20
721.483704
 10
595.423645
 20
721.642578
 10
594.484802
 20
721.827393
 10
593.598267
 20
722.030701
 10
592.771545
 20
722.244629
 10
592.012695
 20
722.46106
 10
591.332031
 20
722.670959
 10
590.741516
 20
722.864685
 10
590.256165
 20
723.03186
 10
589.89209
 20
723.161743
 10
589.66571
 20
723.244385
 10
589.588379
 20
723.273071
  0
LINE
  5
C4
330
A6
100
AcDbEntity
  8
0
  6
Continuous
 62
     0
370
    30
100
AcDbLine
 10
606.58839
 20
727.273052
 30
0.0
 11
606.58839
 21
738.773052
 31
0.0
  0
LINE
  5
C5
330
A6
100
AcDbEntity
  8
0
  6
Continuous
 62
     0
370
     0
100
AcDbLine
 10
606.58839
 20
738.773052
 30
0.0
 11
593.58839
 21
738.773052
 31
0.0
  0
LWPOLYLINE
  5
C6
330
A6
100
AcDbEntity
  8
0
  6
Continuous
 62
     0
370
    30
100
AcDbPolyline
 90
       21
 70
     0
 43
0.0
 10
606.088379
 20
739.273071
 10
606.025208
 20
739.273071
 10
605.82428
 20
739.273071
 10
605.474304
 20
739.273071
 10
604.974365
 20
739.273071
 10
604.335632
 20
739.273071
 10
603.58136
 20
739.273071
 10
602.743896
 20
739.273071
 10
601.860596
 20
739.273071
 10
600.968323
 20
739.273071
 10
600.099487
 20
739.273071
 10
599.231567
 20
739.273071
 10
598.339539
 20
739.273071
 10
597.455505
 20
739.273071
 10
596.616455
 20
739.273071
 10
595.859558
 20
739.273071
 10
595.217468
 20
739.273071
 10
594.713623
 20
739.273071
 10
594.359741
 20
739.273071
 10
594.154968
 20
739.273071
 10
594.088379
 20
739.273071
  0
LINE
  5
C7
330
A6
100
AcDbEntity
  8
0
  6
Continuous
 62
     0
370
    30
100
AcDbLine
 10
573.08839
 20
684.273052
 30
0.0
 11
598.18839
 21
684.273052
 31
0.0
  0
LWPOLYLINE
  5
C8
330
A6
100
AcDbEntity
  8
0
  6
Continuous
 62
     0
370
    30
100
AcDbPolyline
 90
       22
 70
     0
 43
0.0
 10
598.188416
 20
684.273071
 10
598.24585
 20
684.287903
 10
598.415833
 20
684.331116
 10
598.692932
 20
684.398926
 10
599.072571
 20
684.485413
 10
599.544922
 20
684.58313
 10
600.101379
 20
684.683777
 10
600.729675
 20
684.778625
 10
601.416077
 20
684.858826
 10
602.14563
 20
684.917053
 10
602.9021
 20
684.947754
 10
603.66803
 20
684.947876
 10
604.424683
 20
684.91748
 10
605.154541
 20
684.859436
 10
605.84137
 20
684.779419
 10
606.470215
 20
684.684631
 10
607.027344
 20
684.583984
 10
607.500549
 20
684.486206
 10
607.88092
 20
684.399597
 10
608.158997
 20
684.331604
 10
608.329834
 20
684.288147
 10
608.388367
 20
684.273071
  0
LINE
  5
C9
330
A6
100
AcDbEntity
  8
0
  6
Continuous
 62
     0
370
    30
100
AcDbLine
 10
608.38839
 20
684.273052
 30
0.0
 11
614.58839
 21
684.273052
 31
0.0
  0
LINE
  5
CA
330
A6
100
AcDbEntity
  8
0
  6
Continuous
 62
     0
370
     0
100
AcDbLine
 10
614.58839
 20
684.273052
 30
0.0
 11
614.58839
 21
723.273052
 31
0.0
  0
LINE
  5
CB
330
A6
100
AcDbEntity
  8
0
  6
Continuous
 62
     0
370
    30
100
AcDbLine
 10
573.08839
 20
723.273052
 30
0.0
 11
573.08839
 21
684.273052
 31
0.0
  0
LINE
  5
CC
330
A6
100
AcDbEntity
  8
0
  6
Continuous
 62
     0
370
    30
100
AcDbLine
 10
615.08839
 20
684.773052
 30
0.0
 11
615.08839
 21
722.773052
 31
0.0
  0
ARC
  5
CD
330
A6
100
AcDbEntity
  8
0
  6
Continuous
 62
     0
370
    30
100
AcDbCircle
 10
614.58839
 20
684.773052
 30
0.0
 40
0.4999999999506901
100
AcDbArc
 50
270.0
 51
0.0
  0
ARC
  5
CE
330
A6
100
AcDbEntity
  8
0
  6
Continuous
 62
     0
370
    30
100
AcDbCircle
 10
606.08839
 20
738.773052
 30
0.0
 40
0.500000000022869
100
AcDbArc
 50
0.0
 51
89.999919
  0
LINE
  5
CF
330
A6
100
AcDbEntity
  8
0
  6
Continuous
 62
     0
370
    30
100
AcDbLine
 10
557.288393
 20
743.773041
 30
0.0
 11
572.288393
 21
743.773041
 31
0.0
  0
LINE
  5
D0
330
A6
100
AcDbEntity
  8
0
  6
Continuous
 62
     0
370
    30
100
AcDbLine
 10
557.288393
 20
743.773041
 30
0.0
 11
557.288393
 21
663.773041
 31
0.0
  0
LINE
  5
D1
330
A6
100
AcDbEntity
  8
0
  6
Continuous
 62
     0
370
    30
100
AcDbLine
 10
557.288393
 20
663.773041
 30
0.0
 11
572.288393
 21
663.773041
 31
0.0
  0
LINE
  5
D2
330
A6
100
AcDbEntity
  8
0
  6
Continuous
 62
     0
370
    30
100
AcDbLine
 10
572.288393
 20
663.773041
 30
0.0
 11
572.288393
 21
743.773041
 31
0.0
  0
LINE
  5
D3
330
A6
100
AcDbEntity
  8
0
  6
Continuous
 62
     0
370
    30
100
AcDbLine
 10
572.288391
 20
697.273041
 30
0.0
 11
573.08839
 21
697.273041
 31
0.0
  0
LINE
  5
D4
330
A6
100
AcDbEntity
  8
0
  6
Continuous
 62
     0
370
    30
100
AcDbLine
 10
572.288391
 20
710.273041
 30
0.0
 11
573.08839
 21
710.273041
 31
0.0
  0
ARC
  5
D5
330
A6
100
AcDbEntity
  8
0
  6
Continuous
 62
     0
370
    30
100
AcDbCircle
 10
594.088394
 20
738.773049
 30
0.0
 40
0.5000034423449313
100
AcDbArc
 50
90.000394
 51
179.999606
  0
ARC
  5
D6
330
A6
100
AcDbEntity
  8
0
  6
Continuous
 62
     0
370
    30
100
AcDbCircle
 10
614.588388
 20
722.77305
 30
0.0
 40
0.5000026981052275
100
AcDbArc
 50
0.000309
 51
89.999691
  0
LINE
  5
D7
330
A6
100
AcDbEntity
  8
0
  6
Continuous
 62
     0
370
    30
100
AcDbLine
 10
573.08839
 20
723.273052
 30
0.0
 11
589.588397
 21
723.273052
 31
0.0
  0
LINE
  5
D8
330
A6
100
AcDbEntity
  8
0
  6
Continuous
 62
     0
370
    30
100
AcDbLine
 10
610.58839
 20
723.273052
 30
0.0
 11
614.58839
 21
723.273052
 31
0.0
  0
LINE
  5
D9
330
A6
100
AcDbEntity
  8
0
  6
Continuous
 62
     0
370
    30
100
AcDbLine
 10
593.58839
 20
727.273052
 30
0.0
 11
593.58839
 21
738.773052
 31
0.0
  0
ARC
  5
DA
330
A6
100
AcDbEntity
  8
0
  6
Continuous
 62
     0
370
    30
100
AcDbCircle
 10
589.588372
 20
727.273064
 30
0.0
 40
4.00001907933356
100
AcDbArc
 50
270.000357
 51
359.999829
  0
LINE
  5
DB
330
A6
100
AcDbEntity
  8
0
  6
Continuous
 62
     0
370
    30
100
AcDbLine
 10
574.038375
 20
573.773048
 30
0.0
 11
574.038375
 21
554.273048
 31
0.0
  0
LINE
  5
DC
330
A6
100
AcDbEntity
  8
0
  6
Continuous
 62
     0
370
    30
100
AcDbLine
 10
574.038375
 20
554.273048
 30
0.0
 11
574.038375
 21
534.773048
 31
0.0
  0
LINE
  5
DD
330
A6
100
AcDbEntity
  8
0
  6
Continuous
 62
     0
370
    30
100
AcDbLine
 10
606.988363
 20
580.123047
 30
0.0
 11
606.488363
 21
580.623047
 31
0.0
  0
LINE
  5
DE
330
A6
100
AcDbEntity
  8
0
  6
Continuous
 62
     0
370
    30
100
AcDbLine
 10
599.588363
 20
580.623047
 30
0.0
 11
606.488363
 21
580.623047
 31
0.0
  0
LWPOLYLINE
  5
DF
330
A6
100
AcDbEntity
  8
0
  6
Continuous
 62
     0
370
    30
100
AcDbPolyline
 90
       17
 70
     0
 43
0.0
 10
606.988342
 20
580.123047
 10
606.922485
 20
580.123047
 10
606.711426
 20
580.123047
 10
606.345398
 20
580.123047
 10
605.833069
 20
580.123047
 10
605.202209
 20
580.123047
 10
604.495361
 20
580.123047
 10
603.760681
 20
580.123047
 10
603.042236
 20
580.123047
 10
602.324219
 20
580.123047
 10
601.589478
 20
580.123047
 10
600.88208
 20
580.123047
 10
600.250122
 20
580.123047
 10
599.736267
 20
580.123047
 10
599.36853
 20
580.123047
 10
599.155701
 20
580.123047
 10
599.088379
 20
580.123047
  0
LWPOLYLINE
  5
E0
330
A6
100
AcDbEntity
  8
0
  6
Continuous
 62
     0
370
    30
100
AcDbPolyline
 90
       17
 70
     0
 43
0.0
 10
599.088379
 20
573.772827
 10
599.165039
 20
573.757202
 10
599.389709
 20
573.713989
 10
599.754028
 20
573.648987
 10
600.243286
 20
573.572083
 10
600.839355
 20
573.495117
 10
601.520447
 20
573.42926
 10
602.260681
 20
573.384766
 10
603.032471
 20
573.369385
 10
603.804443
 20
573.384277
 10
604.545471
 20
573.428406
 10
605.227661
 20
573.494141
 10
605.824951
 20
573.571045
 10
606.315857
 20
573.64801
 10
606.682739
 20
573.713318
 10
606.910278
 20
573.75708
 10
606.988342
 20
573.773071
  0
LINE
  5
E1
330
A6
100
AcDbEntity
  8
0
  6
Continuous
 62
     0
370
    30
100
AcDbLine
 10
606.988363
 20
573.773048
 30
0.0
 11
606.988363
 21
580.123047
 31
0.0
  0
LINE
  5
E2
330
A6
100
AcDbEntity
  8
0
  6
Continuous
 62
     0
370
     0
100
AcDbLine
 10
613.538375
 20
554.273048
 30
0.0
 11
613.538375
 21
573.773048
 31
0.0
  0
LINE
  5
E3
330
A6
100
AcDbEntity
  8
0
  6
Continuous
 62
     0
370
     0
100
AcDbLine
 10
613.538375
 20
534.773048
 30
0.0
 11
613.538375
 21
554.273048
 31
0.0
  0
LINE
  5
E4
330
A6
100
AcDbEntity
  8
0
  6
Continuous
 62
     0
370
    30
100
AcDbLine
 10
614.038375
 20
535.273048
 30
0.0
 11
614.038375
 21
554.273048
 31
0.0
  0
LINE
  5
E5
330
A6
100
AcDbEntity
  8
0
  6
Continuous
 62
     0
370
    30
100
AcDbLine
 10
614.038375
 20
554.273048
 30
0.0
 11
614.038375
 21
573.273048
 31
0.0
  0
LINE
  5
E6
330
A6
100
AcDbEntity
  8
0
  6
Continuous
 62
     0
370
    30
100
AcDbLine
 10
557.288393
 20
612.273041
 30
0.0
 11
572.288393
 21
612.273041
 31
0.0
  0
LINE
  5
E7
330
A6
100
AcDbEntity
  8
0
  6
Continuous
 62
     0
370
    30
100
AcDbLine
 10
557.288393
 20
612.273041
 30
0.0
 11
557.288393
 21
495.273041
 31
0.0
  0
LINE
  5
E8
330
A6
100
AcDbEntity
  8
0
  6
Continuous
 62
     0
370
    30
100
AcDbLine
 10
557.288393
 20
495.273041
 30
0.0
 11
572.288393
 21
495.273041
 31
0.0
  0
LINE
  5
E9
330
A6
100
AcDbEntity
  8
0
  6
Continuous
 62
     0
370
    30
100
AcDbLine
 10
572.288393
 20
495.273041
 30
0.0
 11
572.288393
 21
612.273041
 31
0.0
  0
LINE
  5
EA
330
A6
100
AcDbEntity
  8
0
  6
Continuous
 62
     0
370
    30
100
AcDbLine
 10
573.288391
 20
573.273041
 30
0.0
 11
573.288391
 21
535.273041
 31
0.0
  0
LINE
  5
EB
330
A6
100
AcDbEntity
  8
0
  6
Continuous
 62
     0
370
    30
100
AcDbLine
 10
572.288391
 20
573.273041
 30
0.0
 11
573.288391
 21
573.273041
 31
0.0
  0
LINE
  5
EC
330
A6
100
AcDbEntity
  8
0
  6
Continuous
 62
     0
370
    30
100
AcDbLine
 10
573.288391
 20
549.273041
 30
0.0
 11
574.038375
 21
549.273041
 31
0.0
  0
LINE
  5
ED
330
A6
100
AcDbEntity
  8
0
  6
Continuous
 62
     0
370
    30
100
AcDbLine
 10
573.288391
 20
559.273041
 30
0.0
 11
574.038375
 21
559.273041
 31
0.0
  0
LINE
  5
EE
330
A6
100
AcDbEntity
  8
0
  6
Continuous
 62
     0
370
    30
100
AcDbLine
 10
572.288391
 20
535.273041
 30
0.0
 11
573.288391
 21
535.273041
 31
0.0
  0
ARC
  5
EF
330
A6
100
AcDbEntity
  8
0
  6
Continuous
 62
     0
370
    30
100
AcDbCircle
 10
613.538373
 20
535.273051
 30
0.0
 40
0.5000027559451373
100
AcDbArc
 50
270.000316
 51
359.995487
  0
ARC
  5
F0
330
A6
100
AcDbEntity
  8
0
  6
Continuous
 62
     0
370
    30
100
AcDbCircle
 10
613.538373
 20
573.273045
 30
0.0
 40
0.5000027560088539
100
AcDbArc
 50
0.004513
 51
89.999684
  0
LINE
  5
F1
330
A6
100
AcDbEntity
  8
0
  6
Continuous
 62
     0
370
    30
100
AcDbLine
 10
574.038375
 20
534.773048
 30
0.0
 11
613.538375
 21
534.773048
 31
0.0
  0
LINE
  5
F2
330
A6
100
AcDbEntity
  8
0
  6
Continuous
 62
     0
370
    30
100
AcDbLine
 10
574.038375
 20
573.773048
 30
0.0
 11
599.088363
 21
573.773048
 31
0.0
  0
LINE
  5
F3
330
A6
100
AcDbEntity
  8
0
  6
Continuous
 62
     0
370
    30
100
AcDbLine
 10
606.988363
 20
573.773048
 30
0.0
 11
613.538375
 21
573.773048
 31
0.0
  0
LINE
  5
F4
330
A6
100
AcDbEntity
  8
0
  6
Continuous
 62
     0
370
    30
100
AcDbLine
 10
599.088363
 20
580.123047
 30
0.0
 11
599.088363
 21
573.7728
 31
0.0
  0
LINE
  5
F5
330
A6
100
AcDbEntity
  8
0
  6
Continuous
 62
     0
370
    30
100
AcDbLine
 10
599.088363
 20
580.123047
 30
0.0
 11
599.588363
 21
580.623047
 31
0.0
  0
ENDBLK
  5
F7
330
A6
100
AcDbEntity
  8
0
100
AcDbBlockEnd
  0
BLOCK
  5
15A
330
F9
100
AcDbEntity
  8
0
100
AcDbBlockBegin
  2
d
 70
     0
 10
164.321442
 20
168.666428
 30
0.0
  3
d
  1

  0
LWPOLYLINE
  5
FA
330
F9
100
AcDbEntity
  8
0
  6
Continuous
 62
     0
370
     0
100
AcDbPolyline
 90
        7
 70
     0
 43
0.0
 10
566.579712
 20
349.3862
 10
566.623596
 20
349.046051
 10
566.763
 20
348.691437
 10
567.003845
 20
348.316681
 10
567.351746
 20
347.919067
 10
567.806396
 20
347.500763
 10
568.483521
 20
346.980652
  0
LWPOLYLINE
  5
FB
330
F9
100
AcDbEntity
  8
0
  6
Continuous
 62
     0
370
     0
100
AcDbPolyline
 90
       18
 70
     0
 43
0.0
 10
568.483521
 20
346.980652
 10
569.258728
 20
346.471771
 10
570.112427
 20
345.984924
 10
571.009216
 20
345.542023
 10
571.919373
 20
345.161255
 10
572.824402
 20
344.855164
 10
573.714905
 20
344.634613
 10
574.58075
 20
344.510223
 10
575.410645
 20
344.492584
 10
576.193542
 20
344.591858
 10
576.920471
 20
344.815094
 10
577.581116
 20
345.164978
 10
578.162476
 20
345.638428
 10
578.653931
 20
346.22464
 10
579.04718
 20
346.90802
 10
579.33606
 20
347.669708
 10
579.515381
 20
348.490082
 10
579.579712
 20
349.381409
  0
LWPOLYLINE
  5
FC
330
F9
100
AcDbEntity
  8
0
  6
Continuous
 62
     0
370
     0
100
AcDbPolyline
 90
       30
 70
     0
 43
0.0
 10
580.504333
 20
352.652222
 10
581.194519
 20
352.066833
 10
581.760132
 20
351.381958
 10
582.193359
 20
350.619354
 10
582.495422
 20
349.80246
 10
582.671265
 20
348.951141
 10
582.727722
 20
348.082306
 10
582.672241
 20
347.209564
 10
582.512085
 20
346.34491
 10
582.252441
 20
345.498291
 10
581.897949
 20
344.679413
 10
581.452576
 20
343.897949
 10
580.920593
 20
343.163696
 10
580.306763
 20
342.486389
 10
579.617004
 20
341.875153
 10
578.858643
 20
341.338104
 10
578.040283
 20
340.881226
 10
577.171509
 20
340.508118
 10
576.260071
 20
340.220032
 10
575.311951
 20
340.016205
 10
574.334229
 20
339.89505
 10
573.3349
 20
339.854462
 10
572.322021
 20
339.892273
 10
571.303406
 20
340.006348
 10
570.285095
 20
340.194855
 10
569.27478
 20
340.456024
 10
568.286316
 20
340.787964
 10
567.338074
 20
341.186584
 10
566.453613
 20
341.644409
 10
565.65509
 20
342.152222
  0
LWPOLYLINE
  5
FD
330
F9
100
AcDbEntity
  8
0
  6
Continuous
 62
     0
370
     0
100
AcDbPolyline
 90
        3
 70
     0
 43
0.0
 10
579.579712
 20
353.178223
 10
579.712524
 20
353.116364
 10
580.504333
 20
352.652222
  0
LWPOLYLINE
  5
FE
330
F9
100
AcDbEntity
  8
0
  6
Continuous
 62
     0
370
     0
100
AcDbPolyline
 90
       14
 70
     0
 43
0.0
 10
565.65509
 20
342.152222
 10
564.917053
 20
342.739929
 10
564.324341
 20
343.353241
 10
563.884338
 20
343.97821
 10
563.596313
 20
344.60379
 10
563.452637
 20
345.224396
 10
563.44397
 20
345.83847
 10
563.562012
 20
346.448486
 10
563.799744
 20
347.055664
 10
564.150696
 20
347.660187
 10
564.608398
 20
348.262238
 10
565.166809
 20
348.861664
 10
565.820862
 20
349.457886
 10
566.579712
 20
350.059753
  0
ELLIPSE
  5
FF
330
F9
100
AcDbEntity
  8
0
  6
Continuous
 62
     0
370
     0
100
AcDbEllipse
 10
573.079686
 20
358.362375
 30
0.0
 11
6.5
 21
0.0
 31
0.0
210
0.0
220
0.0
230
-1.0
 40
0.707107
 41
2.356194490192353
 42
3.141768590980603
  0
ELLIPSE
  5
100
330
F9
100
AcDbEntity
  8
0
  6
Continuous
 62
     0
370
     0
100
AcDbEllipse
 10
573.079686
 20
358.362375
 30
0.0
 11
6.5
 21
0.0
 31
0.0
210
0.0
220
0.0
230
-1.0
 40
0.707107
 41
6.259883612037338
 42
8.639379797371939
  0
LWPOLYLINE
  5
101
330
F9
100
AcDbEntity
  8
0
  6
Continuous
 62
     0
370
     0
100
AcDbPolyline
 90
       22
 70
     0
 43
0.0
 10
577.322327
 20
361.715942
 10
577.865906
 20
361.274445
 10
578.337891
 20
360.759399
 10
578.711426
 20
360.179413
 10
578.96283
 20
359.549255
 10
579.074707
 20
358.889069
 10
579.03894
 20
358.222504
 10
578.858276
 20
357.574005
 10
578.54541
 20
356.96579
 10
578.121216
 20
356.415619
 10
577.611389
 20
355.935303
 10
577.035034
 20
355.525665
 10
576.359558
 20
355.1633
 10
575.5849
 20
354.860809
 10
574.727356
 20
354.636383
 10
573.811768
 20
354.504974
 10
572.869446
 20
354.475891
 10
571.934875
 20
354.551239
 10
571.041626
 20
354.725555
 10
570.218384
 20
354.986786
 10
569.486328
 20
355.318298
 10
568.837036
 20
355.715942
  0
LWPOLYLINE
  5
102
330
F9
100
AcDbEntity
  8
0
  6
Continuous
 62
     0
370
     0
100
AcDbPolyline
 90
       22
 70
     0
 43
0.0
 10
568.837036
 20
355.715942
 10
568.293457
 20
356.15741
 10
567.821472
 20
356.672455
 10
567.447937
 20
357.252441
 10
567.196533
 20
357.882629
 10
567.084656
 20
358.542786
 10
567.120422
 20
359.209351
 10
567.301086
 20
359.857849
 10
567.613953
 20
360.466064
 10
568.038147
 20
361.016266
 10
568.547974
 20
361.496552
 10
569.12439
 20
361.906189
 10
569.799805
 20
362.268555
 10
570.574463
 20
362.571045
 10
571.432007
 20
362.795471
 10
572.347595
 20
362.92688
 10
573.289917
 20
362.955963
 10
574.224487
 20
362.880615
 10
575.117737
 20
362.706299
 10
575.94104
 20
362.445068
 10
576.673035
 20
362.113556
 10
577.322327
 20
361.715942
  0
ELLIPSE
  5
103
330
F9
100
AcDbEntity
  8
0
  6
Continuous
 62
     0
370
     0
100
AcDbEllipse
 10
562.826637
 20
326.363637
 30
0.0
 11
-11.25833018497167
 21
15.92168337350533
 31
0.0
210
0.0
220
0.0
230
-1.0
 40
0.5
 41
6.278797938155906
 42
7.23850191723635
  0
ELLIPSE
  5
104
330
F9
100
AcDbEntity
  8
0
  6
Continuous
 62
     0
370
     0
100
AcDbEllipse
 10
562.826637
 20
326.363637
 30
0.0
 11
-11.25833018497167
 21
15.92168337350533
 31
0.0
210
0.0
220
0.0
230
-1.0
 40
0.5
 41
0.9553166100567645
 42
3.147599356584577
  0
ELLIPSE
  5
105
330
F9
100
AcDbEntity
  8
0
  6
Continuous
 62
     0
370
    30
100
AcDbEllipse
 10
592.171569
 20
347.113637
 30
0.0
 11
11.25833018497167
 21
-15.92168337350533
 31
0.0
210
0.0
220
0.0
230
1.0
 40
0.5
 41
0.0000000121016193
 42
2.186276043533129
  0
ELLIPSE
  5
106
330
F9
100
AcDbEntity
  8
0
  6
Continuous
 62
     0
370
    30
100
AcDbEllipse
 10
592.171569
 20
347.113637
 30
0.0
 11
11.25833018497167
 21
-15.92168337350533
 31
0.0
210
0.0
220
0.0
230
1.0
 40
0.5
 41
2.186276043533129
 42
3.14159266569141
  0
LWPOLYLINE
  5
107
330
F9
100
AcDbEntity
  8
0
  6
Continuous
 62
     0
370
     0
100
AcDbPolyline
 90
       38
 70
     0
 43
0.0
 10
562.473083
 20
339.548676
 10
563.514282
 20
338.772034
 10
564.57959
 20
337.892975
 10
565.65918
 20
336.912506
 10
566.741882
 20
335.833923
 10
567.81543
 20
334.663208
 10
568.866577
 20
333.408966
 10
569.881897
 20
332.082397
 10
570.847961
 20
330.696991
 10
571.752197
 20
329.268158
 10
572.583191
 20
327.812622
 10
573.331177
 20
326.34787
 10
573.988647
 20
324.891357
 10
574.55011
 20
323.4599
 10
575.012817
 20
322.069
 10
575.376282
 20
320.732422
 10
575.642151
 20
319.461731
 10
575.814148
 20
318.266144
 10
575.897583
 20
317.152435
 10
575.898682
 20
316.117584
 10
575.817627
 20
315.12088
 10
575.648132
 20
314.167175
 10
575.384888
 20
313.270691
 10
575.02417
 20
312.445923
 10
574.564148
 20
311.706848
 10
574.005371
 20
311.066589
 10
573.350525
 20
310.536621
 10
572.604919
 20
310.126312
 10
571.776123
 20
309.842438
 10
570.873718
 20
309.688782
 10
569.90918
 20
309.666046
 10
568.89502
 20
309.771851
 10
567.844727
 20
310.000885
 10
566.771606
 20
310.345306
 10
565.688965
 20
310.795197
 10
564.609131
 20
311.339081
 10
563.543274
 20
311.964539
 10
562.473083
 20
312.678619
  0
LWPOLYLINE
  5
108
330
F9
100
AcDbEntity
  8
0
  6
Continuous
 62
     0
370
     0
100
AcDbPolyline
 90
       38
 70
     0
 43
0.0
 10
562.473083
 20
312.678619
 10
561.431885
 20
313.455261
 10
560.366577
 20
314.33429
 10
559.286987
 20
315.314758
 10
558.204285
 20
316.393341
 10
557.130737
 20
317.564056
 10
556.07959
 20
318.818298
 10
555.06427
 20
320.144867
 10
554.098206
 20
321.530273
 10
553.19397
 20
322.959106
 10
552.362976
 20
324.414642
 10
551.61499
 20
325.879395
 10
550.95752
 20
327.335907
 10
550.396057
 20
328.767365
 10
549.93335
 20
330.158264
 10
549.569885
 20
331.494843
 10
549.304016
 20
332.765564
 10
549.132019
 20
333.961151
 10
549.048584
 20
335.07486
 10
549.047485
 20
336.109711
 10
549.12854
 20
337.106384
 10
549.298035
 20
338.06012
 10
549.561279
 20
338.956573
 10
549.921997
 20
339.781372
 10
550.382019
 20
340.520416
 10
550.940796
 20
341.160675
 10
551.595642
 20
341.690643
 10
552.341248
 20
342.100952
 10
553.170044
 20
342.384857
 10
554.072449
 20
342.538513
 10
555.036987
 20
342.561218
 10
556.051147
 20
342.455444
 10
557.10144
 20
342.22641
 10
558.174561
 20
341.881958
 10
559.257202
 20
341.432068
 10
560.337036
 20
340.888184
 10
561.402893
 20
340.262726
 10
562.473083
 20
339.548676
  0
LINE
  5
109
330
F9
100
AcDbEntity
  8
0
  6
Continuous
 62
     0
370
    30
100
AcDbLine
 10
631.628127
 20
306.729357
 30
0.0
 11
631.628127
 21
363.2979
 31
0.0
  0
LINE
  5
10A
330
F9
100
AcDbEntity
  8
0
  6
Continuous
 62
     0
370
    30
100
AcDbLine
 10
631.628127
 20
363.2979
 30
0.0
 11
621.021525
 21
355.7979
 31
0.0
  0
LINE
  5
10B
330
F9
100
AcDbEntity
  8
0
  6
Continuous
 62
     0
370
    30
100
AcDbLine
 10
621.021525
 20
355.7979
 30
0.0
 11
621.021525
 21
299.229357
 31
0.0
  0
LINE
  5
10C
330
F9
100
AcDbEntity
  8
0
  6
Continuous
 62
     0
370
    30
100
AcDbLine
 10
621.021525
 20
299.229357
 30
0.0
 11
631.628127
 21
306.729357
 31
0.0
  0
LINE
  5
10D
330
F9
100
AcDbEntity
  8
0
  6
Continuous
 62
     0
370
    30
100
AcDbLine
 10
631.628127
 20
363.2979
 30
0.0
 11
575.059584
 21
403.2979
 31
0.0
  0
LINE
  5
10E
330
F9
100
AcDbEntity
  8
0
  6
Continuous
 62
     0
370
    30
100
AcDbLine
 10
575.059584
 20
403.2979
 30
0.0
 11
564.452983
 21
395.7979
 31
0.0
  0
LINE
  5
10F
330
F9
100
AcDbEntity
  8
0
  6
Continuous
 62
     0
370
    30
100
AcDbLine
 10
564.452983
 20
395.7979
 30
0.0
 11
621.021525
 21
355.7979
 31
0.0
  0
LINE
  5
110
330
F9
100
AcDbEntity
  8
0
  6
Continuous
 62
     0
370
    30
100
AcDbLine
 10
564.452983
 20
351.396161
 30
0.0
 11
564.452983
 21
395.7979
 31
0.0
  0
LINE
  5
111
330
F9
100
AcDbEntity
  8
0
  6
Continuous
 62
     0
370
    30
100
AcDbLine
 10
589.624744
 20
321.430234
 30
0.0
 11
621.021525
 21
299.229357
 31
0.0
  0
LWPOLYLINE
  5
112
330
F9
100
AcDbEntity
  8
0
  6
Continuous
 62
     0
370
    30
100
AcDbPolyline
 90
       22
 70
     0
 43
0.0
 10
579.579712
 20
358.3591
 10
579.503906
 20
359.084076
 10
579.281006
 20
359.789307
 10
578.917908
 20
360.456177
 10
578.425171
 20
361.069794
 10
577.816345
 20
361.618652
 10
577.105225
 20
362.09259
 10
576.307922
 20
362.483276
 10
575.441589
 20
362.783386
 10
574.524231
 20
362.986938
 10
573.575867
 20
363.090973
 10
572.616882
 20
363.093201
 10
571.667908
 20
362.992737
 10
570.74939
 20
362.792023
 10
569.880737
 20
362.495361
 10
569.08075
 20
362.10791
 10
568.366394
 20
361.636658
 10
567.753601
 20
361.090302
 10
567.256653
 20
360.478882
 10
566.888489
 20
359.81366
 10
566.659973
 20
359.109344
 10
566.579712
 20
358.362335
  0
LWPOLYLINE
  5
113
330
F9
100
AcDbEntity
  8
0
  6
Continuous
 62
     0
370
    30
100
AcDbPolyline
 90
       12
 70
     0
 43
0.0
 10
562.537964
 20
312.520386
 10
563.733704
 20
311.727173
 10
564.923279
 20
311.04248
 10
566.098511
 20
310.47171
 10
567.251465
 20
310.01944
 10
568.374817
 20
309.689514
 10
569.461609
 20
309.485199
 10
570.5047
 20
309.409668
 10
571.496033
 20
309.465485
 10
572.427979
 20
309.65506
 10
573.29187
 20
309.979156
 10
574.085388
 20
310.442291
  0
LWPOLYLINE
  5
114
330
F9
100
AcDbEntity
  8
0
  6
Continuous
 62
     0
370
    30
100
AcDbPolyline
 90
       26
 70
     0
 43
0.0
 10
551.567871
 20
342.285004
 10
550.873169
 20
341.697449
 10
550.276917
 20
340.98938
 10
549.785583
 20
340.171265
 10
549.40094
 20
339.251862
 10
549.12384
 20
338.239502
 10
548.954407
 20
337.142242
 10
548.89209
 20
335.967896
 10
548.935913
 20
334.724609
 10
549.084534
 20
333.420929
 10
549.336609
 20
332.06543
 10
549.689697
 20
330.667664
 10
550.141113
 20
329.237762
 10
550.687317
 20
327.786102
 10
551.323853
 20
326.323395
 10
552.046204
 20
324.860443
 10
552.848877
 20
323.408112
 10
553.725525
 20
321.977264
 10
554.6698
 20
320.578735
 10
555.6745
 20
319.223114
 10
556.732056
 20
317.920471
 10
557.834473
 20
316.680786
 10
558.973572
 20
315.513336
 10
560.140808
 20
314.426971
 10
561.327637
 20
313.429871
 10
562.537964
 20
312.520386
  0
LINE
  5
115
330
F9
100
AcDbEntity
  8
0
  6
Continuous
 62
     0
370
    30
100
AcDbLine
 10
603.429899
 20
331.191954
 30
0.0
 11
574.084968
 21
310.441954
 31
0.0
  0
LINE
  5
116
330
F9
100
AcDbEntity
  8
0
  6
Continuous
 62
     0
370
    30
100
AcDbLine
 10
566.579686
 20
352.899968
 30
0.0
 11
551.568307
 21
342.285321
 31
0.0
  0
LINE
  5
117
330
F9
100
AcDbEntity
  8
0
  6
Continuous
 62
     0
370
    30
100
AcDbLine
 10
580.913239
 20
363.03532
 30
0.0
 11
578.305719
 21
361.191525
 31
0.0
  0
LINE
  5
118
330
F9
100
AcDbEntity
  8
0
  6
Continuous
 62
     0
370
    30
100
AcDbLine
 10
579.579686
 20
349.37953
 30
0.0
 11
579.579686
 21
358.359086
 31
0.0
  0
LINE
  5
119
330
F9
100
AcDbEntity
  8
0
  6
Continuous
 62
     0
370
    30
100
AcDbLine
 10
566.579686
 20
349.379464
 30
0.0
 11
566.579686
 21
358.362375
 31
0.0
  0
LWPOLYLINE
  5
11A
330
F9
100
AcDbEntity
  8
0
  6
Continuous
 62
     0
370
    30
100
AcDbPolyline
 90
        4
 70
     0
 43
0.0
 10
566.536621
 20
349.111206
 10
566.546021
 20
349.137756
 10
566.563721
 20
349.209686
 10
566.579651
 20
349.378662
  0
LWPOLYLINE
  5
11B
330
F9
100
AcDbEntity
  8
0
  6
Continuous
 62
     0
370
     0
100
AcDbPolyline
 90
        7
 70
     0
 43
0.0
 10
566.579712
 20
278.675507
 10
566.623596
 20
278.335358
 10
566.763
 20
277.980743
 10
567.003845
 20
277.605988
 10
567.351746
 20
277.208405
 10
567.806396
 20
276.7901
 10
568.483521
 20
276.269958
  0
LWPOLYLINE
  5
11C
330
F9
100
AcDbEntity
  8
0
  6
Continuous
 62
     0
370
     0
100
AcDbPolyline
 90
       18
 70
     0
 43
0.0
 10
568.483521
 20
276.269958
 10
569.258728
 20
275.761108
 10
570.112427
 20
275.274231
 10
571.009216
 20
274.83136
 10
571.919373
 20
274.450562
 10
572.824402
 20
274.144501
 10
573.714905
 20
273.92395
 10
574.58075
 20
273.79953
 10
575.410645
 20
273.781891
 10
576.193542
 20
273.881195
 10
576.920471
 20
274.104431
 10
577.581116
 20
274.454315
 10
578.162476
 20
274.927734
 10
578.653931
 20
275.513977
 10
579.04718
 20
276.197327
 10
579.33606
 20
276.959045
 10
579.515381
 20
277.779419
 10
579.579712
 20
278.670746
  0
LWPOLYLINE
  5
11D
330
F9
100
AcDbEntity
  8
0
  6
Continuous
 62
     0
370
     0
100
AcDbPolyline
 90
       30
 70
     0
 43
0.0
 10
580.504333
 20
281.941528
 10
581.194519
 20
281.35614
 10
581.760132
 20
280.671265
 10
582.193359
 20
279.908661
 10
582.495422
 20
279.091766
 10
582.671265
 20
278.240479
 10
582.727722
 20
277.371613
 10
582.672241
 20
276.498901
 10
582.512085
 20
275.634216
 10
582.252441
 20
274.787598
 10
581.897949
 20
273.968719
 10
581.452576
 20
273.187286
 10
580.920593
 20
272.453033
 10
580.306763
 20
271.775726
 10
579.617004
 20
271.164459
 10
578.858643
 20
270.627441
 10
578.040283
 20
270.170563
 10
577.171509
 20
269.797455
 10
576.260071
 20
269.509338
 10
575.311951
 20
269.305511
 10
574.334229
 20
269.184387
 10
573.3349
 20
269.143799
 10
572.322021
 20
269.18158
 10
571.303406
 20
269.295654
 10
570.285095
 20
269.484161
 10
569.27478
 20
269.745331
 10
568.286316
 20
270.077271
 10
567.338074
 20
270.475922
 10
566.453613
 20
270.933746
 10
565.65509
 20
271.441528
  0
LWPOLYLINE
  5
11E
330
F9
100
AcDbEntity
  8
0
  6
Continuous
 62
     0
370
     0
100
AcDbPolyline
 90
        3
 70
     0
 43
0.0
 10
579.579712
 20
282.46756
 10
579.712524
 20
282.40567
 10
580.504333
 20
281.941528
  0
LWPOLYLINE
  5
11F
330
F9
100
AcDbEntity
  8
0
  6
Continuous
 62
     0
370
     0
100
AcDbPolyline
 90
       14
 70
     0
 43
0.0
 10
565.65509
 20
271.441528
 10
564.917053
 20
272.029266
 10
564.324341
 20
272.642578
 10
563.884338
 20
273.267548
 10
563.596313
 20
273.893127
 10
563.452637
 20
274.513702
 10
563.44397
 20
275.127808
 10
563.562012
 20
275.737793
 10
563.799744
 20
276.345001
 10
564.150696
 20
276.949524
 10
564.608398
 20
277.551544
 10
565.166809
 20
278.151001
 10
565.820862
 20
278.747223
 10
566.579712
 20
279.34906
  0
ELLIPSE
  5
120
330
F9
100
AcDbEntity
  8
0
  6
Continuous
 62
     0
370
     0
100
AcDbEllipse
 10
573.079686
 20
287.651696
 30
0.0
 11
6.5
 21
0.0
 31
0.0
210
0.0
220
0.0
230
-1.0
 40
0.707107
 41
2.356194490192347
 42
3.141768590798679
  0
ELLIPSE
  5
121
330
F9
100
AcDbEntity
  8
0
  6
Continuous
 62
     0
370
     0
100
AcDbEllipse
 10
573.079686
 20
287.651696
 30
0.0
 11
6.5
 21
0.0
 31
0.0
210
0.0
220
0.0
230
-1.0
 40
0.707107
 41
6.259883612037883
 42
8.639379797371934
  0
LWPOLYLINE
  5
122
330
F9
100
AcDbEntity
  8
0
  6
Continuous
 62
     0
370
     0
100
AcDbPolyline
 90
       22
 70
     0
 43
0.0
 10
577.322327
 20
291.005249
 10
577.865906
 20
290.563751
 10
578.337891
 20
290.048706
 10
578.711426
 20
289.468719
 10
578.96283
 20
288.838562
 10
579.074707
 20
288.178375
 10
579.03894
 20
287.511841
 10
578.858276
 20
286.863312
 10
578.54541
 20
286.255096
 10
578.121216
 20
285.704926
 10
577.611389
 20
285.224609
 10
577.035034
 20
284.815002
 10
576.359558
 20
284.452637
 10
575.5849
 20
284.150116
 10
574.727356
 20
283.92572
 10
573.811768
 20
283.794312
 10
572.869446
 20
283.765228
 10
571.934875
 20
283.840546
 10
571.041626
 20
284.014862
 10
570.218384
 20
284.276123
 10
569.486328
 20
284.607605
 10
568.837036
 20
285.005249
  0
LWPOLYLINE
  5
123
330
F9
100
AcDbEntity
  8
0
  6
Continuous
 62
     0
370
     0
100
AcDbPolyline
 90
       22
 70
     0
 43
0.0
 10
568.837036
 20
285.005249
 10
568.293457
 20
285.446747
 10
567.821472
 20
285.961792
 10
567.447937
 20
286.541779
 10
567.196533
 20
287.171936
 10
567.084656
 20
287.832123
 10
567.120422
 20
288.498657
 10
567.301086
 20
289.147186
 10
567.613953
 20
289.755402
 10
568.038147
 20
290.305573
 10
568.547974
 20
290.785889
 10
569.12439
 20
291.195496
 10
569.799805
 20
291.557892
 10
570.574463
 20
291.860382
 10
571.432007
 20
292.084778
 10
572.347595
 20
292.216187
 10
573.289917
 20
292.2453
 10
574.224487
 20
292.169952
 10
575.117737
 20
291.995636
 10
575.94104
 20
291.734375
 10
576.673035
 20
291.402893
 10
577.322327
 20
291.005249
  0
ELLIPSE
  5
124
330
F9
100
AcDbEntity
  8
0
  6
Continuous
 62
     0
370
     0
100
AcDbEllipse
 10
562.826637
 20
255.652959
 30
0.0
 11
-11.25833018497167
 21
15.92168337350533
 31
0.0
210
0.0
220
0.0
230
-1.0
 40
0.5
 41
6.278797938158085
 42
7.238501917236349
  0
ELLIPSE
  5
125
330
F9
100
AcDbEntity
  8
0
  6
Continuous
 62
     0
370
     0
100
AcDbEllipse
 10
562.826637
 20
255.652959
 30
0.0
 11
-11.25833018497167
 21
15.92168337350533
 31
0.0
210
0.0
220
0.0
230
-1.0
 40
0.5
 41
0.955316610056763
 42
3.147599356584515
  0
ELLIPSE
  5
126
330
F9
100
AcDbEntity
  8
0
  6
Continuous
 62
     0
370
    30
100
AcDbEllipse
 10
592.171569
 20
276.402958
 30
0.0
 11
11.25833018497167
 21
-15.92168337350533
 31
0.0
210
0.0
220
0.0
230
1.0
 40
0.5
 41
0.0000000121016175
 42
2.186276043533128
  0
ELLIPSE
  5
127
330
F9
100
AcDbEntity
  8
0
  6
Continuous
 62
     0
370
    30
100
AcDbEllipse
 10
592.171569
 20
276.402958
 30
0.0
 11
11.25833018497167
 21
-15.92168337350533
 31
0.0
210
0.0
220
0.0
230
1.0
 40
0.5
 41
2.186276043533128
 42
3.14159266569141
  0
LWPOLYLINE
  5
128
330
F9
100
AcDbEntity
  8
0
  6
Continuous
 62
     0
370
     0
100
AcDbPolyline
 90
       38
 70
     0
 43
0.0
 10
562.473083
 20
268.837982
 10
563.514282
 20
268.06134
 10
564.57959
 20
267.182312
 10
565.65918
 20
266.201813
 10
566.741882
 20
265.12323
 10
567.81543
 20
263.952515
 10
568.866577
 20
262.698303
 10
569.881897
 20
261.371735
 10
570.847961
 20
259.986328
 10
571.752197
 20
258.557465
 10
572.583191
 20
257.101959
 10
573.331177
 20
255.637192
 10
573.988647
 20
254.180679
 10
574.55011
 20
252.749222
 10
575.012817
 20
251.358337
 10
575.376282
 20
250.021744
 10
575.642151
 20
248.751053
 10
575.814148
 20
247.55545
 10
575.897583
 20
246.441742
 10
575.898682
 20
245.406906
 10
575.817627
 20
244.410202
 10
575.648132
 20
243.456482
 10
575.384888
 20
242.560028
 10
575.02417
 20
241.735245
 10
574.564148
 20
240.99617
 10
574.005371
 20
240.355911
 10
573.350525
 20
239.825943
 10
572.604919
 20
239.415634
 10
571.776123
 20
239.131744
 10
570.873718
 20
238.978088
 10
569.90918
 20
238.955368
 10
568.89502
 20
239.061172
 10
567.844727
 20
239.290207
 10
566.771606
 20
239.634628
 10
565.688965
 20
240.084518
 10
564.609131
 20
240.628418
 10
563.543274
 20
241.253876
 10
562.473083
 20
241.967926
  0
LWPOLYLINE
  5
129
330
F9
100
AcDbEntity
  8
0
  6
Continuous
 62
     0
370
     0
100
AcDbPolyline
 90
       38
 70
     0
 43
0.0
 10
562.473083
 20
241.967926
 10
561.431885
 20
242.744568
 10
560.366577
 20
243.623611
 10
559.286987
 20
244.604095
 10
558.204285
 20
245.682678
 10
557.130737
 20
246.853394
 10
556.07959
 20
248.10762
 10
555.06427
 20
249.434189
 10
554.098206
 20
250.819595
 10
553.19397
 20
252.248444
 10
552.362976
 20
253.703964
 10
551.61499
 20
255.168716
 10
550.95752
 20
256.625244
 10
550.396057
 20
258.056702
 10
549.93335
 20
259.447571
 10
549.569885
 20
260.78418
 10
549.304016
 20
262.054871
 10
549.132019
 20
263.250458
 10
549.048584
 20
264.364166
 10
549.047485
 20
265.399017
 10
549.12854
 20
266.395721
 10
549.298035
 20
267.349426
 10
549.561279
 20
268.24588
 10
549.921997
 20
269.070679
 10
550.382019
 20
269.809753
 10
550.940796
 20
270.450012
 10
551.595642
 20
270.97998
 10
552.341248
 20
271.390289
 10
553.170044
 20
271.674164
 10
554.072449
 20
271.82782
 10
555.036987
 20
271.850555
 10
556.051147
 20
271.744751
 10
557.10144
 20
271.515717
 10
558.174561
 20
271.171295
 10
559.257202
 20
270.721405
 10
560.337036
 20
270.17749
 10
561.402893
 20
269.552032
 10
562.473083
 20
268.837982
  0
LINE
  5
12A
330
F9
100
AcDbEntity
  8
0
  6
Continuous
 62
     0
370
    30
100
AcDbLine
 10
631.628127
 20
236.018679
 30
0.0
 11
631.628127
 21
292.587222
 31
0.0
  0
LINE
  5
12B
330
F9
100
AcDbEntity
  8
0
  6
Continuous
 62
     0
370
    30
100
AcDbLine
 10
631.628127
 20
292.587222
 30
0.0
 11
621.021525
 21
285.087222
 31
0.0
  0
LINE
  5
12C
330
F9
100
AcDbEntity
  8
0
  6
Continuous
 62
     0
370
    30
100
AcDbLine
 10
621.021525
 20
285.087222
 30
0.0
 11
621.021525
 21
228.518679
 31
0.0
  0
LINE
  5
12D
330
F9
100
AcDbEntity
  8
0
  6
Continuous
 62
     0
370
    30
100
AcDbLine
 10
621.021525
 20
228.518679
 30
0.0
 11
631.628127
 21
236.018679
 31
0.0
  0
LINE
  5
12E
330
F9
100
AcDbEntity
  8
0
  6
Continuous
 62
     0
370
    30
100
AcDbLine
 10
631.628127
 20
292.587222
 30
0.0
 11
621.628127
 21
299.658289
 31
0.0
  0
LINE
  5
12F
330
F9
100
AcDbEntity
  8
0
  6
Continuous
 62
     0
370
    30
100
AcDbLine
 10
579.624744
 20
314.359166
 30
0.0
 11
621.021525
 21
285.087222
 31
0.0
  0
LINE
  5
130
330
F9
100
AcDbEntity
  8
0
  6
Continuous
 62
     0
370
    30
100
AcDbLine
 10
564.452983
 20
280.685483
 30
0.0
 11
564.452983
 21
311.300582
 31
0.0
  0
LINE
  5
131
330
F9
100
AcDbEntity
  8
0
  6
Continuous
 62
     0
370
    30
100
AcDbLine
 10
589.624744
 20
250.719556
 30
0.0
 11
621.021525
 21
228.518679
 31
0.0
  0
LWPOLYLINE
  5
132
330
F9
100
AcDbEntity
  8
0
  6
Continuous
 62
     0
370
    30
100
AcDbPolyline
 90
       22
 70
     0
 43
0.0
 10
579.579712
 20
287.648407
 10
579.503906
 20
288.373383
 10
579.281006
 20
289.078613
 10
578.917908
 20
289.745483
 10
578.425171
 20
290.3591
 10
577.816345
 20
290.907959
 10
577.105225
 20
291.381897
 10
576.307922
 20
291.772583
 10
575.441589
 20
292.072693
 10
574.524231
 20
292.276245
 10
573.575867
 20
292.38031
 10
572.616882
 20
292.382538
 10
571.667908
 20
292.282074
 10
570.74939
 20
292.08136
 10
569.880737
 20
291.784698
 10
569.08075
 20
291.397217
 10
568.366394
 20
290.925995
 10
567.753601
 20
290.379608
 10
567.256653
 20
289.768188
 10
566.888489
 20
289.102997
 10
566.659973
 20
288.398651
 10
566.579712
 20
287.651672
  0
LWPOLYLINE
  5
133
330
F9
100
AcDbEntity
  8
0
  6
Continuous
 62
     0
370
    30
100
AcDbPolyline
 90
       12
 70
     0
 43
0.0
 10
562.537964
 20
241.809692
 10
563.733704
 20
241.016495
 10
564.923279
 20
240.331802
 10
566.098511
 20
239.761017
 10
567.251465
 20
239.308777
 10
568.374817
 20
238.978821
 10
569.461609
 20
238.774536
 10
570.5047
 20
238.69899
 10
571.496033
 20
238.754822
 10
572.427979
 20
238.944382
 10
573.29187
 20
239.268478
 10
574.085388
 20
239.731613
  0
LWPOLYLINE
  5
134
330
F9
100
AcDbEntity
  8
0
  6
Continuous
 62
     0
370
    30
100
AcDbPolyline
 90
       26
 70
     0
 43
0.0
 10
551.567871
 20
271.57431
 10
550.873169
 20
270.986786
 10
550.276917
 20
270.278687
 10
549.785583
 20
269.460571
 10
549.40094
 20
268.541199
 10
549.12384
 20
267.528809
 10
548.954407
 20
266.431549
 10
548.89209
 20
265.257202
 10
548.935913
 20
264.013947
 10
549.084534
 20
262.710266
 10
549.336609
 20
261.354767
 10
549.689697
 20
259.957001
 10
550.141113
 20
258.5271
 10
550.687317
 20
257.075409
 10
551.323853
 20
255.612717
 10
552.046204
 20
254.14978
 10
552.848877
 20
252.697433
 10
553.725525
 20
251.266586
 10
554.6698
 20
249.868073
 10
555.6745
 20
248.512421
 10
556.732056
 20
247.209793
 10
557.834473
 20
245.970108
 10
558.973572
 20
244.802658
 10
560.140808
 20
243.716309
 10
561.327637
 20
242.719193
 10
562.537964
 20
241.809692
  0
LINE
  5
135
330
F9
100
AcDbEntity
  8
0
  6
Continuous
 62
     0
370
    30
100
AcDbLine
 10
603.429899
 20
260.481275
 30
0.0
 11
574.084968
 21
239.731275
 31
0.0
  0
LINE
  5
136
330
F9
100
AcDbEntity
  8
0
  6
Continuous
 62
     0
370
    30
100
AcDbLine
 10
566.579686
 20
282.189289
 30
0.0
 11
551.568307
 21
271.574642
 31
0.0
  0
LINE
  5
137
330
F9
100
AcDbEntity
  8
0
  6
Continuous
 62
     0
370
    30
100
AcDbLine
 10
580.913239
 20
292.324642
 30
0.0
 11
578.305719
 21
290.480847
 31
0.0
  0
LINE
  5
138
330
F9
100
AcDbEntity
  8
0
  6
Continuous
 62
     0
370
    30
100
AcDbLine
 10
579.579686
 20
278.668851
 30
0.0
 11
579.579686
 21
287.648407
 31
0.0
  0
LINE
  5
139
330
F9
100
AcDbEntity
  8
0
  6
Continuous
 62
     0
370
    30
100
AcDbLine
 10
566.579686
 20
278.668786
 30
0.0
 11
566.579686
 21
287.651696
 31
0.0
  0
LWPOLYLINE
  5
13A
330
F9
100
AcDbEntity
  8
0
  6
Continuous
 62
     0
370
    30
100
AcDbPolyline
 90
        4
 70
     0
 43
0.0
 10
566.536621
 20
278.400543
 10
566.546021
 20
278.427063
 10
566.563721
 20
278.499023
 10
566.579651
 20
278.667969
  0
ELLIPSE
  5
13B
330
F9
100
AcDbEntity
  8
0
  6
Continuous
 62
     0
370
    30
100
AcDbEllipse
 10
591.499819
 20
170.215504
 30
0.0
 11
11.2583301849724
 21
-15.92168337350637
 31
0.0
210
0.0
220
0.0
230
0.9999999999999999
 40
0.5
 41
0.615479716738137
 42
3.141592665691408
  0
ELLIPSE
  5
13C
330
F9
100
AcDbEntity
  8
0
  6
Continuous
 62
     0
370
    30
100
AcDbEllipse
 10
591.499819
 20
170.215504
 30
0.0
 11
11.2583301849724
 21
-15.92168337350637
 31
0.0
210
0.0
220
0.0
230
0.9999999999999999
 40
0.5
 41
0.0000000121016166
 42
0.615479716738137
  0
LWPOLYLINE
  5
13D
330
F9
100
AcDbEntity
  8
0
  6
Continuous
 62
     0
370
    30
100
AcDbPolyline
 90
       17
 70
     0
 43
0.0
 10
573.433228
 20
176.072769
 10
572.950073
 20
176.357162
 10
572.36731
 20
176.585602
 10
571.706177
 20
176.734711
 10
571.001343
 20
176.787292
 10
570.295959
 20
176.736877
 10
569.633484
 20
176.589676
 10
569.048828
 20
176.362701
 10
568.563416
 20
176.079239
 10
568.159851
 20
175.739136
 10
567.834778
 20
175.328476
 10
567.621216
 20
174.861923
 10
567.543823
 20
174.363861
 10
567.612
 20
173.864792
 10
567.817505
 20
173.395416
 10
568.136414
 20
172.980637
 10
568.554199
 20
172.622772
  0
LWPOLYLINE
  5
13E
330
F9
100
AcDbEntity
  8
0
  6
Continuous
 62
     0
370
    30
100
AcDbPolyline
 90
       17
 70
     0
 43
0.0
 10
568.554199
 20
172.622772
 10
569.037415
 20
172.338379
 10
569.620117
 20
172.109955
 10
570.281311
 20
171.960846
 10
570.986145
 20
171.908264
 10
571.691467
 20
171.958664
 10
572.353943
 20
172.105865
 10
572.938599
 20
172.33284
 10
573.424072
 20
172.616302
 10
573.827576
 20
172.956406
 10
574.152649
 20
173.367065
 10
574.366211
 20
173.833618
 10
574.443665
 20
174.33168
 10
574.375427
 20
174.83075
 10
574.169983
 20
175.30014
 10
573.851074
 20
175.71492
 10
573.433228
 20
176.072769
  0
LWPOLYLINE
  5
13F
330
F9
100
AcDbEntity
  8
0
  6
Continuous
 62
     0
370
    30
100
AcDbPolyline
 90
       18
 70
     0
 43
0.0
 10
573.786804
 20
175.969223
 10
574.222595
 20
175.603119
 10
574.580017
 20
175.164917
 10
574.827087
 20
174.667984
 10
574.938721
 20
174.134659
 10
574.902893
 20
173.593506
 10
574.72345
 20
173.074478
 10
574.419373
 20
172.603622
 10
574.019958
 20
172.199142
 10
573.550293
 20
171.865082
 10
572.981812
 20
171.580719
 10
572.318787
 20
171.363007
 10
571.586609
 20
171.232788
 10
570.821655
 20
171.203796
 10
570.066345
 20
171.279221
 10
569.361206
 20
171.450867
 10
568.73822
 20
171.701279
 10
568.200684
 20
172.019226
  0
LWPOLYLINE
  5
140
330
F9
100
AcDbEntity
  8
0
  6
Continuous
 62
     0
370
    30
100
AcDbPolyline
 90
       18
 70
     0
 43
0.0
 10
568.200684
 20
172.019226
 10
567.764893
 20
172.385315
 10
567.407471
 20
172.823532
 10
567.1604
 20
173.32045
 10
567.048706
 20
173.853775
 10
567.084595
 20
174.394928
 10
567.264038
 20
174.913956
 10
567.568115
 20
175.384811
 10
567.967529
 20
175.789307
 10
568.437195
 20
176.123367
 10
569.005676
 20
176.40773
 10
569.66864
 20
176.625443
 10
570.400879
 20
176.755646
 10
571.165771
 20
176.784637
 10
571.921143
 20
176.709213
 10
572.626282
 20
176.537582
 10
573.249268
 20
176.28717
 10
573.786804
 20
175.969223
  0
LWPOLYLINE
  5
141
330
F9
100
AcDbEntity
  8
0
  6
Continuous
 62
     0
370
    30
100
AcDbPolyline
 90
       13
 70
     0
 43
0.0
 10
568.200684
 20
167.529099
 10
568.796326
 20
167.172592
 10
569.481018
 20
166.882645
 10
570.221436
 20
166.677277
 10
570.987976
 20
166.569153
 10
571.754578
 20
166.567444
 10
572.493958
 20
166.677948
 10
573.177368
 20
166.902298
 10
573.777466
 20
167.237747
 10
574.27124
 20
167.670227
 10
574.637695
 20
168.182648
 10
574.864624
 20
168.750732
 10
574.943604
 20
169.361923
  0
LWPOLYLINE
  5
142
330
F9
100
AcDbEntity
  8
0
  6
Continuous
 62
     0
370
    30
100
AcDbPolyline
 90
        5
 70
     0
 43
0.0
 10
567.043701
 20
169.385147
 10
567.112793
 20
168.893219
 10
567.33374
 20
168.411072
 10
567.698792
 20
167.952667
 10
568.200684
 20
167.529099
  0
ELLIPSE
  5
143
330
F9
100
AcDbEntity
  8
0
  6
Continuous
 62
     0
370
     0
100
AcDbEllipse
 10
563.569102
 20
150.465504
 30
0.0
 11
-11.2583301849724
 21
15.92168337350637
 31
0.0
210
0.0
220
0.0
230
-0.9999999999999999
 40
0.5
 41
6.279767770914865
 42
8.80929824403125
  0
ELLIPSE
  5
144
330
F9
100
AcDbEntity
  8
0
  6
Continuous
 62
     0
370
     0
100
AcDbEllipse
 10
563.569102
 20
150.465504
 30
0.0
 11
-11.2583301849724
 21
15.92168337350637
 31
0.0
210
0.0
220
0.0
230
-0.9999999999999999
 40
0.5
 41
2.526112936851663
 42
3.14737483337304
  0
ELLIPSE
  5
145
330
F9
100
AcDbEntity
  8
0
  6
Continuous
 62
     0
370
     0
100
AcDbEllipse
 10
563.215548
 20
150.215504
 30
0.0
 11
-10.96965505202441
 21
15.51343508187803
 31
0.0
210
0.0
220
0.0
230
-0.9999999999999999
 40
0.5
 41
2.526112936851662
 42
5.667705590441448
  0
ELLIPSE
  5
146
330
F9
100
AcDbEntity
  8
0
  6
Continuous
 62
     0
370
     0
100
AcDbEllipse
 10
563.215548
 20
150.215504
 30
0.0
 11
-10.96965505202441
 21
15.51343508187803
 31
0.0
210
0.0
220
0.0
230
-0.9999999999999999
 40
0.5
 41
5.667705590441448
 42
8.809298244031249
  0
LINE
  5
147
330
F9
100
AcDbEntity
  8
0
  6
Continuous
 62
     0
370
    30
100
AcDbLine
 10
639.26488
 20
111.471185
 30
0.0
 11
639.26488
 21
194.202679
 31
0.0
  0
LINE
  5
148
330
F9
100
AcDbEntity
  8
0
  6
Continuous
 62
     0
370
    30
100
AcDbLine
 10
639.26488
 20
194.202679
 30
0.0
 11
628.658278
 21
186.702679
 31
0.0
  0
LINE
  5
149
330
F9
100
AcDbEntity
  8
0
  6
Continuous
 62
     0
370
    30
100
AcDbLine
 10
628.658278
 20
186.702679
 30
0.0
 11
628.658278
 21
103.971185
 31
0.0
  0
LINE
  5
14A
330
F9
100
AcDbEntity
  8
0
  6
Continuous
 62
     0
370
    30
100
AcDbLine
 10
628.658278
 20
103.971185
 30
0.0
 11
639.26488
 21
111.471185
 31
0.0
  0
LINE
  5
14B
330
F9
100
AcDbEntity
  8
0
  6
Continuous
 62
     0
370
    30
100
AcDbLine
 10
639.26488
 20
194.202679
 30
0.0
 11
574.481346
 21
240.011555
 31
0.0
  0
LINE
  5
14C
330
F9
100
AcDbEntity
  8
0
  6
Continuous
 62
     0
370
    30
100
AcDbLine
 10
562.723513
 20
241.679759
 30
0.0
 11
556.816229
 21
237.502679
 31
0.0
  0
LINE
  5
14D
330
F9
100
AcDbEntity
  8
0
  6
Continuous
 62
     0
370
    30
100
AcDbLine
 10
556.816229
 20
237.502679
 30
0.0
 11
628.658278
 21
186.702679
 31
0.0
  0
LINE
  5
14E
330
F9
100
AcDbEntity
  8
0
  6
Continuous
 62
     0
370
    30
100
AcDbLine
 10
556.816229
 20
169.573027
 30
0.0
 11
556.816229
 21
237.502679
 31
0.0
  0
LINE
  5
14F
330
F9
100
AcDbEntity
  8
0
  6
Continuous
 62
     0
370
    30
100
AcDbLine
 10
580.124737
 20
138.289581
 30
0.0
 11
628.658278
 21
103.971185
 31
0.0
  0
ELLIPSE
  5
150
330
F9
100
AcDbEntity
  8
0
  6
Continuous
 62
     0
370
    30
100
AcDbEllipse
 10
592.030147
 20
170.590485
 30
0.0
 11
10.96965505202367
 21
-15.51343508187698
 31
0.0
210
0.0
220
0.0
230
0.9999999999999999
 40
0.5
 41
0.3637462550949833
 42
2.186276043533029
  0
ELLIPSE
  5
151
330
F9
100
AcDbEntity
  8
0
  6
Continuous
 62
     0
370
    30
100
AcDbEllipse
 10
592.030147
 20
170.590485
 30
0.0
 11
10.96965505202367
 21
-15.51343508187698
 31
0.0
210
0.0
220
0.0
230
0.9999999999999999
 40
0.5
 41
2.186276043533029
 42
2.777824847768103
  0
ELLIPSE
  5
152
330
F9
100
AcDbEntity
  8
0
  6
Continuous
 62
     0
370
    30
100
AcDbEllipse
 10
592.737254
 20
171.090485
 30
0.0
 11
10.96965505202367
 21
-15.51343508187698
 31
0.0
210
0.0
220
0.0
230
0.9999999999999999
 40
0.5
 41
2.186276043533029
 42
3.054112192788754
  0
ELLIPSE
  5
153
330
F9
100
AcDbEntity
  8
0
  6
Continuous
 62
     0
370
    30
100
AcDbEllipse
 10
592.737254
 20
171.090485
 30
0.0
 11
10.96965505202367
 21
-15.51343508187698
 31
0.0
210
0.0
220
0.0
230
0.9999999999999999
 40
0.5
 41
0.0874712387114247
 42
2.186276043533029
  0
LWPOLYLINE
  5
154
330
F9
100
AcDbEntity
  8
0
  6
Continuous
 62
     0
370
    30
100
AcDbPolyline
 90
        9
 70
     0
 43
0.0
 10
549.634094
 20
159.9655
 10
549.674255
 20
160.994659
 10
549.795044
 20
161.967453
 10
549.996826
 20
162.878342
 10
550.279785
 20
163.722
 10
550.64386
 20
164.493042
 10
551.088257
 20
165.185974
 10
551.611694
 20
165.79512
 10
552.310425
 20
166.386932
  0
LWPOLYLINE
  5
155
330
F9
100
AcDbEntity
  8
0
  6
Continuous
 62
     0
370
    30
100
AcDbPolyline
 90
       30
 70
     0
 43
0.0
 10
574.827881
 20
134.544144
 10
574.045898
 20
134.086517
 10
573.183533
 20
133.76062
 10
572.25293
 20
133.569321
 10
571.262756
 20
133.511368
 10
570.221069
 20
133.584732
 10
569.135498
 20
133.786926
 10
568.013
 20
134.114868
 10
566.861023
 20
134.564911
 10
565.686829
 20
135.133148
 10
564.498047
 20
135.815445
 10
563.302856
 20
136.6064
 10
562.109741
 20
137.500244
 10
560.927185
 20
138.490219
 10
559.763733
 20
139.568756
 10
558.62793
 20
140.728149
 10
557.528015
 20
141.959671
 10
556.472168
 20
143.253922
 10
555.468384
 20
144.601456
 10
554.524109
 20
145.992065
 10
553.646484
 20
147.415375
 10
552.842041
 20
148.860748
 10
552.116638
 20
150.317444
 10
551.475891
 20
151.774673
 10
550.924622
 20
153.221741
 10
550.467102
 20
154.64798
 10
550.106873
 20
156.043076
 10
549.846436
 20
157.397522
 10
549.688232
 20
158.701797
 10
549.634094
 20
159.9655
  0
LINE
  5
156
330
F9
100
AcDbEntity
  8
0
  6
Continuous
 62
     0
370
    30
100
AcDbLine
 10
602.75815
 20
154.293821
 30
0.0
 11
574.827432
 21
134.543821
 31
0.0
  0
LINE
  5
157
330
F9
100
AcDbEntity
  8
0
  6
Continuous
 62
     0
370
    30
100
AcDbLine
 10
580.241489
 20
186.137188
 30
0.0
 11
552.310771
 21
166.387188
 31
0.0
  0
LINE
  5
158
330
F9
100
AcDbEntity
  8
0
  6
Continuous
 62
     0
370
    30
100
AcDbLine
 10
567.043732
 20
173.99422
 30
0.0
 11
567.043732
 21
169.362017
 31
0.0
  0
LINE
  5
159
330
F9
100
AcDbEntity
  8
0
  6
Continuous
 62
     0
370
    30
100
AcDbLine
 10
574.943732
 20
173.99422
 30
0.0
 11
574.943732
 21
169.361929
 31
0.0
  0
ENDBLK
  5
15B
330
F9
100
AcDbEntity
  8
0
100
AcDbBlockEnd
  0
BLOCK
  5
1AD
330
15D
100
AcDbEntity
  8
0
100
AcDbBlockBegin
  2
e
 70
     0
 10
243.511871
 20
0.0
 30
0.0
  3
e
  1

  0
ARC
  5
15E
330
15D
100
AcDbEntity
  8
0
  6
Continuous
 62
     0
370
    30
100
AcDbCircle
 10
145.404628
 20
827.273052
 30
0.0
 40
3.999999999994884
100
AcDbArc
 50
270.0
 51
360.0
  0
LWPOLYLINE
  5
15F
330
15D
100
AcDbEntity
  8
0
  6
Continuous
 62
     0
370
     0
100
AcDbPolyline
 90
       26
 70
     0
 43
0.0
 10
149.404633
 20
827.273071
 10
149.468491
 20
827.22699
 10
149.654861
 20
827.095093
 10
149.951584
 20
826.891785
 10
150.342758
 20
826.63623
 10
150.812927
 20
826.348389
 10
151.350769
 20
826.04657
 10
151.947739
 20
825.747498
 10
152.595001
 20
825.466553
 10
153.283585
 20
825.218994
 10
154.004791
 20
825.019653
 10
154.751389
 20
824.879395
 10
155.515274
 20
824.806458
 10
156.284988
 20
824.80603
 10
157.048981
 20
824.878113
 10
157.796249
 20
825.017883
 10
158.517227
 20
825.216248
 10
159.203461
 20
825.461731
 10
159.848068
 20
825.740784
 10
160.443878
 20
826.038879
 10
160.982986
 20
826.340637
 10
161.455368
 20
826.629028
 10
161.848709
 20
826.885803
 10
162.148102
 20
827.09082
 10
162.337601
 20
827.224854
 10
162.404633
 20
827.273071
  0
LWPOLYLINE
  5
160
330
15D
100
AcDbEntity
  8
0
  6
Continuous
 62
     0
370
     0
100
AcDbPolyline
 90
       30
 70
     0
 43
0.0
 10
166.404617
 20
823.273071
 10
166.327469
 20
823.244507
 10
166.101059
 20
823.161743
 10
165.736832
 20
823.031616
 10
165.251663
 20
822.864563
 10
164.661499
 20
822.671143
 10
163.980927
 20
822.461304
 10
163.222092
 20
822.244812
 10
162.395462
 20
822.030823
 10
161.509003
 20
821.827576
 10
160.570129
 20
821.642761
 10
159.586151
 20
821.483826
 10
158.565048
 20
821.357544
 10
157.515884
 20
821.269592
 10
156.448944
 20
821.224304
 10
155.37587
 20
821.223999
 10
154.308701
 20
821.268738
 10
153.259659
 20
821.355896
 10
152.23819
 20
821.481567
 10
151.251389
 20
821.640747
 10
150.307556
 20
821.826477
 10
149.415955
 20
822.03064
 10
148.585861
 20
822.245178
 10
147.826508
 20
822.461731
 10
147.146683
 20
822.671448
 10
146.556625
 20
822.864929
 10
146.071487
 20
823.031921
 10
145.707733
 20
823.161865
 10
145.481766
 20
823.244446
 10
145.404633
 20
823.273071
  0
LINE
  5
161
330
15D
100
AcDbEntity
  8
0
  6
Continuous
 62
     0
370
    30
100
AcDbLine
 10
149.404628
 20
827.273052
 30
0.0
 11
149.404628
 21
838.773052
 31
0.0
  0
LINE
  5
162
330
15D
100
AcDbEntity
  8
0
  6
Continuous
 62
     0
370
     0
100
AcDbLine
 10
162.404628
 20
838.773052
 30
0.0
 11
149.404628
 21
838.773052
 31
0.0
  0
LINE
  5
163
330
15D
100
AcDbEntity
  8
0
  6
Continuous
 62
     0
370
    30
100
AcDbLine
 10
161.904628
 20
839.273052
 30
0.0
 11
149.904628
 21
839.273052
 31
0.0
  0
LINE
  5
164
330
15D
100
AcDbEntity
  8
0
  6
Continuous
 62
     0
370
    30
100
AcDbLine
 10
182.904628
 20
784.273052
 30
0.0
 11
157.804628
 21
784.273052
 31
0.0
  0
LINE
  5
165
330
15D
100
AcDbEntity
  8
0
  6
Continuous
 62
     0
370
    30
100
AcDbLine
 10
147.604628
 20
784.273052
 30
0.0
 11
141.404628
 21
784.273052
 31
0.0
  0
LINE
  5
166
330
15D
100
AcDbEntity
  8
0
  6
Continuous
 62
     0
370
     0
100
AcDbLine
 10
141.404628
 20
823.273052
 30
0.0
 11
141.404628
 21
784.273052
 31
0.0
  0
LWPOLYLINE
  5
167
330
15D
100
AcDbEntity
  8
0
  6
Continuous
 62
     0
370
    30
100
AcDbPolyline
 90
       22
 70
     0
 43
0.0
 10
147.60463
 20
784.273071
 10
147.66214
 20
784.287903
 10
147.832092
 20
784.331116
 10
148.109222
 20
784.398926
 10
148.4888
 20
784.485413
 10
148.961212
 20
784.58313
 10
149.517685
 20
784.683777
 10
150.145966
 20
784.778625
 10
150.832321
 20
784.858826
 10
151.561874
 20
784.917053
 10
152.318359
 20
784.947754
 10
153.08432
 20
784.947876
 10
153.840958
 20
784.91748
 10
154.570801
 20
784.859436
 10
155.257629
 20
784.779419
 10
155.88652
 20
784.684631
 10
156.443649
 20
784.583984
 10
156.916733
 20
784.486206
 10
157.297241
 20
784.399597
 10
157.575241
 20
784.331604
 10
157.74614
 20
784.288147
 10
157.804626
 20
784.273071
  0
LINE
  5
168
330
15D
100
AcDbEntity
  8
0
  6
Continuous
 62
     0
370
    30
100
AcDbLine
 10
182.904628
 20
784.273052
 30
0.0
 11
182.904628
 21
823.273052
 31
0.0
  0
LINE
  5
169
330
15D
100
AcDbEntity
  8
0
  6
Continuous
 62
     0
370
    30
100
AcDbLine
 10
140.904628
 20
822.773052
 30
0.0
 11
140.904628
 21
784.773052
 31
0.0
  0
ARC
  5
16A
330
15D
100
AcDbEntity
  8
0
  6
Continuous
 62
     0
370
    30
100
AcDbCircle
 10
141.404628
 20
784.773052
 30
0.0
 40
0.4999999999861942
100
AcDbArc
 50
180.0
 51
270.0
  0
ARC
  5
16B
330
15D
100
AcDbEntity
  8
0
  6
Continuous
 62
     0
370
    30
100
AcDbCircle
 10
149.904628
 20
838.773052
 30
0.0
 40
0.500000000089454
100
AcDbArc
 50
90.000081
 51
180.0
  0
LINE
  5
16C
330
15D
100
AcDbEntity
  8
0
  6
Continuous
 62
     0
370
    30
100
AcDbLine
 10
198.704626
 20
763.773041
 30
0.0
 11
198.704626
 21
843.773041
 31
0.0
  0
LINE
  5
16D
330
15D
100
AcDbEntity
  8
0
  6
Continuous
 62
     0
370
    30
100
AcDbLine
 10
198.704626
 20
843.773041
 30
0.0
 11
183.704626
 21
843.773041
 31
0.0
  0
LINE
  5
16E
330
15D
100
AcDbEntity
  8
0
  6
Continuous
 62
     0
370
    30
100
AcDbLine
 10
183.704626
 20
843.773041
 30
0.0
 11
183.704626
 21
763.773041
 31
0.0
  0
LINE
  5
16F
330
15D
100
AcDbEntity
  8
0
  6
Continuous
 62
     0
370
    30
100
AcDbLine
 10
183.704626
 20
763.773041
 30
0.0
 11
198.704626
 21
763.773041
 31
0.0
  0
LINE
  5
170
330
15D
100
AcDbEntity
  8
0
  6
Continuous
 62
     0
370
    30
100
AcDbLine
 10
183.704628
 20
797.273041
 30
0.0
 11
182.904628
 21
797.273041
 31
0.0
  0
LINE
  5
171
330
15D
100
AcDbEntity
  8
0
  6
Continuous
 62
     0
370
    30
100
AcDbLine
 10
183.704628
 20
810.273041
 30
0.0
 11
182.904628
 21
810.273041
 31
0.0
  0
ARC
  5
172
330
15D
100
AcDbEntity
  8
0
  6
Continuous
 62
     0
370
    30
100
AcDbCircle
 10
161.904625
 20
838.773049
 30
0.0
 40
0.5000034421503265
100
AcDbArc
 50
0.000394
 51
89.999606
  0
ARC
  5
173
330
15D
100
AcDbEntity
  8
0
  6
Continuous
 62
     0
370
    30
100
AcDbCircle
 10
141.404631
 20
822.77305
 30
0.0
 40
0.5000026980634154
100
AcDbArc
 50
90.000309
 51
179.999691
  0
LINE
  5
174
330
15D
100
AcDbEntity
  8
0
  6
Continuous
 62
     0
370
    30
100
AcDbLine
 10
182.904628
 20
823.273052
 30
0.0
 11
166.404622
 21
823.273052
 31
0.0
  0
LINE
  5
175
330
15D
100
AcDbEntity
  8
0
  6
Continuous
 62
     0
370
    30
100
AcDbLine
 10
145.404628
 20
823.273052
 30
0.0
 11
141.404628
 21
823.273052
 31
0.0
  0
LINE
  5
176
330
15D
100
AcDbEntity
  8
0
  6
Continuous
 62
     0
370
    30
100
AcDbLine
 10
162.404628
 20
827.273052
 30
0.0
 11
162.404628
 21
838.773052
 31
0.0
  0
ARC
  5
177
330
15D
100
AcDbEntity
  8
0
  6
Continuous
 62
     0
370
    30
100
AcDbCircle
 10
166.404647
 20
827.273064
 30
0.0
 40
4.000019079305284
100
AcDbArc
 50
180.000171
 51
269.999643
  0
ARC
  5
178
330
15D
100
AcDbEntity
  8
0
  6
Continuous
 62
     0
370
    30
100
AcDbCircle
 10
145.404628
 20
727.273052
 30
0.0
 40
3.999999999999627
100
AcDbArc
 50
270.0
 51
360.0
  0
LWPOLYLINE
  5
179
330
15D
100
AcDbEntity
  8
0
  6
Continuous
 62
     0
370
     0
100
AcDbPolyline
 90
       26
 70
     0
 43
0.0
 10
149.404633
 20
727.273071
 10
149.468491
 20
727.22699
 10
149.654861
 20
727.095093
 10
149.951584
 20
726.891785
 10
150.342758
 20
726.63623
 10
150.812927
 20
726.348389
 10
151.350769
 20
726.04657
 10
151.947739
 20
725.747498
 10
152.595001
 20
725.466553
 10
153.283585
 20
725.218994
 10
154.004791
 20
725.019653
 10
154.751389
 20
724.879395
 10
155.515274
 20
724.806458
 10
156.284988
 20
724.80603
 10
157.048981
 20
724.878113
 10
157.796249
 20
725.017883
 10
158.517227
 20
725.216248
 10
159.203461
 20
725.461731
 10
159.848068
 20
725.740784
 10
160.443878
 20
726.038879
 10
160.982986
 20
726.340637
 10
161.455368
 20
726.629028
 10
161.848709
 20
726.885803
 10
162.148102
 20
727.09082
 10
162.337601
 20
727.224854
 10
162.404633
 20
727.273071
  0
LWPOLYLINE
  5
17A
330
15D
100
AcDbEntity
  8
0
  6
Continuous
 62
     0
370
     0
100
AcDbPolyline
 90
       30
 70
     0
 43
0.0
 10
166.404617
 20
723.273071
 10
166.327469
 20
723.244507
 10
166.101059
 20
723.161743
 10
165.736832
 20
723.031616
 10
165.251663
 20
722.864563
 10
164.661499
 20
722.671143
 10
163.980927
 20
722.461304
 10
163.222092
 20
722.244812
 10
162.395462
 20
722.030823
 10
161.509003
 20
721.827576
 10
160.570129
 20
721.642761
 10
159.586151
 20
721.483826
 10
158.565048
 20
721.357544
 10
157.515884
 20
721.269592
 10
156.448944
 20
721.224304
 10
155.37587
 20
721.223999
 10
154.308701
 20
721.268738
 10
153.259659
 20
721.355896
 10
152.23819
 20
721.481567
 10
151.251389
 20
721.640747
 10
150.307556
 20
721.826477
 10
149.415955
 20
722.03064
 10
148.585861
 20
722.245178
 10
147.826508
 20
722.461731
 10
147.146683
 20
722.671448
 10
146.556625
 20
722.864929
 10
146.071487
 20
723.031921
 10
145.707733
 20
723.161865
 10
145.481766
 20
723.244446
 10
145.404633
 20
723.273071
  0
LINE
  5
17B
330
15D
100
AcDbEntity
  8
0
  6
Continuous
 62
     0
370
    30
100
AcDbLine
 10
149.404628
 20
727.273052
 30
0.0
 11
149.404628
 21
738.773052
 31
0.0
  0
LINE
  5
17C
330
15D
100
AcDbEntity
  8
0
  6
Continuous
 62
     0
370
     0
100
AcDbLine
 10
162.404628
 20
738.773052
 30
0.0
 11
149.404628
 21
738.773052
 31
0.0
  0
LINE
  5
17D
330
15D
100
AcDbEntity
  8
0
  6
Continuous
 62
     0
370
    30
100
AcDbLine
 10
161.904628
 20
739.273052
 30
0.0
 11
149.904628
 21
739.273052
 31
0.0
  0
LINE
  5
17E
330
15D
100
AcDbEntity
  8
0
  6
Continuous
 62
     0
370
    30
100
AcDbLine
 10
182.904628
 20
684.273052
 30
0.0
 11
157.804628
 21
684.273052
 31
0.0
  0
LINE
  5
17F
330
15D
100
AcDbEntity
  8
0
  6
Continuous
 62
     0
370
    30
100
AcDbLine
 10
147.604628
 20
684.273052
 30
0.0
 11
141.404628
 21
684.273052
 31
0.0
  0
LINE
  5
180
330
15D
100
AcDbEntity
  8
0
  6
Continuous
 62
     0
370
     0
100
AcDbLine
 10
141.404628
 20
723.273052
 30
0.0
 11
141.404628
 21
684.273052
 31
0.0
  0
LWPOLYLINE
  5
181
330
15D
100
AcDbEntity
  8
0
  6
Continuous
 62
     0
370
    30
100
AcDbPolyline
 90
       22
 70
     0
 43
0.0
 10
147.60463
 20
684.273071
 10
147.66214
 20
684.287903
 10
147.832092
 20
684.331116
 10
148.109222
 20
684.398926
 10
148.4888
 20
684.485413
 10
148.961212
 20
684.58313
 10
149.517685
 20
684.683777
 10
150.145966
 20
684.778625
 10
150.832321
 20
684.858826
 10
151.561874
 20
684.917053
 10
152.318359
 20
684.947754
 10
153.08432
 20
684.947876
 10
153.840958
 20
684.91748
 10
154.570801
 20
684.859436
 10
155.257629
 20
684.779419
 10
155.88652
 20
684.684631
 10
156.443649
 20
684.583984
 10
156.916733
 20
684.486206
 10
157.297241
 20
684.399597
 10
157.575241
 20
684.331604
 10
157.74614
 20
684.288147
 10
157.804626
 20
684.273071
  0
LINE
  5
182
330
15D
100
AcDbEntity
  8
0
  6
Continuous
 62
     0
370
    30
100
AcDbLine
 10
182.904628
 20
684.273052
 30
0.0
 11
182.904628
 21
723.273052
 31
0.0
  0
LINE
  5
183
330
15D
100
AcDbEntity
  8
0
  6
Continuous
 62
     0
370
    30
100
AcDbLine
 10
140.904628
 20
722.773052
 30
0.0
 11
140.904628
 21
684.773052
 31
0.0
  0
ARC
  5
184
330
15D
100
AcDbEntity
  8
0
  6
Continuous
 62
     0
370
    30
100
AcDbCircle
 10
141.404628
 20
684.773052
 30
0.0
 40
0.4999999999541416
100
AcDbArc
 50
180.0
 51
270.0
  0
ARC
  5
185
330
15D
100
AcDbEntity
  8
0
  6
Continuous
 62
     0
370
    30
100
AcDbCircle
 10
149.904628
 20
738.773052
 30
0.0
 40
0.5000000000538629
100
AcDbArc
 50
90.000081
 51
180.0
  0
LINE
  5
186
330
15D
100
AcDbEntity
  8
0
  6
Continuous
 62
     0
370
    30
100
AcDbLine
 10
198.704626
 20
663.773041
 30
0.0
 11
198.704626
 21
743.773041
 31
0.0
  0
LINE
  5
187
330
15D
100
AcDbEntity
  8
0
  6
Continuous
 62
     0
370
    30
100
AcDbLine
 10
198.704626
 20
743.773041
 30
0.0
 11
183.704626
 21
743.773041
 31
0.0
  0
LINE
  5
188
330
15D
100
AcDbEntity
  8
0
  6
Continuous
 62
     0
370
    30
100
AcDbLine
 10
183.704626
 20
743.773041
 30
0.0
 11
183.704626
 21
663.773041
 31
0.0
  0
LINE
  5
189
330
15D
100
AcDbEntity
  8
0
  6
Continuous
 62
     0
370
    30
100
AcDbLine
 10
183.704626
 20
663.773041
 30
0.0
 11
198.704626
 21
663.773041
 31
0.0
  0
LINE
  5
18A
330
15D
100
AcDbEntity
  8
0
  6
Continuous
 62
     0
370
    30
100
AcDbLine
 10
183.704628
 20
697.273041
 30
0.0
 11
182.904628
 21
697.273041
 31
0.0
  0
LINE
  5
18B
330
15D
100
AcDbEntity
  8
0
  6
Continuous
 62
     0
370
    30
100
AcDbLine
 10
183.704628
 20
710.273041
 30
0.0
 11
182.904628
 21
710.273041
 31
0.0
  0
ARC
  5
18C
330
15D
100
AcDbEntity
  8
0
  6
Continuous
 62
     0
370
    30
100
AcDbCircle
 10
161.904625
 20
738.773049
 30
0.0
 40
0.5000034422992999
100
AcDbArc
 50
0.000394
 51
89.999606
  0
ARC
  5
18D
330
15D
100
AcDbEntity
  8
0
  6
Continuous
 62
     0
370
    30
100
AcDbCircle
 10
141.404631
 20
722.77305
 30
0.0
 40
0.50000269803402
100
AcDbArc
 50
90.000309
 51
179.999691
  0
LINE
  5
18E
330
15D
100
AcDbEntity
  8
0
  6
Continuous
 62
     0
370
    30
100
AcDbLine
 10
182.904628
 20
723.273052
 30
0.0
 11
166.404622
 21
723.273052
 31
0.0
  0
LINE
  5
18F
330
15D
100
AcDbEntity
  8
0
  6
Continuous
 62
     0
370
    30
100
AcDbLine
 10
145.404628
 20
723.273052
 30
0.0
 11
141.404628
 21
723.273052
 31
0.0
  0
LINE
  5
190
330
15D
100
AcDbEntity
  8
0
  6
Continuous
 62
     0
370
    30
100
AcDbLine
 10
162.404628
 20
727.273052
 30
0.0
 11
162.404628
 21
738.773052
 31
0.0
  0
ARC
  5
191
330
15D
100
AcDbEntity
  8
0
  6
Continuous
 62
     0
370
    30
100
AcDbCircle
 10
166.404647
 20
727.273064
 30
0.0
 40
4.000019079315004
100
AcDbArc
 50
180.000171
 51
269.999643
  0
LINE
  5
192
330
15D
100
AcDbEntity
  8
0
  6
Continuous
 62
     0
370
    30
100
AcDbLine
 10
181.954643
 20
554.273048
 30
0.0
 11
181.954643
 21
573.773048
 31
0.0
  0
LINE
  5
193
330
15D
100
AcDbEntity
  8
0
  6
Continuous
 62
     0
370
    30
100
AcDbLine
 10
181.954643
 20
534.773048
 30
0.0
 11
181.954643
 21
554.273048
 31
0.0
  0
LINE
  5
194
330
15D
100
AcDbEntity
  8
0
  6
Continuous
 62
     0
370
    30
100
AcDbLine
 10
149.004656
 20
580.123047
 30
0.0
 11
149.504656
 21
580.623047
 31
0.0
  0
LWPOLYLINE
  5
195
330
15D
100
AcDbEntity
  8
0
  6
Continuous
 62
     0
370
    30
100
AcDbPolyline
 90
       16
 70
     0
 43
0.0
 10
149.504654
 20
580.623047
 10
149.570312
 20
580.623047
 10
149.781174
 20
580.623047
 10
150.145676
 20
580.623047
 10
150.651276
 20
580.623047
 10
151.264297
 20
580.623047
 10
151.937012
 20
580.623047
 10
152.61911
 20
580.623047
 10
153.280426
 20
580.623047
 10
153.962311
 20
580.623047
 10
154.635513
 20
580.623047
 10
155.249756
 20
580.623047
 10
155.757217
 20
580.623047
 10
156.123932
 20
580.623047
 10
156.337006
 20
580.623047
 10
156.404663
 20
580.623047
  0
LINE
  5
196
330
15D
100
AcDbEntity
  8
0
  6
Continuous
 62
     0
370
    30
100
AcDbLine
 10
156.904656
 20
580.123047
 30
0.0
 11
149.004656
 21
580.123047
 31
0.0
  0
LWPOLYLINE
  5
197
330
15D
100
AcDbEntity
  8
0
  6
Continuous
 62
     0
370
    30
100
AcDbPolyline
 90
       17
 70
     0
 43
0.0
 10
149.004654
 20
573.773071
 10
149.080399
 20
573.757629
 10
149.305756
 20
573.714172
 10
149.670609
 20
573.649109
 10
150.159744
 20
573.572266
 10
150.755585
 20
573.4953
 10
151.436676
 20
573.429382
 10
152.176971
 20
573.384827
 10
152.948761
 20
573.369446
 10
153.720764
 20
573.384338
 10
154.46167
 20
573.428467
 10
155.143875
 20
573.494141
 10
155.741394
 20
573.570984
 10
156.232437
 20
573.647888
 10
156.598785
 20
573.713074
 10
156.825684
 20
573.756653
 10
156.904663
 20
573.772827
  0
LINE
  5
198
330
15D
100
AcDbEntity
  8
0
  6
Continuous
 62
     0
370
    30
100
AcDbLine
 10
149.004656
 20
573.773048
 30
0.0
 11
149.004656
 21
580.123047
 31
0.0
  0
LINE
  5
199
330
15D
100
AcDbEntity
  8
0
  6
Continuous
 62
     0
370
     0
100
AcDbLine
 10
142.454643
 20
573.773048
 30
0.0
 11
142.454643
 21
554.273048
 31
0.0
  0
LINE
  5
19A
330
15D
100
AcDbEntity
  8
0
  6
Continuous
 62
     0
370
     0
100
AcDbLine
 10
142.454643
 20
554.273048
 30
0.0
 11
142.454643
 21
534.773048
 31
0.0
  0
LINE
  5
19B
330
15D
100
AcDbEntity
  8
0
  6
Continuous
 62
     0
370
    30
100
AcDbLine
 10
141.954643
 20
554.273048
 30
0.0
 11
141.954643
 21
535.273048
 31
0.0
  0
LINE
  5
19C
330
15D
100
AcDbEntity
  8
0
  6
Continuous
 62
     0
370
    30
100
AcDbLine
 10
141.954643
 20
573.273048
 30
0.0
 11
141.954643
 21
554.273048
 31
0.0
  0
LINE
  5
19D
330
15D
100
AcDbEntity
  8
0
  6
Continuous
 62
     0
370
    30
100
AcDbLine
 10
198.704625
 20
495.273041
 30
0.0
 11
198.704625
 21
612.273041
 31
0.0
  0
LINE
  5
19E
330
15D
100
AcDbEntity
  8
0
  6
Continuous
 62
     0
370
    30
100
AcDbLine
 10
198.704625
 20
612.273041
 30
0.0
 11
183.704625
 21
612.273041
 31
0.0
  0
LINE
  5
19F
330
15D
100
AcDbEntity
  8
0
  6
Continuous
 62
     0
370
    30
100
AcDbLine
 10
183.704625
 20
612.273041
 30
0.0
 11
183.704625
 21
495.273041
 31
0.0
  0
LINE
  5
1A0
330
15D
100
AcDbEntity
  8
0
  6
Continuous
 62
     0
370
    30
100
AcDbLine
 10
183.704625
 20
495.273041
 30
0.0
 11
198.704625
 21
495.273041
 31
0.0
  0
LINE
  5
1A1
330
15D
100
AcDbEntity
  8
0
  6
Continuous
 62
     0
370
    30
100
AcDbLine
 10
182.704628
 20
535.273041
 30
0.0
 11
182.704628
 21
573.273041
 31
0.0
  0
LINE
  5
1A2
330
15D
100
AcDbEntity
  8
0
  6
Continuous
 62
     0
370
    30
100
AcDbLine
 10
183.704628
 20
573.273041
 30
0.0
 11
182.704628
 21
573.273041
 31
0.0
  0
LINE
  5
1A3
330
15D
100
AcDbEntity
  8
0
  6
Continuous
 62
     0
370
    30
100
AcDbLine
 10
182.704628
 20
549.273041
 30
0.0
 11
181.954643
 21
549.273041
 31
0.0
  0
LINE
  5
1A4
330
15D
100
AcDbEntity
  8
0
  6
Continuous
 62
     0
370
    30
100
AcDbLine
 10
182.704628
 20
559.273041
 30
0.0
 11
181.954643
 21
559.273041
 31
0.0
  0
LINE
  5
1A5
330
15D
100
AcDbEntity
  8
0
  6
Continuous
 62
     0
370
    30
100
AcDbLine
 10
183.704628
 20
535.273041
 30
0.0
 11
182.704628
 21
535.273041
 31
0.0
  0
ARC
  5
1A6
330
15D
100
AcDbEntity
  8
0
  6
Continuous
 62
     0
370
    30
100
AcDbCircle
 10
142.454646
 20
535.273051
 30
0.0
 40
0.5000027559775961
100
AcDbArc
 50
180.004513
 51
269.999684
  0
ARC
  5
1A7
330
15D
100
AcDbEntity
  8
0
  6
Continuous
 62
     0
370
    30
100
AcDbCircle
 10
142.454646
 20
573.273045
 30
0.0
 40
0.500002755980296
100
AcDbArc
 50
90.000316
 51
179.995487
  0
LINE
  5
1A8
330
15D
100
AcDbEntity
  8
0
  6
Continuous
 62
     0
370
    30
100
AcDbLine
 10
181.954643
 20
534.773048
 30
0.0
 11
142.454643
 21
534.773048
 31
0.0
  0
LINE
  5
1A9
330
15D
100
AcDbEntity
  8
0
  6
Continuous
 62
     0
370
    30
100
AcDbLine
 10
181.954643
 20
573.773048
 30
0.0
 11
156.904656
 21
573.773048
 31
0.0
  0
LINE
  5
1AA
330
15D
100
AcDbEntity
  8
0
  6
Continuous
 62
     0
370
    30
100
AcDbLine
 10
149.004656
 20
573.773048
 30
0.0
 11
142.454643
 21
573.773048
 31
0.0
  0
LINE
  5
1AB
330
15D
100
AcDbEntity
  8
0
  6
Continuous
 62
     0
370
    30
100
AcDbLine
 10
156.904656
 20
580.123047
 30
0.0
 11
156.904656
 21
573.7728
 31
0.0
  0
LINE
  5
1AC
330
15D
100
AcDbEntity
  8
0
  6
Continuous
 62
     0
370
    30
100
AcDbLine
 10
156.904656
 20
580.123047
 30
0.0
 11
156.404656
 21
580.623047
 31
0.0
  0
ENDBLK
  5
1AE
330
15D
100
AcDbEntity
  8
0
100
AcDbBlockEnd
  0
ENDSEC
  0
SECTION
  2
ENTITIES
  0
INSERT
  5
83
330
1F
100
AcDbEntity
  8
0
  6
Continuous
 62
   250
370
     0
100
AcDbBlockReference
  2
a
 10
296.672394
 20
181.477646
 30
0.0
  0
INSERT
  5
A5
330
1F
100
AcDbEntity
  8
0
  6
Continuous
 62
   250
370
     0
100
AcDbBlockReference
  2
b
 10
296.672394
 20
220.010529
 30
0.0
  0
INSERT
  5
F8
330
1F
100
AcDbEntity
  8
0
  6
Continuous
 62
   250
370
     0
100
AcDbBlockReference
  2
c
 10
344.083405
 20
181.477585
 30
0.0
  0
INSERT
  5
15C
330
1F
100
AcDbEntity
  8
0
  6
Continuous
 62
   250
370
     0
100
AcDbBlockReference
  2
d
 10
164.321442
 20
168.666428
 30
0.0
  0
INSERT
  5
1AF
330
1F
100
AcDbEntity
  8
0
  6
Continuous
 62
   250
370
     0
100
AcDbBlockReference
  2
e
 10
243.511871
 20
0.0
 30
0.0
  0
ENDSEC
  0
SECTION
  2
OBJECTS
  0
DICTIONARY
  5
C
330
0
100
AcDbDictionary
281
     1
  3
ACAD_GROUP
350
D
  3
ACAD_LAYOUT
350
1A
  3
ACAD_MLEADERSTYLE
350
1B2
  3
ACAD_MLINESTYLE
350
17
  3
ACAD_PLOTSETTINGS
350
19
  3
ACAD_PLOTSTYLENAME
350
E
  3
ACAD_VISUALSTYLE
350
2A
  3
AcDbVariableDictionary
350
1B0
  0
DICTIONARY
  5
D
102
{ACAD_REACTORS
330
C
102
}
330
C
100
AcDbDictionary
281
     1
  0
DICTIONARY
  5
1A
102
{ACAD_REACTORS
330
C
102
}
330
C
100
AcDbDictionary
281
     1
  3
Layout1
350
1E
  3
Layout2
350
26
  3
Model
350
22
  0
DICTIONARY
  5
1B2
102
{ACAD_REACTORS
330
C
102
}
330
C
100
AcDbDictionary
281
     1
  0
DICTIONARY
  5
17
102
{ACAD_REACTORS
330
C
102
}
330
C
100
AcDbDictionary
281
     1
  3
Standard
350
18
  0
DICTIONARY
  5
19
102
{ACAD_REACTORS
330
C
102
}
330
C
100
AcDbDictionary
281
     1
  0
ACDBDICTIONARYWDFLT
  5
E
102
{ACAD_REACTORS
330
C
102
}
330
C
100
AcDbDictionary
281
     1
  3
Normal
350
F
100
AcDbDictionaryWithDefault
340
F
  0
DICTIONARY
  5
2A
102
{ACAD_REACTORS
330
C
102
}
330
C
100
AcDbDictionary
281
     1
  3
2dWireframe
350
2F
  3
3D Hidden
350
31
  3
3dWireframe
350
30
  3
Basic
350
32
  3
Brighten
350
36
  3
ColorChange
350
3A
  3
Conceptual
350
34
  3
Dim
350
35
  3
Facepattern
350
39
  3
Flat
350
2B
  3
FlatWithEdges
350
2C
  3
Gouraud
350
2D
  3
GouraudWithEdges
350
2E
  3
Linepattern
350
38
  3
Realistic
350
33
  3
Thicken
350
37
  0
DICTIONARY
  5
1B0
102
{ACAD_REACTORS
330
C
102
}
330
C
100
AcDbDictionary
281
     1
  3
PSOLHEIGHT
350
1B4
  3
PSOLWIDTH
350
1B3
  0
LAYOUT
  5
1E
102
{ACAD_REACTORS
330
1A
102
}
330
1A
100
AcDbPlotSettings
  1

  2
none_device
  4

  6

 40
0.0
 41
0.0
 42
0.0
 43
0.0
 44
0.0
 45
0.0
 46
0.0
 47
0.0
 48
0.0
 49
0.0
140
0.0
141
0.0
142
1.0
143
1.0
 70
   688
 72
     0
 73
     0
 74
     5
  7

 75
    16
147
1.0
148
0.0
149
0.0
100
AcDbLayout
  1
Layout1
 70
     1
 71
     1
 10
0.0
 20
0.0
 11
420.0
 21
297.0
 12
0.0
 22
0.0
 32
0.0
 14
1.000000E+20
 24
1.000000E+20
 34
1.000000E+20
 15
-1.000000E+20
 25
-1.000000E+20
 35
-1.000000E+20
146
0.0
 13
0.0
 23
0.0
 33
0.0
 16
1.0
 26
0.0
 36
0.0
 17
0.0
 27
1.0
 37
0.0
 76
     0
330
1B
  0
LAYOUT
  5
26
102
{ACAD_REACTORS
330
1A
102
}
330
1A
100
AcDbPlotSettings
  1

  2
none_device
  4

  6

 40
0.0
 41
0.0
 42
0.0
 43
0.0
 44
0.0
 45
0.0
 46
0.0
 47
0.0
 48
0.0
 49
0.0
140
0.0
141
0.0
142
1.0
143
1.0
 70
   688
 72
     0
 73
     0
 74
     5
  7

 75
    16
147
1.0
148
0.0
149
0.0
100
AcDbLayout
  1
Layout2
 70
     1
 71
     2
 10
0.0
 20
0.0
 11
0.0
 21
0.0
 12
0.0
 22
0.0
 32
0.0
 14
0.0
 24
0.0
 34
0.0
 15
0.0
 25
0.0
 35
0.0
146
0.0
 13
0.0
 23
0.0
 33
0.0
 16
1.0
 26
0.0
 36
0.0
 17
0.0
 27
1.0
 37
0.0
 76
     0
330
23
  0
LAYOUT
  5
22
102
{ACAD_REACTORS
330
1A
102
}
330
1A
100
AcDbPlotSettings
  1

  2
none_device
  4

  6

 40
0.0
 41
0.0
 42
0.0
 43
0.0
 44
0.0
 45
0.0
 46
0.0
 47
0.0
 48
0.0
 49
0.0
140
0.0
141
0.0
142
1.0
143
1.0
 70
  1712
 72
     0
 73
     0
 74
     0
  7

 75
     0
147
1.0
148
0.0
149
0.0
100
AcDbLayout
  1
Model
 70
     1
 71
     0
 10
140.904633
 20
51.542625
 11
639.264893
 21
843.773071
 12
0.0
 22
0.0
 32
0.0
 14
140.904633
 24
51.542625
 34
0.0
 15
639.264893
 25
843.773071
 35
0.0
146
0.0
 13
0.0
 23
0.0
 33
0.0
 16
1.0
 26
0.0
 36
0.0
 17
0.0
 27
1.0
 37
0.0
 76
     0
330
1F
331
29
  0
MLINESTYLE
  5
18
102
{ACAD_REACTORS
330
17
102
}
330
17
100
AcDbMlineStyle
  2
Standard
 70
     0
  3

 62
   256
 51
90.0
 52
90.0
 71
     2
 49
0.5
 62
   256
  6
BYLAYER
 49
-0.5
 62
   256
  6
BYLAYER
  0
ACDBPLACEHOLDER
  5
F
102
{ACAD_REACTORS
330
E
102
}
330
E
  0
VISUALSTYLE
  5
2F
102
{ACAD_REACTORS
330
2A
102
}
330
2A
100
AcDbVisualStyle
  2
2dWireframe
 70
     4
 71
     0
 72
     2
 73
     0
 90
        0
 40
-0.6
 41
-30.0
 62
     5
 63
     7
 74
     1
 91
        4
 64
     7
 65
   257
 75
     1
175
     1
 42
1.0
 92
        0
 66
   257
 43
1.0
 76
     1
 77
     6
 78
     2
 67
     7
 79
     5
170
     0
171
     0
290
     0
174
     0
 93
        1
 44
0.0
173
     0
291
     0
 45
0.0
1001
ACAD
1000
AcDbSavedByObjectVersion
1070
     0
  0
VISUALSTYLE
  5
31
102
{ACAD_REACTORS
330
2A
102
}
330
2A
100
AcDbVisualStyle
  2
3D Hidden
 70
     6
 71
     1
 72
     2
 73
     2
 90
        0
 40
-0.6
 41
-30.0
 62
     5
 63
     7
 74
     2
 91
        2
 64
     7
 65
   257
 75
     2
175
     1
 42
40.0
 92
        0
 66
   257
 43
1.0
 76
     1
 77
     6
 78
     2
 67
     7
 79
     3
170
     0
171
     0
290
     0
174
     0
 93
        1
 44
0.0
173
     0
291
     0
 45
0.0
1001
ACAD
1000
AcDbSavedByObjectVersion
1070
     0
  0
VISUALSTYLE
  5
30
102
{ACAD_REACTORS
330
2A
102
}
330
2A
100
AcDbVisualStyle
  2
3dWireframe
 70
     5
 71
     0
 72
     2
 73
     0
 90
        0
 40
-0.6
 41
-30.0
 62
     5
 63
     7
 74
     1
 91
        4
 64
     7
 65
   257
 75
     1
175
     1
 42
1.0
 92
        0
 66
   257
 43
1.0
 76
     1
 77
     6
 78
     2
 67
     7
 79
     5
170
     0
171
     0
290
     0
174
     0
 93
        1
 44
0.0
173
     0
291
     0
 45
0.0
1001
ACAD
1000
AcDbSavedByObjectVersion
1070
     0
  0
VISUALSTYLE
  5
32
102
{ACAD_REACTORS
330
2A
102
}
330
2A
100
AcDbVisualStyle
  2
Basic
 70
     7
 71
     1
 72
     0
 73
     1
 90
        0
 40
-0.6
 41
-30.0
 62
     5
 63
     7
 74
     0
 91
        4
 64
     7
 65
   257
 75
     1
175
     1
 42
1.0
 92
        8
 66
     7
 43
1.0
 76
     1
 77
     6
 78
     2
 67
     7
 79
     5
170
     0
171
     0
290
     0
174
     0
 93
        1
 44
0.0
173
     0
291
     1
 45
0.0
1001
ACAD
1000
AcDbSavedByObjectVersion
1070
     0
  0
VISUALSTYLE
  5
36
102
{ACAD_REACTORS
330
2A
102
}
330
2A
100
AcDbVisualStyle
  2
Brighten
 70
    12
 71
     2
 72
     2
 73
     0
 90
        0
 40
-0.6
 41
-30.0
 62
     5
 63
     7
 74
     1
 91
        4
 64
     7
 65
   257
 75
     1
175
     1
 42
1.0
 92
        8
 66
     7
 43
1.0
 76
     1
 77
     6
 78
     2
 67
     7
 79
     5
170
     0
171
     0
290
     0
174
     0
 93
        1
 44
50.0
173
     0
291
     1
 45
0.0
1001
ACAD
1000
AcDbSavedByObjectVersion
1070
     0
  0
VISUALSTYLE
  5
3A
102
{ACAD_REACTORS
330
2A
102
}
330
2A
100
AcDbVisualStyle
  2
ColorChange
 70
    16
 71
     2
 72
     2
 73
     3
 90
        0
 40
-0.6
 41
-30.0
 62
     5
 63
     8
 74
     1
 91
        4
 64
     7
 65
   257
 75
     1
175
     1
 42
1.0
 92
        8
 66
     8
 43
1.0
 76
     1
 77
     6
 78
     2
 67
     7
 79
     5
170
     0
171
     0
290
     0
174
     0
 93
        1
 44
0.0
173
     0
291
     1
 45
0.0
1001
ACAD
1000
AcDbSavedByObjectVersion
1070
     0
  0
VISUALSTYLE
  5
34
102
{ACAD_REACTORS
330
2A
102
}
330
2A
100
AcDbVisualStyle
  2
Conceptual
 70
     9
 71
     3
 72
     2
 73
     0
 90
        0
 40
-0.6
 41
-30.0
 62
     5
 63
     7
 74
     2
 91
        2
 64
     7
 65
   257
 75
     1
175
     1
 42
40.0
 92
        8
 66
     7
 43
1.0
 76
     1
 77
     6
 78
     2
 67
     7
 79
     3
170
     0
171
     0
290
     0
174
     0
 93
        1
 44
0.0
173
     0
291
     0
 45
0.0
1001
ACAD
1000
AcDbSavedByObjectVersion
1070
     0
  0
VISUALSTYLE
  5
35
102
{ACAD_REACTORS
330
2A
102
}
330
2A
100
AcDbVisualStyle
  2
Dim
 70
    11
 71
     2
 72
     2
 73
     0
 90
        0
 40
-0.6
 41
-30.0
 62
     5
 63
     7
 74
     1
 91
        4
 64
     7
 65
   257
 75
     1
175
     1
 42
1.0
 92
        8
 66
     7
 43
1.0
 76
     1
 77
     6
 78
     2
 67
     7
 79
     5
170
     0
171
     0
290
     0
174
     0
 93
        1
 44
-50.0
173
     0
291
     1
 45
0.0
1001
ACAD
1000
AcDbSavedByObjectVersion
1070
     0
  0
VISUALSTYLE
  5
39
102
{ACAD_REACTORS
330
2A
102
}
330
2A
100
AcDbVisualStyle
  2
Facepattern
 70
    15
 71
     2
 72
     2
 73
     0
 90
        0
 40
-0.6
 41
-30.0
 62
     5
 63
     7
 74
     1
 91
        4
 64
     7
 65
   257
 75
     1
175
     1
 42
1.0
 92
        8
 66
     7
 43
1.0
 76
     1
 77
     6
 78
     2
 67
     7
 79
     5
170
     0
171
     0
290
     0
174
     0
 93
        1
 44
0.0
173
     0
291
     1
 45
0.0
1001
ACAD
1000
AcDbSavedByObjectVersion
1070
     0
  0
VISUALSTYLE
  5
2B
102
{ACAD_REACTORS
330
2A
102
}
330
2A
100
AcDbVisualStyle
  2
Flat
 70
     0
 71
     2
 72
     1
 73
     1
 90
        2
 40
-0.6
 41
30.0
 62
     5
 63
     7
 74
     0
 91
        4
 64
     7
 65
   257
 75
     1
175
     1
 42
1.0
 92
        8
 66
     7
 43
1.0
 76
     1
 77
     6
 78
     2
 67
     7
 79
     5
170
     0
171
     0
290
     0
174
     0
 93
       13
 44
0.0
173
     0
291
     1
 45
0.0
1001
ACAD
1000
AcDbSavedByObjectVersion
1070
     0
  0
VISUALSTYLE
  5
2C
102
{ACAD_REACTORS
330
2A
102
}
330
2A
100
AcDbVisualStyle
  2
FlatWithEdges
 70
     1
 71
     2
 72
     1
 73
     1
 90
        2
 40
-0.6
 41
30.0
 62
     5
 63
     7
 74
     1
 91
        4
 64
     7
 65
   257
 75
     1
175
     1
 42
1.0
 92
        0
 66
   257
 43
1.0
 76
     1
 77
     6
 78
     2
 67
     7
 79
     5
170
     0
171
     0
290
     0
174
     0
 93
       13
 44
0.0
173
     0
291
     1
 45
0.0
1001
ACAD
1000
AcDbSavedByObjectVersion
1070
     0
  0
VISUALSTYLE
  5
2D
102
{ACAD_REACTORS
330
2A
102
}
330
2A
100
AcDbVisualStyle
  2
Gouraud
 70
     2
 71
     2
 72
     2
 73
     1
 90
        2
 40
-0.6
 41
30.0
 62
     5
 63
     7
 74
     0
 91
        4
 64
     7
 65
   257
 75
     1
175
     1
 42
1.0
 92
        0
 66
     7
 43
1.0
 76
     1
 77
     6
 78
     2
 67
     7
 79
     5
170
     0
171
     0
290
     0
174
     0
 93
       13
 44
0.0
173
     0
291
     1
 45
0.0
1001
ACAD
1000
AcDbSavedByObjectVersion
1070
     0
  0
VISUALSTYLE
  5
2E
102
{ACAD_REACTORS
330
2A
102
}
330
2A
100
AcDbVisualStyle
  2
GouraudWithEdges
 70
     3
 71
     2
 72
     2
 73
     1
 90
        2
 40
-0.6
 41
30.0
 62
     5
 63
     7
 74
     1
 91
        4
 64
     7
 65
   257
 75
     1
175
     1
 42
1.0
 92
        0
 66
   257
 43
1.0
 76
     1
 77
     6
 78
     2
 67
     7
 79
     5
170
     0
171
     0
290
     0
174
     0
 93
       13
 44
0.0
173
     0
291
     1
 45
0.0
1001
ACAD
1000
AcDbSavedByObjectVersion
1070
     0
  0
VISUALSTYLE
  5
38
102
{ACAD_REACTORS
330
2A
102
}
330
2A
100
AcDbVisualStyle
  2
Linepattern
 70
    14
 71
     2
 72
     2
 73
     0
 90
        0
 40
-0.6
 41
-30.0
 62
     5
 63
     7
 74
     1
 91
        4
 64
     7
 65
   257
 75
     7
175
     7
 42
1.0
 92
        8
 66
     7
 43
1.0
 76
     1
 77
     6
 78
     2
 67
     7
 79
     5
170
     0
171
     0
290
     0
174
     0
 93
        1
 44
0.0
173
     0
291
     1
 45
0.0
1001
ACAD
1000
AcDbSavedByObjectVersion
1070
     0
  0
VISUALSTYLE
  5
33
102
{ACAD_REACTORS
330
2A
102
}
330
2A
100
AcDbVisualStyle
  2
Realistic
 70
     8
 71
     2
 72
     2
 73
     0
 90
        0
 40
-0.6
 41
-30.0
 62
     5
 63
     7
 74
     1
 91
        0
 64
     7
 65
   257
 75
     1
175
     1
 42
1.0
 92
        8
 66
     8
 43
1.0
 76
     1
 77
     6
 78
     2
 67
     7
 79
     5
170
     0
171
     0
290
     0
174
     0
 93
       13
 44
0.0
173
     0
291
     0
 45
0.0
1001
ACAD
1000
AcDbSavedByObjectVersion
1070
     0
  0
VISUALSTYLE
  5
37
102
{ACAD_REACTORS
330
2A
102
}
330
2A
100
AcDbVisualStyle
  2
Thicken
 70
    13
 71
     2
 72
     2
 73
     0
 90
        0
 40
-0.6
 41
-30.0
 62
     5
 63
     7
 74
     1
 91
        4
 64
     7
 65
   257
 75
     1
175
     1
 42
1.0
 92
       12
 66
     7
 43
1.0
 76
     1
 77
     6
 78
     2
 67
     7
 79
     5
170
     0
171
     0
290
     0
174
     0
 93
        1
 44
0.0
173
     0
291
     1
 45
0.0
1001
ACAD
1000
AcDbSavedByObjectVersion
1070
     0
  0
DICTIONARYVAR
  5
1B4
102
{ACAD_REACTORS
330
1B0
102
}
330
1B0
100
DictionaryVariables
280
     0
  1
80.000000
  0
DICTIONARYVAR
  5
1B3
102
{ACAD_REACTORS
330
1B0
102
}
330
1B0
100
DictionaryVariables
280
     0
  1
5.000000
  0
ENDSEC
  0
EOF
