  0
SECTION
  2
HEADER
  9
$ACADVER
  1
AC1015
  9
$ACADMAINTVER
 70
    13
  9
$DWGCODEPAGE
  3
ANSI_1252
  9
$INSBASE
 10
0.0
 20
0.0
 30
0.0
  9
$EXTMIN
 10
-139.432159423828
 20
312.2705821990967
 30
0.0
  9
$EXTMAX
 10
328.8473815321921
 20
849.9412841929016
 30
0.0
  9
$LIMMIN
 10
-145.4321594238281
 20
304.3805847167968
  9
$LIMMAX
 10
328.8473815917968
 20
866.284423828125
  9
$ORTHOMODE
 70
     0
  9
$REGENMODE
 70
     1
  9
$FILLMODE
 70
     1
  9
$QTEXTMODE
 70
     0
  9
$MIRRTEXT
 70
     1
  9
$LTSCALE
 40
1.0
  9
$ATTMODE
 70
     1
  9
$TEXTSIZE
 40
2.5
  9
$TRACEWID
 40
1.0
  9
$TEXTSTYLE
  7
Standard
  9
$CLAYER
  8
0
  9
$CELTYPE
  6
ByLayer
  9
$CECOLOR
 62
   256
  9
$CELTSCALE
 40
1.0
  9
$DISPSILH
 70
     0
  9
$DIMSCALE
 40
1.0
  9
$DIMASZ
 40
2.5
  9
$DIMEXO
 40
0.625
  9
$DIMDLI
 40
3.75
  9
$DIMRND
 40
0.0
  9
$DIMDLE
 40
0.0
  9
$DIMEXE
 40
1.25
  9
$DIMTP
 40
0.0
  9
$DIMTM
 40
0.0
  9
$DIMTXT
 40
2.5
  9
$DIMCEN
 40
2.5
  9
$DIMTSZ
 40
0.0
  9
$DIMTOL
 70
     0
  9
$DIMLIM
 70
     0
  9
$DIMTIH
 70
     0
  9
$DIMTOH
 70
     0
  9
$DIMSE1
 70
     0
  9
$DIMSE2
 70
     0
  9
$DIMTAD
 70
     1
  9
$DIMZIN
 70
     8
  9
$DIMBLK
  1

  9
$DIMASO
 70
     1
  9
$DIMSHO
 70
     1
  9
$DIMPOST
  1

  9
$DIMAPOST
  1

  9
$DIMALT
 70
     0
  9
$DIMALTD
 70
     3
  9
$DIMALTF
 40
0.03937007874016
  9
$DIMLFAC
 40
1.0
  9
$DIMTOFL
 70
     1
  9
$DIMTVP
 40
0.0
  9
$DIMTIX
 70
     0
  9
$DIMSOXD
 70
     0
  9
$DIMSAH
 70
     0
  9
$DIMBLK1
  1

  9
$DIMBLK2
  1

  9
$DIMSTYLE
  2
ISO-25
  9
$DIMCLRD
 70
     0
  9
$DIMCLRE
 70
     0
  9
$DIMCLRT
 70
     0
  9
$DIMTFAC
 40
1.0
  9
$DIMGAP
 40
0.625
  9
$DIMJUST
 70
     0
  9
$DIMSD1
 70
     0
  9
$DIMSD2
 70
     0
  9
$DIMTOLJ
 70
     0
  9
$DIMTZIN
 70
     8
  9
$DIMALTZ
 70
     0
  9
$DIMALTTZ
 70
     0
  9
$DIMUPT
 70
     0
  9
$DIMDEC
 70
     2
  9
$DIMTDEC
 70
     2
  9
$DIMALTU
 70
     2
  9
$DIMALTTD
 70
     3
  9
$DIMTXSTY
  7
Standard
  9
$DIMAUNIT
 70
     0
  9
$DIMADEC
 70
     0
  9
$DIMALTRND
 40
0.0
  9
$DIMAZIN
 70
     0
  9
$DIMDSEP
 70
    44
  9
$DIMATFIT
 70
     3
  9
$DIMFRAC
 70
     0
  9
$DIMLDRBLK
  1

  9
$DIMLUNIT
 70
     2
  9
$DIMLWD
 70
    -2
  9
$DIMLWE
 70
    -2
  9
$DIMTMOVE
 70
     0
  9
$LUNITS
 70
     2
  9
$LUPREC
 70
     4
  9
$SKETCHINC
 40
1.0
  9
$FILLETRAD
 40
10.0
  9
$AUNITS
 70
     0
  9
$AUPREC
 70
     0
  9
$MENU
  1
.
  9
$ELEVATION
 40
0.0
  9
$PELEVATION
 40
0.0
  9
$THICKNESS
 40
0.0
  9
$LIMCHECK
 70
     0
  9
$CHAMFERA
 40
10.0
  9
$CHAMFERB
 40
10.0
  9
$CHAMFERC
 40
20.0
  9
$CHAMFERD
 40
0.0
  9
$SKPOLY
 70
     0
  9
$TDCREATE
 40
2455520.488564305
  9
$TDUCREATE
 40
2455520.446897639
  9
$TDUPDATE
 40
2455523.591693310
  9
$TDUUPDATE
 40
2455523.550026643
  9
$TDINDWG
 40
0.0002584375
  9
$TDUSRTIMER
 40
0.0002584375
  9
$USRTIMER
 70
     1
  9
$ANGBASE
 50
0.0
  9
$ANGDIR
 70
     0
  9
$PDMODE
 70
     0
  9
$PDSIZE
 40
0.0
  9
$PLINEWID
 40
0.0
  9
$SPLFRAME
 70
     0
  9
$SPLINETYPE
 70
     6
  9
$SPLINESEGS
 70
     8
  9
$HANDSEED
  5
163
  9
$SURFTAB1
 70
     6
  9
$SURFTAB2
 70
     6
  9
$SURFTYPE
 70
     6
  9
$SURFU
 70
     6
  9
$SURFV
 70
     6
  9
$UCSBASE
  2

  9
$UCSNAME
  2

  9
$UCSORG
 10
0.0
 20
0.0
 30
0.0
  9
$UCSXDIR
 10
1.0
 20
0.0
 30
0.0
  9
$UCSYDIR
 10
0.0
 20
1.0
 30
0.0
  9
$UCSORTHOREF
  2

  9
$UCSORTHOVIEW
 70
     0
  9
$UCSORGTOP
 10
0.0
 20
0.0
 30
0.0
  9
$UCSORGBOTTOM
 10
0.0
 20
0.0
 30
0.0
  9
$UCSORGLEFT
 10
0.0
 20
0.0
 30
0.0
  9
$UCSORGRIGHT
 10
0.0
 20
0.0
 30
0.0
  9
$UCSORGFRONT
 10
0.0
 20
0.0
 30
0.0
  9
$UCSORGBACK
 10
0.0
 20
0.0
 30
0.0
  9
$PUCSBASE
  2

  9
$PUCSNAME
  2

  9
$PUCSORG
 10
0.0
 20
0.0
 30
0.0
  9
$PUCSXDIR
 10
1.0
 20
0.0
 30
0.0
  9
$PUCSYDIR
 10
0.0
 20
1.0
 30
0.0
  9
$PUCSORTHOREF
  2

  9
$PUCSORTHOVIEW
 70
     0
  9
$PUCSORGTOP
 10
0.0
 20
0.0
 30
0.0
  9
$PUCSORGBOTTOM
 10
0.0
 20
0.0
 30
0.0
  9
$PUCSORGLEFT
 10
0.0
 20
0.0
 30
0.0
  9
$PUCSORGRIGHT
 10
0.0
 20
0.0
 30
0.0
  9
$PUCSORGFRONT
 10
0.0
 20
0.0
 30
0.0
  9
$PUCSORGBACK
 10
0.0
 20
0.0
 30
0.0
  9
$USERI1
 70
     0
  9
$USERI2
 70
     0
  9
$USERI3
 70
     0
  9
$USERI4
 70
     0
  9
$USERI5
 70
     0
  9
$USERR1
 40
0.0
  9
$USERR2
 40
0.0
  9
$USERR3
 40
0.0
  9
$USERR4
 40
0.0
  9
$USERR5
 40
0.0
  9
$WORLDVIEW
 70
     1
  9
$SHADEDGE
 70
     3
  9
$SHADEDIF
 70
    70
  9
$TILEMODE
 70
     1
  9
$MAXACTVP
 70
    64
  9
$PINSBASE
 10
0.0
 20
0.0
 30
0.0
  9
$PLIMCHECK
 70
     0
  9
$PEXTMIN
 10
1.000000000000000E+20
 20
1.000000000000000E+20
 30
1.000000000000000E+20
  9
$PEXTMAX
 10
-1.000000000000000E+20
 20
-1.000000000000000E+20
 30
-1.000000000000000E+20
  9
$PLIMMIN
 10
0.0
 20
0.0
  9
$PLIMMAX
 10
420.0
 20
297.0
  9
$UNITMODE
 70
     0
  9
$VISRETAIN
 70
     1
  9
$PLINEGEN
 70
     0
  9
$PSLTSCALE
 70
     1
  9
$TREEDEPTH
 70
  3020
  9
$CMLSTYLE
  2
Standard
  9
$CMLJUST
 70
     0
  9
$CMLSCALE
 40
20.0
  9
$PROXYGRAPHICS
 70
     1
  9
$MEASUREMENT
 70
     1
  9
$CELWEIGHT
370
    -1
  9
$ENDCAPS
280
     0
  9
$JOINSTYLE
280
     0
  9
$LWDISPLAY
290
     0
  9
$INSUNITS
 70
     4
  9
$HYPERLINKBASE
  1

  9
$STYLESHEET
  1

  9
$XEDIT
290
     1
  9
$CEPSNTYPE
380
     0
  9
$PSTYLEMODE
290
     1
  9
$FINGERPRINTGUID
  2
{310F0A51-36E4-4FE6-A1CC-4793D7812E35}
  9
$VERSIONGUID
  2
{E9AB6F44-83BF-49DC-AB75-F05D64CE810D}
  9
$EXTNAMES
290
     1
  9
$PSVPSCALE
 40
0.0
  9
$OLESTARTUP
290
     0
  0
ENDSEC
  0
SECTION
  2
CLASSES
  0
CLASS
  1
ACDBDICTIONARYWDFLT
  2
AcDbDictionaryWithDefault
  3
AutoCAD 2000
 90
        0
280
     0
281
     0
  0
CLASS
  1
VISUALSTYLE
  2
AcDbVisualStyle
  3
ObjectDBX Classes
 90
     4095
280
     0
281
     0
  0
CLASS
  1
DICTIONARYVAR
  2
AcDbDictionaryVar
  3
AutoCAD 2000
 90
        0
280
     0
281
     0
  0
CLASS
  1
ACDBPLACEHOLDER
  2
AcDbPlaceHolder
  3
AutoCAD 2000
 90
        0
280
     0
281
     0
  0
CLASS
  1
LAYOUT
  2
AcDbLayout
  3
AutoCAD 2000
 90
        0
280
     0
281
     0
  0
ENDSEC
  0
SECTION
  2
TABLES
  0
TABLE
  2
VPORT
  5
8
330
0
100
AcDbSymbolTable
 70
     2
  0
VPORT
  5
162
330
8
100
AcDbSymbolTableRecord
100
AcDbViewportTableRecord
  2
*Active
 70
     0
 10
0.0
 20
0.0
 11
1.0
 21
1.0
 12
94.71093875305076
 22
581.1098242897831
 13
0.0
 23
0.0
 14
10.0
 24
10.0
 15
10.0
 25
10.0
 16
0.0
 26
0.0
 36
1.0
 17
0.0
 27
0.0
 37
0.0
 40
541.0530648577281
 41
1.906832298136646
 42
50.0
 43
0.0
 44
0.0
 50
0.0
 51
0.0
 71
     0
 72
   100
 73
     1
 74
     3
 75
     0
 76
     0
 77
     0
 78
     0
281
     0
 65
     1
110
0.0
120
0.0
130
0.0
111
1.0
121
0.0
131
0.0
112
0.0
122
1.0
132
0.0
 79
     0
146
0.0
  0
ENDTAB
  0
TABLE
  2
LTYPE
  5
5
330
0
100
AcDbSymbolTable
 70
     1
  0
LTYPE
  5
14
330
5
100
AcDbSymbolTableRecord
100
AcDbLinetypeTableRecord
  2
ByBlock
 70
     0
  3

 72
    65
 73
     0
 40
0.0
  0
LTYPE
  5
15
330
5
100
AcDbSymbolTableRecord
100
AcDbLinetypeTableRecord
  2
ByLayer
 70
     0
  3

 72
    65
 73
     0
 40
0.0
  0
LTYPE
  5
16
330
5
100
AcDbSymbolTableRecord
100
AcDbLinetypeTableRecord
  2
Continuous
 70
     0
  3
Solid line
 72
    65
 73
     0
 40
0.0
  0
ENDTAB
  0
TABLE
  2
LAYER
  5
2
330
0
100
AcDbSymbolTable
 70
     1
  0
LAYER
  5
10
330
2
100
AcDbSymbolTableRecord
100
AcDbLayerTableRecord
  2
0
 70
     0
 62
   106
  6
Continuous
370
     0
390
F
  0
ENDTAB
  0
TABLE
  2
STYLE
  5
3
330
0
100
AcDbSymbolTable
 70
     4
  0
STYLE
  5
11
330
3
100
AcDbSymbolTableRecord
100
AcDbTextStyleTableRecord
  2
Standard
 70
     0
 40
0.0
 41
1.0
 50
0.0
 71
     0
 42
2.5
  3
txt
  4

  0
STYLE
  5
3B
330
3
100
AcDbSymbolTableRecord
100
AcDbTextStyleTableRecord
  2
Default
 70
     0
 40
0.0
 41
1.0
 50
0.0
 71
     0
 42
0.2
  3
txt_____.ttf
  4

1001
ACAD
1000
txt
1071
        0
  0
STYLE
  5
3C
330
3
100
AcDbSymbolTableRecord
100
AcDbTextStyleTableRecord
  2
ISO
 70
     0
 40
0.0
 41
1.0
 50
0.0
 71
     0
 42
0.2
  3
txt_____.ttf
  4

1001
ACAD
1000
txt
1071
        0
  0
STYLE
  5
3D
330
3
100
AcDbSymbolTableRecord
100
AcDbTextStyleTableRecord
  2
GIANLU
 70
     0
 40
0.0
 41
1.0
 50
0.0
 71
     0
 42
0.2
  3
ARIAL.TTF
  4

1001
ACAD
1000
Arial
1071
        0
  0
ENDTAB
  0
TABLE
  2
VIEW
  5
6
330
0
100
AcDbSymbolTable
 70
     0
  0
ENDTAB
  0
TABLE
  2
UCS
  5
7
330
0
100
AcDbSymbolTable
 70
     0
  0
ENDTAB
  0
TABLE
  2
APPID
  5
9
330
0
100
AcDbSymbolTable
 70
     1
  0
APPID
  5
12
330
9
100
AcDbSymbolTableRecord
100
AcDbRegAppTableRecord
  2
ACAD
 70
     0
  0
ENDTAB
  0
TABLE
  2
DIMSTYLE
  5
A
330
0
100
AcDbSymbolTable
 70
     4
100
AcDbDimStyleTable
 71
     0
  0
DIMSTYLE
105
27
330
A
100
AcDbSymbolTableRecord
100
AcDbDimStyleTableRecord
  2
ISO-25
 70
     0
 41
2.5
 42
0.625
 43
3.75
 44
1.25
 73
     0
 74
     0
 77
     1
 78
     8
140
2.5
141
2.5
143
0.03937007874016
147
0.625
171
     3
172
     1
271
     2
272
     2
274
     3
278
    44
283
     0
284
     8
340
11
  0
DIMSTYLE
105
3E
330
A
100
AcDbSymbolTableRecord
100
AcDbDimStyleTableRecord
  2
Default
 70
     0
  3
<>
 41
4.375
 42
1.05
 44
2.1
 73
     0
 74
     0
 77
     1
 78
     8
140
3.5
146
0.4
147
1.75
178
     3
271
     2
272
     3
284
     8
340
3B
341
3F
342
3F
  0
DIMSTYLE
105
46
330
A
100
AcDbSymbolTableRecord
100
AcDbDimStyleTableRecord
  2
ISO
 70
     0
  3
<>
 41
4.375
 42
1.05
 44
2.1
 73
     0
 74
     0
 77
     1
 78
     8
140
3.5
146
0.4
147
1.75
178
     3
271
     2
272
     3
284
     8
340
3C
341
3F
342
3F
  0
DIMSTYLE
105
47
330
A
100
AcDbSymbolTableRecord
100
AcDbDimStyleTableRecord
  2
zucchetti_unico
 70
     0
  3
<>
 41
3.0
 42
0.9
 44
1.799999999999999
 73
     0
 74
     0
 77
     1
 78
     8
140
3.0
146
0.6
147
1.5
176
   104
177
     3
178
     3
271
     2
272
     2
284
     8
340
3D
  0
ENDTAB
  0
TABLE
  2
BLOCK_RECORD
  5
1
330
0
100
AcDbSymbolTable
 70
     6
  0
BLOCK_RECORD
  5
1F
330
1
100
AcDbSymbolTableRecord
100
AcDbBlockTableRecord
  2
*Model_Space
340
22
  0
BLOCK_RECORD
  5
1B
330
1
100
AcDbSymbolTableRecord
100
AcDbBlockTableRecord
  2
*Paper_Space
340
1E
  0
BLOCK_RECORD
  5
23
330
1
100
AcDbSymbolTableRecord
100
AcDbBlockTableRecord
  2
*Paper_Space0
340
26
  0
BLOCK_RECORD
  5
3F
330
1
100
AcDbSymbolTableRecord
100
AcDbBlockTableRecord
  2
_CLOSED
340
0
  0
BLOCK_RECORD
  5
48
330
1
100
AcDbSymbolTableRecord
100
AcDbBlockTableRecord
  2
a
340
0
102
{BLKREFS
331
81
102
}
  0
BLOCK_RECORD
  5
82
330
1
100
AcDbSymbolTableRecord
100
AcDbBlockTableRecord
  2
b
340
0
102
{BLKREFS
331
AF
102
}
  0
BLOCK_RECORD
  5
B0
330
1
100
AcDbSymbolTableRecord
100
AcDbBlockTableRecord
  2
c
340
0
102
{BLKREFS
331
FE
102
}
  0
BLOCK_RECORD
  5
FF
330
1
100
AcDbSymbolTableRecord
100
AcDbBlockTableRecord
  2
d
340
0
102
{BLKREFS
331
14F
102
}
  0
ENDTAB
  0
ENDSEC
  0
SECTION
  2
BLOCKS
  0
BLOCK
  5
20
330
1F
100
AcDbEntity
  8
0
100
AcDbBlockBegin
  2
*Model_Space
 70
     0
 10
0.0
 20
0.0
 30
0.0
  3
*Model_Space
  1

  0
ENDBLK
  5
21
330
1F
100
AcDbEntity
  8
0
100
AcDbBlockEnd
  0
BLOCK
  5
1C
330
1B
100
AcDbEntity
 67
     1
  8
0
100
AcDbBlockBegin
  2
*Paper_Space
 70
     0
 10
0.0
 20
0.0
 30
0.0
  3
*Paper_Space
  1

  0
ENDBLK
  5
1D
330
1B
100
AcDbEntity
 67
     1
  8
0
100
AcDbBlockEnd
  0
BLOCK
  5
24
330
23
100
AcDbEntity
  8
0
100
AcDbBlockBegin
  2
*Paper_Space0
 70
     0
 10
0.0
 20
0.0
 30
0.0
  3
*Paper_Space0
  1

  0
ENDBLK
  5
25
330
23
100
AcDbEntity
  8
0
100
AcDbBlockEnd
  0
BLOCK
  5
40
330
3F
100
AcDbEntity
  8
0
100
AcDbBlockBegin
  2
_CLOSED
 70
     0
 10
0.0
 20
0.0
 30
0.0
  3
_CLOSED
  1

  0
LINE
  5
42
330
3F
100
AcDbEntity
  8
0
  6
ByBlock
 62
     0
370
    -2
100
AcDbLine
 10
-1.0
 20
0.166667
 30
0.0
 11
0.0
 21
0.0
 31
0.0
  0
LINE
  5
43
330
3F
100
AcDbEntity
  8
0
  6
ByBlock
 62
     0
370
    -2
100
AcDbLine
 10
0.0
 20
0.0
 30
0.0
 11
-1.0
 21
-0.166667
 31
0.0
  0
LINE
  5
44
330
3F
100
AcDbEntity
  8
0
  6
ByBlock
 62
     0
370
    -2
100
AcDbLine
 10
-1.0
 20
0.166667
 30
0.0
 11
-1.0
 21
-0.166667
 31
0.0
  0
LINE
  5
45
330
3F
100
AcDbEntity
  8
0
  6
ByBlock
 62
     0
370
    -2
100
AcDbLine
 10
0.0
 20
0.0
 30
0.0
 11
-1.0
 21
0.0
 31
0.0
  0
ENDBLK
  5
41
330
3F
100
AcDbEntity
  8
0
100
AcDbBlockEnd
  0
BLOCK
  5
7F
330
48
100
AcDbEntity
  8
0
100
AcDbBlockBegin
  2
a
 70
     0
 10
13.22363662719726
 20
87.81689453125
 30
0.0
  3
a
  1

  0
ARC
  5
49
330
48
100
AcDbEntity
  8
0
  6
Continuous
 62
     0
370
    30
100
AcDbCircle
 10
69.20177459627303
 20
696.2844299438256
 30
0.0
 40
7.99999999898893
100
AcDbArc
 50
179.9999999995548
 51
269.9999999993315
  0
LINE
  5
4A
330
48
100
AcDbEntity
  8
0
  6
Continuous
 62
     0
370
    30
100
AcDbLine
 10
69.20177459725528
 20
688.2844299438565
 30
0.0
 11
113.2017745970792
 21
688.2844299438566
 31
0.0
  0
ARC
  5
4B
330
48
100
AcDbEntity
  8
0
  6
Continuous
 62
     0
370
    30
100
AcDbCircle
 10
113.2017745970806
 20
696.2844299428452
 30
0.0
 40
7.99999999898875
100
AcDbArc
 50
269.9999999993304
 51
359.9999999991072
  0
LINE
  5
4C
330
48
100
AcDbEntity
  8
0
  6
Continuous
 62
     0
370
    30
100
AcDbLine
 10
121.2017745970442
 20
696.2844299438238
 30
0.0
 11
121.2017745970442
 21
740.2844299436479
 31
0.0
  0
ARC
  5
4D
330
48
100
AcDbEntity
  8
0
  6
Continuous
 62
     0
370
    30
100
AcDbCircle
 10
113.2017745980556
 20
740.2844299436492
 30
0.0
 40
7.999999998988787
100
AcDbArc
 50
359.9999999999998
 51
89.99999999977665
  0
LINE
  5
4E
330
48
100
AcDbEntity
  8
0
  6
Continuous
 62
     0
370
    30
100
AcDbLine
 10
113.2017745970806
 20
748.2844299436164
 30
0.0
 11
69.2017745972567
 21
748.2844299436164
 31
0.0
  0
ARC
  5
4F
330
48
100
AcDbEntity
  8
0
  6
Continuous
 62
     0
370
    30
100
AcDbCircle
 10
69.20177459725528
 20
740.2844299446278
 30
0.0
 40
7.99999999898893
100
AcDbArc
 50
89.99999999977665
 51
179.9999999995533
  0
LINE
  5
50
330
48
100
AcDbEntity
  8
0
  6
Continuous
 62
     0
370
    30
100
AcDbLine
 10
61.20177459728438
 20
740.2844299436492
 30
0.0
 11
61.20177459728438
 21
696.2844299438252
 31
0.0
  0
ARC
  5
51
330
48
100
AcDbEntity
  8
0
  6
Continuous
 62
     0
370
    30
100
AcDbCircle
 10
104.2017745963784
 20
705.2844299437878
 30
0.0
 40
5.999999999241499
100
AcDbArc
 50
270.000000000001
 51
359.9999999997777
  0
LINE
  5
52
330
48
100
AcDbEntity
  8
0
  6
Continuous
 62
     0
370
    30
100
AcDbLine
 10
110.2017745956199
 20
705.2844299437879
 30
0.0
 11
110.2017745956199
 21
731.2844299436838
 31
0.0
  0
ARC
  5
53
330
48
100
AcDbEntity
  8
0
  6
Continuous
 62
     0
370
    30
100
AcDbCircle
 10
104.2017745963784
 20
731.2844299436839
 30
0.0
 40
5.999999999241534
100
AcDbArc
 50
359.9999999999991
 51
89.99999999977667
  0
LINE
  5
54
330
48
100
AcDbEntity
  8
0
  6
Continuous
 62
     0
370
    30
100
AcDbLine
 10
104.2017745963784
 20
737.2844299429255
 30
0.0
 11
78.20177459648235
 21
737.2844299429255
 31
0.0
  0
ARC
  5
55
330
48
100
AcDbEntity
  8
0
  6
Continuous
 62
     0
370
    30
100
AcDbCircle
 10
78.20177459648241
 20
731.2844299436838
 30
0.0
 40
5.99999999924168
100
AcDbArc
 50
90.00000000000051
 51
179.999999999777
  0
LINE
  5
56
330
48
100
AcDbEntity
  8
0
  6
Continuous
 62
     0
370
    30
100
AcDbLine
 10
72.20177459724073
 20
731.2844299436838
 30
0.0
 11
72.20177459724073
 21
705.2844299437879
 31
0.0
  0
ARC
  5
57
330
48
100
AcDbEntity
  8
0
  6
Continuous
 62
     0
370
    30
100
AcDbCircle
 10
78.20177459648238
 20
705.2844299437879
 30
0.0
 40
5.999999999241644
100
AcDbArc
 50
180.0000000000012
 51
269.9999999997777
  0
LINE
  5
58
330
48
100
AcDbEntity
  8
0
  6
Continuous
 62
     0
370
    30
100
AcDbLine
 10
78.20177459648249
 20
699.2844299445463
 30
0.0
 11
104.2017745963785
 21
699.2844299445463
 31
0.0
  0
ARC
  5
59
330
48
100
AcDbEntity
  8
0
  6
Continuous
 62
     0
370
    30
100
AcDbCircle
 10
131.2017745970079
 20
617.0715179441413
 30
0.0
 40
9.999999999960003
100
AcDbArc
 50
0.0000000000000509
 51
89.99999999977664
  0
LINE
  5
5A
330
48
100
AcDbEntity
  8
0
  6
Continuous
 62
     0
370
    30
100
AcDbLine
 10
131.2017745970079
 20
627.0715179441013
 30
0.0
 11
51.20177459732843
 21
627.0715179441014
 31
0.0
  0
ARC
  5
5B
330
48
100
AcDbEntity
  8
0
  6
Continuous
 62
     0
370
    30
100
AcDbCircle
 10
51.20177459732804
 20
617.0715179441413
 30
0.0
 40
9.999999999960003
100
AcDbArc
 50
89.99999999977664
 51
179.9999999995533
  0
LINE
  5
5C
330
48
100
AcDbEntity
  8
0
  6
Continuous
 62
     0
370
    30
100
AcDbLine
 10
41.20177459736441
 20
617.0715179441413
 30
0.0
 11
41.20177459736441
 21
520.0715179445291
 31
0.0
  0
ARC
  5
5D
330
48
100
AcDbEntity
  8
0
  6
Continuous
 62
     0
370
    30
100
AcDbCircle
 10
51.20177459732804
 20
520.0715179445287
 30
0.0
 40
9.999999999960003
100
AcDbArc
 50
179.9999999995533
 51
269.9999999993301
  0
LINE
  5
5E
330
48
100
AcDbEntity
  8
0
  6
Continuous
 62
     0
370
    30
100
AcDbLine
 10
51.20177459732786
 20
510.0715179445688
 30
0.0
 11
131.2017745970079
 21
510.0715179445687
 31
0.0
  0
ARC
  5
5F
330
48
100
AcDbEntity
  8
0
  6
Continuous
 62
     0
370
    30
100
AcDbCircle
 10
131.2017745970079
 20
520.0715179445287
 30
0.0
 40
9.999999999960003
100
AcDbArc
 50
270.0000000002233
 51
0.0000000000001145
  0
LINE
  5
60
330
48
100
AcDbEntity
  8
0
  6
Continuous
 62
     0
370
    30
100
AcDbLine
 10
141.2017745969642
 20
520.0715179445287
 30
0.0
 11
141.2017745969636
 21
617.0715179441408
 31
0.0
  0
CIRCLE
  5
61
330
48
100
AcDbEntity
  8
0
  6
Continuous
 62
     0
370
    30
100
AcDbCircle
 10
91.20177459716797
 20
568.5715179443359
 30
0.0
 40
19.0
  0
CIRCLE
  5
62
330
48
100
AcDbEntity
  8
0
  6
Continuous
 62
     0
370
    30
100
AcDbCircle
 10
91.20177459716797
 20
568.5715179443359
 30
0.0
 40
19.5
  0
LINE
  5
63
330
48
100
AcDbEntity
  8
0
  6
Continuous
 62
     0
370
    30
100
AcDbLine
 10
95.6517745971521
 20
594.6344359442323
 30
0.0
 11
87.75177459718383
 21
594.6344359442323
 31
0.0
  0
LINE
  5
64
330
48
100
AcDbEntity
  8
0
  6
Continuous
 62
     0
370
    30
100
AcDbLine
 10
95.15177459715392
 20
595.1344359442304
 30
0.0
 11
88.25177459718203
 21
595.1344359442304
 31
0.0
  0
LINE
  5
65
330
48
100
AcDbEntity
  8
0
  6
Continuous
 62
     0
370
    30
100
AcDbLine
 10
96.29980446506367
 20
549.31725628657
 30
0.0
 11
94.28777654374592
 21
549.31725628657
 31
0.0
  0
LINE
  5
66
330
48
100
AcDbEntity
  8
0
  6
Continuous
 62
     0
370
    30
100
AcDbLine
 10
88.11577265059003
 20
549.31725628657
 30
0.0
 11
87.10374472927226
 21
549.31725628657
 31
0.0
  0
LINE
  5
67
330
48
100
AcDbEntity
  8
0
  6
Continuous
 62
     0
370
    30
100
AcDbLine
 10
95.6517745971521
 20
594.6344359442323
 30
0.0
 11
95.15177459715394
 21
595.1344359442304
 31
0.0
  0
LINE
  5
68
330
48
100
AcDbEntity
  8
0
  6
Continuous
 62
     0
370
    30
100
AcDbLine
 10
87.75177459718383
 20
594.6344359442323
 30
0.0
 11
88.25177459718201
 21
595.1344359442304
 31
0.0
  0
LINE
  5
69
330
48
100
AcDbEntity
  8
0
  6
Continuous
 62
     0
370
    30
100
AcDbLine
 10
95.6517745971521
 20
587.5571393992552
 30
0.0
 11
95.6517745971521
 21
594.6344359442323
 31
0.0
  0
LINE
  5
6A
330
48
100
AcDbEntity
  8
0
  6
Continuous
 62
     0
370
    30
100
AcDbLine
 10
87.75177459718383
 20
587.764105396814
 30
0.0
 11
87.75177459718383
 21
594.6344359442324
 31
0.0
  0
LINE
  5
6B
330
48
100
AcDbEntity
  8
0
  6
Continuous
 62
     0
370
    30
100
AcDbLine
 10
87.10374472927226
 20
549.31725628657
 30
0.0
 11
87.10374472927226
 21
549.5069278719816
 31
0.0
  0
LINE
  5
6C
330
48
100
AcDbEntity
  8
0
  6
Continuous
 62
     0
370
    30
100
AcDbLine
 10
96.29980446506367
 20
549.31725628657
 30
0.0
 11
96.29980446506367
 21
549.7496717983482
 31
0.0
  0
ARC
  5
6D
330
48
100
AcDbEntity
  8
0
  6
Continuous
 62
     0
370
    30
100
AcDbCircle
 10
91.69744459716799
 20
563.3729449443567
 30
0.0
 40
14.78999999994084
100
AcDbArc
 50
270.0167742210615
 51
288.1303884154947
  0
ARC
  5
6E
330
48
100
AcDbEntity
  8
0
  6
Continuous
 62
     0
370
    30
100
AcDbCircle
 10
91.70610459716796
 20
563.3729449443567
 30
0.0
 40
14.78999999994084
100
AcDbArc
 50
251.8696115845053
 51
269.9832257789384
  0
ARC
  5
6F
330
48
100
AcDbEntity
  8
0
  6
Continuous
 62
     0
370
    30
100
AcDbCircle
 10
69.20177459627303
 20
796.2844299438256
 30
0.0
 40
7.99999999898893
100
AcDbArc
 50
179.9999999995548
 51
269.9999999993315
  0
LINE
  5
70
330
48
100
AcDbEntity
  8
0
  6
Continuous
 62
     0
370
    30
100
AcDbLine
 10
69.20177459725528
 20
788.2844299438565
 30
0.0
 11
113.2017745970792
 21
788.2844299438567
 31
0.0
  0
ARC
  5
71
330
48
100
AcDbEntity
  8
0
  6
Continuous
 62
     0
370
    30
100
AcDbCircle
 10
113.2017745970806
 20
796.2844299428452
 30
0.0
 40
7.99999999898875
100
AcDbArc
 50
269.9999999993304
 51
359.9999999991072
  0
LINE
  5
72
330
48
100
AcDbEntity
  8
0
  6
Continuous
 62
     0
370
    30
100
AcDbLine
 10
121.2017745970442
 20
796.2844299438239
 30
0.0
 11
121.2017745970442
 21
840.2844299436479
 31
0.0
  0
ARC
  5
73
330
48
100
AcDbEntity
  8
0
  6
Continuous
 62
     0
370
    30
100
AcDbCircle
 10
113.2017745980556
 20
840.2844299436491
 30
0.0
 40
7.999999998988787
100
AcDbArc
 50
359.9999999999998
 51
89.99999999977665
  0
LINE
  5
74
330
48
100
AcDbEntity
  8
0
  6
Continuous
 62
     0
370
    30
100
AcDbLine
 10
113.2017745970806
 20
848.2844299436164
 30
0.0
 11
69.2017745972567
 21
848.2844299436164
 31
0.0
  0
ARC
  5
75
330
48
100
AcDbEntity
  8
0
  6
Continuous
 62
     0
370
    30
100
AcDbCircle
 10
69.20177459725528
 20
840.2844299446279
 30
0.0
 40
7.99999999898893
100
AcDbArc
 50
89.99999999977665
 51
179.9999999995533
  0
LINE
  5
76
330
48
100
AcDbEntity
  8
0
  6
Continuous
 62
     0
370
    30
100
AcDbLine
 10
61.20177459728438
 20
840.2844299436491
 30
0.0
 11
61.20177459728438
 21
796.2844299438252
 31
0.0
  0
ARC
  5
77
330
48
100
AcDbEntity
  8
0
  6
Continuous
 62
     0
370
    30
100
AcDbCircle
 10
104.2017745963784
 20
805.2844299437877
 30
0.0
 40
5.999999999241499
100
AcDbArc
 50
270.000000000001
 51
359.9999999997777
  0
LINE
  5
78
330
48
100
AcDbEntity
  8
0
  6
Continuous
 62
     0
370
    30
100
AcDbLine
 10
110.2017745956199
 20
805.2844299437879
 30
0.0
 11
110.2017745956199
 21
831.2844299436839
 31
0.0
  0
ARC
  5
79
330
48
100
AcDbEntity
  8
0
  6
Continuous
 62
     0
370
    30
100
AcDbCircle
 10
104.2017745963784
 20
831.2844299436839
 30
0.0
 40
5.999999999241534
100
AcDbArc
 50
359.9999999999991
 51
89.99999999977667
  0
LINE
  5
7A
330
48
100
AcDbEntity
  8
0
  6
Continuous
 62
     0
370
    30
100
AcDbLine
 10
104.2017745963784
 20
837.2844299429255
 30
0.0
 11
78.20177459648235
 21
837.2844299429255
 31
0.0
  0
ARC
  5
7B
330
48
100
AcDbEntity
  8
0
  6
Continuous
 62
     0
370
    30
100
AcDbCircle
 10
78.20177459648241
 20
831.2844299436838
 30
0.0
 40
5.99999999924168
100
AcDbArc
 50
90.00000000000051
 51
179.999999999777
  0
LINE
  5
7C
330
48
100
AcDbEntity
  8
0
  6
Continuous
 62
     0
370
    30
100
AcDbLine
 10
72.20177459724073
 20
831.2844299436838
 30
0.0
 11
72.20177459724073
 21
805.2844299437879
 31
0.0
  0
ARC
  5
7D
330
48
100
AcDbEntity
  8
0
  6
Continuous
 62
     0
370
    30
100
AcDbCircle
 10
78.20177459648238
 20
805.2844299437879
 30
0.0
 40
5.999999999241644
100
AcDbArc
 50
180.0000000000012
 51
269.9999999997777
  0
LINE
  5
7E
330
48
100
AcDbEntity
  8
0
  6
Continuous
 62
     0
370
    30
100
AcDbLine
 10
78.20177459648249
 20
799.2844299445463
 30
0.0
 11
104.2017745963785
 21
799.2844299445463
 31
0.0
  0
ENDBLK
  5
80
330
48
100
AcDbEntity
  8
0
100
AcDbBlockEnd
  0
BLOCK
  5
AD
330
82
100
AcDbEntity
  8
0
100
AcDbBlockBegin
  2
b
 70
     0
 10
13.22363471984863
 20
319.874771118164
 30
0.0
  3
b
  1

  0
LINE
  5
83
330
82
100
AcDbEntity
  8
0
  6
Continuous
 62
     0
370
    30
100
AcDbLine
 10
141.2017765043165
 20
360.2705800790943
 30
0.0
 11
131.2017765043565
 21
360.2705800790943
 31
0.0
  0
LINE
  5
84
330
82
100
AcDbEntity
  8
0
  6
Continuous
 62
     0
370
    30
100
AcDbLine
 10
61.20177650561498
 20
360.2705796419805
 30
0.0
 11
51.20177650467707
 21
360.2705796419805
 31
0.0
  0
LINE
  5
85
330
82
100
AcDbEntity
  8
0
  6
Continuous
 62
     0
370
    30
100
AcDbLine
 10
131.2017765043565
 20
360.2705796419805
 30
0.0
 11
121.201776504393
 21
360.2705796419805
 31
0.0
  0
LINE
  5
86
330
82
100
AcDbEntity
  8
0
  6
Continuous
 62
     0
370
    30
100
AcDbLine
 10
51.20177650467669
 20
360.2705800790943
 30
0.0
 11
41.20177650471666
 21
360.2705800790943
 31
0.0
  0
LINE
  5
87
330
82
100
AcDbEntity
  8
0
  6
Continuous
 62
     0
370
    30
100
AcDbLine
 10
141.2017765043165
 20
350.2705800790943
 30
0.0
 11
131.2017765043565
 21
350.2705800790943
 31
0.0
  0
LINE
  5
88
330
82
100
AcDbEntity
  8
0
  6
Continuous
 62
     0
370
    30
100
AcDbLine
 10
61.20177650463301
 20
350.2705796419804
 30
0.0
 11
51.20177650467707
 21
350.2705796419804
 31
0.0
  0
LINE
  5
89
330
82
100
AcDbEntity
  8
0
  6
Continuous
 62
     0
370
    30
100
AcDbLine
 10
131.2017765043565
 20
350.2705796419804
 30
0.0
 11
121.201776504393
 21
350.2705796419804
 31
0.0
  0
LINE
  5
8A
330
82
100
AcDbEntity
  8
0
  6
Continuous
 62
     0
370
    30
100
AcDbLine
 10
51.20177650467669
 20
350.2705800790943
 30
0.0
 11
41.20177650471666
 21
350.2705800790943
 31
0.0
  0
LINE
  5
8B
330
82
100
AcDbEntity
  8
0
  6
Continuous
 62
     0
370
    30
100
AcDbLine
 10
141.2017765043165
 20
360.2705800790943
 30
0.0
 11
141.2017765043165
 21
350.2705800790943
 31
0.0
  0
LINE
  5
8C
330
82
100
AcDbEntity
  8
0
  6
Continuous
 62
     0
370
     0
100
AcDbLine
 10
131.2017765043565
 20
360.2705796419805
 30
0.0
 11
131.2017765043565
 21
350.2705796419804
 31
0.0
  0
LINE
  5
8D
330
82
100
AcDbEntity
  8
0
  6
Continuous
 62
     0
370
     0
100
AcDbLine
 10
51.20177650467669
 20
360.2705796419805
 30
0.0
 11
51.20177650467669
 21
350.2705796419804
 31
0.0
  0
LINE
  5
8E
330
82
100
AcDbEntity
  8
0
  6
Continuous
 62
     0
370
    30
100
AcDbLine
 10
41.20177650471305
 20
360.2705800790943
 30
0.0
 11
41.20177650471305
 21
350.2705800790943
 31
0.0
  0
LINE
  5
8F
330
82
100
AcDbEntity
  8
0
  6
Continuous
 62
     0
370
    30
100
AcDbLine
 10
110.2017765045166
 20
312.2705821990967
 30
0.0
 11
72.2017765045166
 21
312.2705821990967
 31
0.0
  0
LINE
  5
90
330
82
100
AcDbEntity
  8
0
  6
Continuous
 62
     0
370
    30
100
AcDbLine
 10
110.7017765045166
 20
312.7705821990967
 30
0.0
 11
71.7017765045166
 21
312.7705821990967
 31
0.0
  0
LINE
  5
91
330
82
100
AcDbEntity
  8
0
  6
Continuous
 62
     0
370
    30
100
AcDbLine
 10
110.7017765045166
 20
350.2705821990967
 30
0.0
 11
110.7017765045166
 21
312.7705821990967
 31
0.0
  0
LINE
  5
92
330
82
100
AcDbEntity
  8
0
  6
Continuous
 62
     0
370
    30
100
AcDbLine
 10
110.2017765045166
 20
312.2705821990967
 30
0.0
 11
110.7017765045166
 21
312.7705821990967
 31
0.0
  0
ARC
  5
93
330
82
100
AcDbEntity
  8
0
  6
Continuous
 62
     0
370
    30
100
AcDbCircle
 10
91.70177650451661
 20
323.2705810598033
 30
0.0
 40
3.949999999984129
100
AcDbArc
 50
165.3351462900987
 51
14.66485371079421
  0
ARC
  5
94
330
82
100
AcDbEntity
  8
0
  6
Continuous
 62
     0
370
    30
100
AcDbCircle
 10
91.70177650451661
 20
323.2705810379476
 30
0.0
 40
3.449999999985955
100
AcDbArc
 50
163.1507203770071
 51
16.84927962388582
  0
LINE
  5
95
330
82
100
AcDbEntity
  8
0
  6
Continuous
 62
     0
370
    30
100
AcDbLine
 10
72.2017765045166
 20
312.2705821990967
 30
0.0
 11
71.7017765045166
 21
312.7705821990967
 31
0.0
  0
LINE
  5
96
330
82
100
AcDbEntity
  8
0
  6
Continuous
 62
     0
370
    30
100
AcDbLine
 10
71.7017765045166
 20
350.2705821990967
 30
0.0
 11
71.7017765045166
 21
312.7705821990967
 31
0.0
  0
LINE
  5
97
330
82
100
AcDbEntity
  8
0
  6
Continuous
 62
     0
370
    30
100
AcDbLine
 10
121.201776504393
 20
360.270570322148
 30
0.0
 11
121.201776504393
 21
350.270570322148
 31
0.0
  0
LINE
  5
98
330
82
100
AcDbEntity
  8
0
  6
Continuous
 62
     0
370
    30
100
AcDbLine
 10
121.201776504393
 20
360.270570322148
 30
0.0
 11
113.2017765054042
 21
360.270570322148
 31
0.0
  0
LINE
  5
99
330
82
100
AcDbEntity
  8
0
  6
Continuous
 62
     0
370
     0
100
AcDbLine
 10
113.2017765044292
 20
360.270569972457
 30
0.0
 11
113.2017765044292
 21
350.270569972457
 31
0.0
  0
LINE
  5
9A
330
82
100
AcDbEntity
  8
0
  6
Continuous
 62
     0
370
    30
100
AcDbLine
 10
121.201776504393
 20
350.2705703221481
 30
0.0
 11
113.2017765054042
 21
350.2705703221481
 31
0.0
  0
LINE
  5
9B
330
82
100
AcDbEntity
  8
0
  6
Continuous
 62
     0
370
    30
100
AcDbLine
 10
113.2017765044292
 20
360.270569972457
 30
0.0
 11
69.20177650460534
 21
360.270569972457
 31
0.0
  0
LINE
  5
9C
330
82
100
AcDbEntity
  8
0
  6
Continuous
 62
     0
370
     0
100
AcDbLine
 10
69.20177650460392
 20
360.270569972457
 30
0.0
 11
69.20177650460392
 21
350.270569972457
 31
0.0
  0
LINE
  5
9D
330
82
100
AcDbEntity
  8
0
  6
Continuous
 62
     0
370
    30
100
AcDbLine
 10
113.2017765044292
 20
350.270569972457
 30
0.0
 11
69.20177650460534
 21
350.270569972457
 31
0.0
  0
LINE
  5
9E
330
82
100
AcDbEntity
  8
0
  6
Continuous
 62
     0
370
    30
100
AcDbLine
 10
69.20177650460392
 20
360.270570322148
 30
0.0
 11
61.20177650561498
 21
360.270570322148
 31
0.0
  0
LINE
  5
9F
330
82
100
AcDbEntity
  8
0
  6
Continuous
 62
     0
370
    30
100
AcDbLine
 10
61.20177650463301
 20
360.270570322148
 30
0.0
 11
61.20177650463301
 21
350.270570322148
 31
0.0
  0
LINE
  5
A0
330
82
100
AcDbEntity
  8
0
  6
Continuous
 62
     0
370
    30
100
AcDbLine
 10
69.20177650460392
 20
350.2705703221481
 30
0.0
 11
61.20177650561498
 21
350.2705703221481
 31
0.0
  0
LINE
  5
A1
330
82
100
AcDbEntity
  8
0
  6
Continuous
 62
     0
370
    30
100
AcDbLine
 10
105.701776504513
 20
350.2705712837986
 30
0.0
 11
105.701776504513
 21
343.2705712837986
 31
0.0
  0
LINE
  5
A2
330
82
100
AcDbEntity
  8
0
  6
Continuous
 62
     0
370
    30
100
AcDbLine
 10
110.2017765029685
 20
343.2705707155506
 30
0.0
 11
110.2017765029685
 21
324.2705707155506
 31
0.0
  0
LINE
  5
A3
330
82
100
AcDbEntity
  8
0
  6
Continuous
 62
     0
370
    30
100
AcDbLine
 10
110.2017765029685
 20
343.2705707155506
 30
0.0
 11
104.201776503727
 21
343.2705707155506
 31
0.0
  0
LINE
  5
A4
330
82
100
AcDbEntity
  8
0
  6
Continuous
 62
     0
370
     0
100
AcDbLine
 10
104.201776503727
 20
343.2705704532823
 30
0.0
 11
104.201776503727
 21
324.2705704532823
 31
0.0
  0
LINE
  5
A5
330
82
100
AcDbEntity
  8
0
  6
Continuous
 62
     0
370
    30
100
AcDbLine
 10
110.2017765029685
 20
324.2705707155506
 30
0.0
 11
104.201776503727
 21
324.2705707155506
 31
0.0
  0
LINE
  5
A6
330
82
100
AcDbEntity
  8
0
  6
Continuous
 62
     0
370
    30
100
AcDbLine
 10
104.201776503727
 20
343.2705704532823
 30
0.0
 11
78.20177650383098
 21
343.2705704532823
 31
0.0
  0
LINE
  5
A7
330
82
100
AcDbEntity
  8
0
  6
Continuous
 62
     0
370
     0
100
AcDbLine
 10
78.20177650383098
 20
343.2705704532823
 30
0.0
 11
78.20177650383098
 21
324.2705704532823
 31
0.0
  0
LINE
  5
A8
330
82
100
AcDbEntity
  8
0
  6
Continuous
 62
     0
370
    30
100
AcDbLine
 10
104.201776503727
 20
324.2705704532823
 30
0.0
 11
78.20177650383098
 21
324.2705704532823
 31
0.0
  0
LINE
  5
A9
330
82
100
AcDbEntity
  8
0
  6
Continuous
 62
     0
370
    30
100
AcDbLine
 10
78.20177650383098
 20
343.2705707155506
 30
0.0
 11
72.20177650458936
 21
343.2705707155506
 31
0.0
  0
LINE
  5
AA
330
82
100
AcDbEntity
  8
0
  6
Continuous
 62
     0
370
    30
100
AcDbLine
 10
72.20177650458936
 20
343.2705707155506
 30
0.0
 11
72.20177650458936
 21
324.2705707155506
 31
0.0
  0
LINE
  5
AB
330
82
100
AcDbEntity
  8
0
  6
Continuous
 62
     0
370
    30
100
AcDbLine
 10
78.20177650383098
 20
324.2705707155506
 30
0.0
 11
72.20177650458936
 21
324.2705707155506
 31
0.0
  0
LINE
  5
AC
330
82
100
AcDbEntity
  8
0
  6
Continuous
 62
     0
370
    30
100
AcDbLine
 10
76.70177650451299
 20
350.2705712837986
 30
0.0
 11
76.70177650451299
 21
343.2705712837986
 31
0.0
  0
ENDBLK
  5
AE
330
82
100
AcDbEntity
  8
0
100
AcDbBlockEnd
  0
BLOCK
  5
FC
330
B0
100
AcDbEntity
  8
0
100
AcDbBlockBegin
  2
c
 70
     0
 10
69.65017318725585
 20
128.1212158203125
 30
0.0
  3
c
  1

  0
LINE
  5
B1
330
B0
100
AcDbEntity
  8
0
  6
Continuous
 62
     0
370
    30
100
AcDbLine
 10
280.8473824938427
 20
696.2844604614035
 30
0.0
 11
280.8473824938427
 21
688.2844604624149
 31
0.0
  0
LINE
  5
B2
330
B0
100
AcDbEntity
  8
0
  6
Continuous
 62
     0
370
    30
100
AcDbLine
 10
280.8473824938427
 20
748.2844604611948
 30
0.0
 11
280.8473824938427
 21
740.2844604622059
 31
0.0
  0
LINE
  5
B3
330
B0
100
AcDbEntity
  8
0
  6
Continuous
 62
     0
370
    30
100
AcDbLine
 10
280.8473828435338
 20
740.2844604612274
 30
0.0
 11
280.8473828435338
 21
696.2844604614033
 31
0.0
  0
LINE
  5
B4
330
B0
100
AcDbEntity
  8
0
  6
Continuous
 62
     0
370
    30
100
AcDbLine
 10
290.8473824938427
 20
696.2844604614035
 30
0.0
 11
290.8473824938427
 21
688.2844604624149
 31
0.0
  0
LINE
  5
B5
330
B0
100
AcDbEntity
  8
0
  6
Continuous
 62
     0
370
    30
100
AcDbLine
 10
290.8473824938427
 20
748.2844604611948
 30
0.0
 11
290.8473824938427
 21
740.2844604622059
 31
0.0
  0
LINE
  5
B6
330
B0
100
AcDbEntity
  8
0
  6
Continuous
 62
     0
370
    30
100
AcDbLine
 10
290.8473828435338
 20
740.2844604612274
 30
0.0
 11
290.8473828435338
 21
696.2844604614033
 31
0.0
  0
LINE
  5
B7
330
B0
100
AcDbEntity
  8
0
  6
Continuous
 62
     0
370
     0
100
AcDbLine
 10
280.8473828435338
 20
696.2844604614035
 30
0.0
 11
290.8473828435338
 21
696.2844604614035
 31
0.0
  0
LINE
  5
B8
330
B0
100
AcDbEntity
  8
0
  6
Continuous
 62
     0
370
    30
100
AcDbLine
 10
280.8473824938427
 20
688.2844604614347
 30
0.0
 11
290.8473824938427
 21
688.2844604614347
 31
0.0
  0
LINE
  5
B9
330
B0
100
AcDbEntity
  8
0
  6
Continuous
 62
     0
370
    30
100
AcDbLine
 10
280.8473824938427
 20
748.2844604611948
 30
0.0
 11
290.8473824938427
 21
748.2844604611948
 31
0.0
  0
LINE
  5
BA
330
B0
100
AcDbEntity
  8
0
  6
Continuous
 62
     0
370
     0
100
AcDbLine
 10
280.8473828435338
 20
740.2844604612274
 30
0.0
 11
290.8473828435338
 21
740.2844604612274
 31
0.0
  0
LINE
  5
BB
330
B0
100
AcDbEntity
  8
0
  6
Continuous
 62
     0
370
    30
100
AcDbLine
 10
297.8473821004402
 20
737.2844604605035
 30
0.0
 11
297.8473821004402
 21
731.2844604612619
 31
0.0
  0
LINE
  5
BC
330
B0
100
AcDbEntity
  8
0
  6
Continuous
 62
     0
370
    30
100
AcDbLine
 10
297.8473823627085
 20
731.2844604612619
 30
0.0
 11
297.8473823627085
 21
705.284460461366
 31
0.0
  0
LINE
  5
BD
330
B0
100
AcDbEntity
  8
0
  6
Continuous
 62
     0
370
    30
100
AcDbLine
 10
297.8473821004402
 20
705.2844604613659
 30
0.0
 11
297.8473821004402
 21
699.2844604621243
 31
0.0
  0
LINE
  5
BE
330
B0
100
AcDbEntity
  8
0
  6
Continuous
 62
     0
370
    30
100
AcDbLine
 10
316.8473821004401
 20
737.2844604605035
 30
0.0
 11
316.8473821004401
 21
731.2844604612619
 31
0.0
  0
LINE
  5
BF
330
B0
100
AcDbEntity
  8
0
  6
Continuous
 62
     0
370
    30
100
AcDbLine
 10
316.8473823627085
 20
731.2844604612619
 30
0.0
 11
316.8473823627085
 21
705.284460461366
 31
0.0
  0
LINE
  5
C0
330
B0
100
AcDbEntity
  8
0
  6
Continuous
 62
     0
370
    30
100
AcDbLine
 10
316.8473821004401
 20
705.2844604613659
 30
0.0
 11
316.8473821004401
 21
699.2844604621243
 31
0.0
  0
LINE
  5
C1
330
B0
100
AcDbEntity
  8
0
  6
Continuous
 62
     0
370
    30
100
AcDbLine
 10
297.8473821004402
 20
737.2844604605035
 30
0.0
 11
316.8473821004402
 21
737.2844604605035
 31
0.0
  0
LINE
  5
C2
330
B0
100
AcDbEntity
  8
0
  6
Continuous
 62
     0
370
     0
100
AcDbLine
 10
297.8473823627085
 20
731.2844604612619
 30
0.0
 11
316.8473823627085
 21
731.2844604612619
 31
0.0
  0
LINE
  5
C3
330
B0
100
AcDbEntity
  8
0
  6
Continuous
 62
     0
370
     0
100
AcDbLine
 10
297.8473823627085
 20
705.284460461366
 30
0.0
 11
316.8473823627085
 21
705.284460461366
 31
0.0
  0
LINE
  5
C4
330
B0
100
AcDbEntity
  8
0
  6
Continuous
 62
     0
370
    30
100
AcDbLine
 10
297.8473821004402
 20
699.2844604621244
 30
0.0
 11
316.8473821004402
 21
699.2844604621244
 31
0.0
  0
LINE
  5
C5
330
B0
100
AcDbEntity
  8
0
  6
Continuous
 62
     0
370
    30
100
AcDbLine
 10
290.8473815321922
 20
732.7844604613154
 30
0.0
 11
297.8473815321922
 21
732.7844604613154
 31
0.0
  0
LINE
  5
C6
330
B0
100
AcDbEntity
  8
0
  6
Continuous
 62
     0
370
    30
100
AcDbLine
 10
290.8473815321922
 20
703.7844604613154
 30
0.0
 11
297.8473815321922
 21
703.7844604613154
 31
0.0
  0
LINE
  5
C7
330
B0
100
AcDbEntity
  8
0
  6
Continuous
 62
     0
370
    30
100
AcDbLine
 10
280.8473832806477
 20
627.0715484616793
 30
0.0
 11
280.8473832806477
 21
617.0715484617194
 31
0.0
  0
LINE
  5
C8
330
B0
100
AcDbEntity
  8
0
  6
Continuous
 62
     0
370
    30
100
AcDbLine
 10
280.8473837177616
 20
617.0715484617194
 30
0.0
 11
280.8473837177616
 21
520.0715484621071
 31
0.0
  0
LINE
  5
C9
330
B0
100
AcDbEntity
  8
0
  6
Continuous
 62
     0
370
    30
100
AcDbLine
 10
280.8473832806477
 20
520.0715484621069
 30
0.0
 11
280.8473832806477
 21
510.0715484621469
 31
0.0
  0
LINE
  5
CA
330
B0
100
AcDbEntity
  8
0
  6
Continuous
 62
     0
370
    30
100
AcDbLine
 10
290.8473832806477
 20
627.0715484616793
 30
0.0
 11
290.8473832806477
 21
617.0715484617194
 31
0.0
  0
LINE
  5
CB
330
B0
100
AcDbEntity
  8
0
  6
Continuous
 62
     0
370
    30
100
AcDbLine
 10
290.8473837177616
 20
617.0715484617194
 30
0.0
 11
290.8473837177616
 21
520.0715484621071
 31
0.0
  0
LINE
  5
CC
330
B0
100
AcDbEntity
  8
0
  6
Continuous
 62
     0
370
    30
100
AcDbLine
 10
290.8473832806477
 20
520.0715484621069
 30
0.0
 11
290.8473832806477
 21
510.0715484621469
 31
0.0
  0
LINE
  5
CD
330
B0
100
AcDbEntity
  8
0
  6
Continuous
 62
     0
370
    30
100
AcDbLine
 10
280.8473832806477
 20
627.0715484616793
 30
0.0
 11
290.8473832806477
 21
627.0715484616793
 31
0.0
  0
LINE
  5
CE
330
B0
100
AcDbEntity
  8
0
  6
Continuous
 62
     0
370
     0
100
AcDbLine
 10
280.8473837177616
 20
617.0715484617194
 30
0.0
 11
290.8473837177616
 21
617.0715484617194
 31
0.0
  0
LINE
  5
CF
330
B0
100
AcDbEntity
  8
0
  6
Continuous
 62
     0
370
     0
100
AcDbLine
 10
280.8473837177616
 20
520.0715484621069
 30
0.0
 11
290.8473837177616
 21
520.0715484621069
 31
0.0
  0
LINE
  5
D0
330
B0
100
AcDbEntity
  8
0
  6
Continuous
 62
     0
370
    30
100
AcDbLine
 10
280.8473832806477
 20
510.0715484621469
 30
0.0
 11
290.8473832806477
 21
510.0715484621469
 31
0.0
  0
LINE
  5
D1
330
B0
100
AcDbEntity
  8
0
  6
Continuous
 62
     0
370
    30
100
AcDbLine
 10
328.8473815321921
 20
587.571548461914
 30
0.0
 11
328.8473815321921
 21
549.571548461914
 31
0.0
  0
LINE
  5
D2
330
B0
100
AcDbEntity
  8
0
  6
Continuous
 62
     0
370
    30
100
AcDbLine
 10
328.3473815321921
 20
588.071548461914
 30
0.0
 11
328.3473815321921
 21
549.0715484619141
 31
0.0
  0
LINE
  5
D3
330
B0
100
AcDbEntity
  8
0
  6
Continuous
 62
     0
370
    30
100
AcDbLine
 10
313.8973815103994
 20
594.6344664618104
 30
0.0
 11
314.3973815103976
 21
595.1344664618085
 31
0.0
  0
LINE
  5
D4
330
B0
100
AcDbEntity
  8
0
  6
Continuous
 62
     0
370
    30
100
AcDbLine
 10
321.7973815103677
 20
594.6344664618104
 30
0.0
 11
313.8973815103994
 21
594.6344664618104
 31
0.0
  0
LINE
  5
D5
330
B0
100
AcDbEntity
  8
0
  6
Continuous
 62
     0
370
    30
100
AcDbLine
 10
321.2973815103695
 20
595.1344664618086
 30
0.0
 11
314.3973815103976
 21
595.1344664618086
 31
0.0
  0
ARC
  5
D6
330
B0
100
AcDbEntity
  8
0
  6
Continuous
 62
     0
370
    30
100
AcDbCircle
 10
317.8517115103835
 20
563.3729754619348
 30
0.0
 40
14.78999999994084
100
AcDbArc
 50
255.2320190847472
 51
269.9832257789385
  0
LINE
  5
D7
330
B0
100
AcDbEntity
  8
0
  6
Continuous
 62
     0
370
    30
100
AcDbLine
 10
320.7253095163325
 20
549.3172868041481
 30
0.0
 11
314.9694538179328
 21
549.3172868041481
 31
0.0
  0
LINE
  5
D8
330
B0
100
AcDbEntity
  8
0
  6
Continuous
 62
     0
370
    30
100
AcDbLine
 10
313.8973815103994
 20
588.071548461914
 30
0.0
 11
313.8973815103994
 21
594.6344664618106
 31
0.0
  0
LWPOLYLINE
  5
D9
330
B0
100
AcDbEntity
  8
0
  6
Continuous
 62
     0
370
    30
100
AcDbPolyline
 90
        4
 70
     0
 43
0.0
 10
314.1146545410156
 20
549.0715942382812
 10
314.30126953125
 20
549.1002197265625
 10
314.5816345214843
 20
549.18408203125
 10
314.9694519042968
 20
549.3172607421874
  0
LWPOLYLINE
  5
DA
330
B0
100
AcDbEntity
  8
0
  6
Continuous
 62
     0
370
    30
100
AcDbPolyline
 90
        4
 70
     0
 43
0.0
 10
320.7253112792968
 20
549.3172607421874
 10
321.113037109375
 20
549.1842041015624
 10
321.3934020996093
 20
549.1002807617187
 10
321.5798950195312
 20
549.071533203125
  0
ARC
  5
DB
330
B0
100
AcDbEntity
  8
0
  6
Continuous
 62
     0
370
    30
100
AcDbCircle
 10
317.8473816671327
 20
527.5836170466443
 30
0.0
 40
21.92338636783643
100
AcDbArc
 50
82.45689466265977
 51
97.54310533737765
  0
LWPOLYLINE
  5
DC
330
B0
100
AcDbEntity
  8
0
  6
Continuous
 62
     0
370
    30
100
AcDbPolyline
 90
       16
 70
     0
 43
0.0
 10
321.7655029296874
 20
588.0714721679687
 10
321.5970153808593
 20
588.0573120117187
 10
321.2901306152343
 20
588.0184936523437
 10
320.8566284179687
 20
587.9625854492187
 10
320.3125305175781
 20
587.8992309570312
 10
319.6773986816406
 20
587.8394165039062
 10
318.9738464355468
 20
587.7928466796874
 10
318.2281188964843
 20
587.767333984375
 10
317.4675903320312
 20
587.7674560546875
 10
316.7214660644531
 20
587.7926635742187
 10
316.0179748535156
 20
587.8392944335937
 10
315.3828124999999
 20
587.8992309570312
 10
314.838623046875
 20
587.9625244140624
 10
314.4048767089843
 20
588.0185546875
 10
314.0979309082031
 20
588.0573120117187
 10
313.9292297363281
 20
588.0715332031249
  0
LINE
  5
DD
330
B0
100
AcDbEntity
  8
0
  6
Continuous
 62
     0
370
    30
100
AcDbLine
 10
321.7973815103677
 20
594.6344664618104
 30
0.0
 11
321.2973815103695
 21
595.1344664618085
 31
0.0
  0
LINE
  5
DE
330
B0
100
AcDbEntity
  8
0
  6
Continuous
 62
     0
370
    30
100
AcDbLine
 10
321.7973815103677
 20
588.071548461914
 30
0.0
 11
321.7973815103677
 21
594.6344664618106
 31
0.0
  0
ARC
  5
DF
330
B0
100
AcDbEntity
  8
0
  6
Continuous
 62
     0
370
    30
100
AcDbCircle
 10
317.8430515103836
 20
563.3729754619348
 30
0.0
 40
14.78999999994084
100
AcDbArc
 50
270.0167742210615
 51
284.7679809152526
  0
LINE
  5
E0
330
B0
100
AcDbEntity
  8
0
  6
Continuous
 62
     0
370
    30
100
AcDbLine
 10
328.8473815321921
 20
587.571548461914
 30
0.0
 11
328.3473815321921
 21
588.071548461914
 31
0.0
  0
LINE
  5
E1
330
B0
100
AcDbEntity
  8
0
  6
Continuous
 62
     0
370
    30
100
AcDbLine
 10
328.8473815321921
 20
549.571548461914
 30
0.0
 11
328.3473815321921
 21
549.0715484619141
 31
0.0
  0
LINE
  5
E2
330
B0
100
AcDbEntity
  8
0
  6
Continuous
 62
     0
370
    30
100
AcDbLine
 10
290.8473815321922
 20
588.071548461914
 30
0.0
 11
313.9292437477239
 21
588.071548461914
 31
0.0
  0
LINE
  5
E3
330
B0
100
AcDbEntity
  8
0
  6
Continuous
 62
     0
370
    30
100
AcDbLine
 10
321.7655028097731
 20
588.071548461914
 30
0.0
 11
328.3473815321922
 21
588.071548461914
 31
0.0
  0
LINE
  5
E4
330
B0
100
AcDbEntity
  8
0
  6
Continuous
 62
     0
370
    30
100
AcDbLine
 10
290.8473815321922
 20
549.0715484619141
 30
0.0
 11
314.1149634207052
 21
549.0715484619141
 31
0.0
  0
LINE
  5
E5
330
B0
100
AcDbEntity
  8
0
  6
Continuous
 62
     0
370
    30
100
AcDbLine
 10
321.5797588084095
 20
549.0715484619141
 30
0.0
 11
328.3473815321922
 21
549.0715484619141
 31
0.0
  0
LINE
  5
E6
330
B0
100
AcDbEntity
  8
0
  6
Continuous
 62
     0
370
    30
100
AcDbLine
 10
280.8473824938427
 20
796.2844604614035
 30
0.0
 11
280.8473824938427
 21
788.2844604624149
 31
0.0
  0
LINE
  5
E7
330
B0
100
AcDbEntity
  8
0
  6
Continuous
 62
     0
370
     0
100
AcDbLine
 10
280.8473828435338
 20
796.2844604614035
 30
0.0
 11
290.8473828435338
 21
796.2844604614035
 31
0.0
  0
LINE
  5
E8
330
B0
100
AcDbEntity
  8
0
  6
Continuous
 62
     0
370
    30
100
AcDbLine
 10
280.8473824938427
 20
788.2844604614347
 30
0.0
 11
290.8473824938427
 21
788.2844604614347
 31
0.0
  0
LINE
  5
E9
330
B0
100
AcDbEntity
  8
0
  6
Continuous
 62
     0
370
    30
100
AcDbLine
 10
290.8473824938427
 20
796.2844604614035
 30
0.0
 11
290.8473824938427
 21
788.2844604624149
 31
0.0
  0
LINE
  5
EA
330
B0
100
AcDbEntity
  8
0
  6
Continuous
 62
     0
370
    30
100
AcDbLine
 10
280.8473824938427
 20
848.2844604611948
 30
0.0
 11
290.8473824938427
 21
848.2844604611948
 31
0.0
  0
LINE
  5
EB
330
B0
100
AcDbEntity
  8
0
  6
Continuous
 62
     0
370
    30
100
AcDbLine
 10
280.8473824938427
 20
848.2844604611948
 30
0.0
 11
280.8473824938427
 21
840.2844604622059
 31
0.0
  0
LINE
  5
EC
330
B0
100
AcDbEntity
  8
0
  6
Continuous
 62
     0
370
     0
100
AcDbLine
 10
280.8473828435338
 20
840.2844604612273
 30
0.0
 11
290.8473828435338
 21
840.2844604612273
 31
0.0
  0
LINE
  5
ED
330
B0
100
AcDbEntity
  8
0
  6
Continuous
 62
     0
370
    30
100
AcDbLine
 10
290.8473824938427
 20
848.2844604611948
 30
0.0
 11
290.8473824938427
 21
840.2844604622059
 31
0.0
  0
LINE
  5
EE
330
B0
100
AcDbEntity
  8
0
  6
Continuous
 62
     0
370
    30
100
AcDbLine
 10
280.8473828435338
 20
840.2844604612273
 30
0.0
 11
280.8473828435338
 21
796.2844604614033
 31
0.0
  0
LINE
  5
EF
330
B0
100
AcDbEntity
  8
0
  6
Continuous
 62
     0
370
    30
100
AcDbLine
 10
290.8473828435338
 20
840.2844604612273
 30
0.0
 11
290.8473828435338
 21
796.2844604614033
 31
0.0
  0
LINE
  5
F0
330
B0
100
AcDbEntity
  8
0
  6
Continuous
 62
     0
370
    30
100
AcDbLine
 10
297.8473821004401
 20
837.2844604605036
 30
0.0
 11
316.8473821004401
 21
837.2844604605036
 31
0.0
  0
LINE
  5
F1
330
B0
100
AcDbEntity
  8
0
  6
Continuous
 62
     0
370
    30
100
AcDbLine
 10
297.8473821004401
 20
837.2844604605036
 30
0.0
 11
297.8473821004401
 21
831.2844604612619
 31
0.0
  0
LINE
  5
F2
330
B0
100
AcDbEntity
  8
0
  6
Continuous
 62
     0
370
     0
100
AcDbLine
 10
297.8473823627085
 20
831.2844604612619
 30
0.0
 11
316.8473823627085
 21
831.2844604612619
 31
0.0
  0
LINE
  5
F3
330
B0
100
AcDbEntity
  8
0
  6
Continuous
 62
     0
370
    30
100
AcDbLine
 10
316.8473821004401
 20
837.2844604605036
 30
0.0
 11
316.8473821004401
 21
831.2844604612619
 31
0.0
  0
LINE
  5
F4
330
B0
100
AcDbEntity
  8
0
  6
Continuous
 62
     0
370
    30
100
AcDbLine
 10
297.8473823627085
 20
831.2844604612619
 30
0.0
 11
297.8473823627085
 21
805.284460461366
 31
0.0
  0
LINE
  5
F5
330
B0
100
AcDbEntity
  8
0
  6
Continuous
 62
     0
370
     0
100
AcDbLine
 10
297.8473823627085
 20
805.284460461366
 30
0.0
 11
316.8473823627085
 21
805.284460461366
 31
0.0
  0
LINE
  5
F6
330
B0
100
AcDbEntity
  8
0
  6
Continuous
 62
     0
370
    30
100
AcDbLine
 10
316.8473823627085
 20
831.2844604612619
 30
0.0
 11
316.8473823627085
 21
805.284460461366
 31
0.0
  0
LINE
  5
F7
330
B0
100
AcDbEntity
  8
0
  6
Continuous
 62
     0
370
    30
100
AcDbLine
 10
297.8473821004401
 20
805.2844604613659
 30
0.0
 11
297.8473821004401
 21
799.2844604621243
 31
0.0
  0
LINE
  5
F8
330
B0
100
AcDbEntity
  8
0
  6
Continuous
 62
     0
370
    30
100
AcDbLine
 10
297.8473821004401
 20
799.2844604621244
 30
0.0
 11
316.8473821004401
 21
799.2844604621244
 31
0.0
  0
LINE
  5
F9
330
B0
100
AcDbEntity
  8
0
  6
Continuous
 62
     0
370
    30
100
AcDbLine
 10
316.8473821004401
 20
805.2844604613659
 30
0.0
 11
316.8473821004401
 21
799.2844604621243
 31
0.0
  0
LINE
  5
FA
330
B0
100
AcDbEntity
  8
0
  6
Continuous
 62
     0
370
    30
100
AcDbLine
 10
290.8473815321922
 20
832.7844604613154
 30
0.0
 11
297.8473815321922
 21
832.7844604613154
 31
0.0
  0
LINE
  5
FB
330
B0
100
AcDbEntity
  8
0
  6
Continuous
 62
     0
370
    30
100
AcDbLine
 10
290.8473815321922
 20
803.7844604613153
 30
0.0
 11
297.8473815321922
 21
803.7844604613153
 31
0.0
  0
ENDBLK
  5
FD
330
B0
100
AcDbEntity
  8
0
100
AcDbBlockEnd
  0
BLOCK
  5
14D
330
FF
100
AcDbEntity
  8
0
100
AcDbBlockBegin
  2
d
 70
     0
 10
-59.66017150878906
 20
0.0
 30
0.0
  3
d
  1

  0
LINE
  5
100
330
FF
100
AcDbEntity
  8
0
  6
Continuous
 62
     0
370
    30
100
AcDbLine
 10
-91.43216038547866
 20
688.2844299438565
 30
0.0
 11
-91.43216038547866
 21
696.2844299428452
 31
0.0
  0
LINE
  5
101
330
FF
100
AcDbEntity
  8
0
  6
Continuous
 62
     0
370
    30
100
AcDbLine
 10
-91.43216073516976
 20
696.2844299438238
 30
0.0
 11
-91.43216073516976
 21
740.2844299436479
 31
0.0
  0
LINE
  5
102
330
FF
100
AcDbEntity
  8
0
  6
Continuous
 62
     0
370
    30
100
AcDbLine
 10
-91.43216038547866
 20
740.2844299436492
 30
0.0
 11
-91.43216038547866
 21
748.2844299426379
 31
0.0
  0
LINE
  5
103
330
FF
100
AcDbEntity
  8
0
  6
Continuous
 62
     0
370
    30
100
AcDbLine
 10
-101.4321603854786
 20
688.2844299438565
 30
0.0
 11
-101.4321603854786
 21
696.2844299428452
 31
0.0
  0
LINE
  5
104
330
FF
100
AcDbEntity
  8
0
  6
Continuous
 62
     0
370
    30
100
AcDbLine
 10
-101.4321607351697
 20
696.2844299438238
 30
0.0
 11
-101.4321607351697
 21
740.2844299436479
 31
0.0
  0
LINE
  5
105
330
FF
100
AcDbEntity
  8
0
  6
Continuous
 62
     0
370
    30
100
AcDbLine
 10
-101.4321603854786
 20
740.2844299436492
 30
0.0
 11
-101.4321603854786
 21
748.2844299426379
 31
0.0
  0
LINE
  5
106
330
FF
100
AcDbEntity
  8
0
  6
Continuous
 62
     0
370
    30
100
AcDbLine
 10
-91.43216038547866
 20
688.2844299438565
 30
0.0
 11
-101.4321603854786
 21
688.2844299438565
 31
0.0
  0
LINE
  5
107
330
FF
100
AcDbEntity
  8
0
  6
Continuous
 62
     0
370
     0
100
AcDbLine
 10
-91.43216073516976
 20
696.2844299438238
 30
0.0
 11
-101.4321607351697
 21
696.2844299438238
 31
0.0
  0
LINE
  5
108
330
FF
100
AcDbEntity
  8
0
  6
Continuous
 62
     0
370
     0
100
AcDbLine
 10
-91.43216073516976
 20
740.2844299436492
 30
0.0
 11
-101.4321607351697
 21
740.2844299436492
 31
0.0
  0
LINE
  5
109
330
FF
100
AcDbEntity
  8
0
  6
Continuous
 62
     0
370
    30
100
AcDbLine
 10
-91.43216038547866
 20
748.2844299436164
 30
0.0
 11
-101.4321603854786
 21
748.2844299436164
 31
0.0
  0
LINE
  5
10A
330
FF
100
AcDbEntity
  8
0
  6
Continuous
 62
     0
370
    30
100
AcDbLine
 10
-108.4321599920761
 20
699.2844299445463
 30
0.0
 11
-108.4321599920761
 21
705.2844299437879
 31
0.0
  0
LINE
  5
10B
330
FF
100
AcDbEntity
  8
0
  6
Continuous
 62
     0
370
    30
100
AcDbLine
 10
-108.4321602543444
 20
705.2844299437879
 30
0.0
 11
-108.4321602543444
 21
731.2844299436838
 31
0.0
  0
LINE
  5
10C
330
FF
100
AcDbEntity
  8
0
  6
Continuous
 62
     0
370
    30
100
AcDbLine
 10
-108.4321599920761
 20
731.2844299436839
 30
0.0
 11
-108.4321599920761
 21
737.2844299429255
 31
0.0
  0
LINE
  5
10D
330
FF
100
AcDbEntity
  8
0
  6
Continuous
 62
     0
370
    30
100
AcDbLine
 10
-127.4321599920761
 20
699.2844299445463
 30
0.0
 11
-127.4321599920761
 21
705.2844299437879
 31
0.0
  0
LINE
  5
10E
330
FF
100
AcDbEntity
  8
0
  6
Continuous
 62
     0
370
    30
100
AcDbLine
 10
-127.4321602543444
 20
705.2844299437879
 30
0.0
 11
-127.4321602543444
 21
731.2844299436838
 31
0.0
  0
LINE
  5
10F
330
FF
100
AcDbEntity
  8
0
  6
Continuous
 62
     0
370
    30
100
AcDbLine
 10
-127.4321599920761
 20
731.2844299436839
 30
0.0
 11
-127.4321599920761
 21
737.2844299429255
 31
0.0
  0
LINE
  5
110
330
FF
100
AcDbEntity
  8
0
  6
Continuous
 62
     0
370
    30
100
AcDbLine
 10
-108.4321599920761
 20
699.2844299445463
 30
0.0
 11
-127.4321599920761
 21
699.2844299445463
 31
0.0
  0
LINE
  5
111
330
FF
100
AcDbEntity
  8
0
  6
Continuous
 62
     0
370
     0
100
AcDbLine
 10
-108.4321602543444
 20
705.2844299437879
 30
0.0
 11
-127.4321602543444
 21
705.2844299437879
 31
0.0
  0
LINE
  5
112
330
FF
100
AcDbEntity
  8
0
  6
Continuous
 62
     0
370
     0
100
AcDbLine
 10
-108.4321602543444
 20
731.2844299436839
 30
0.0
 11
-127.4321602543444
 21
731.2844299436839
 31
0.0
  0
LINE
  5
113
330
FF
100
AcDbEntity
  8
0
  6
Continuous
 62
     0
370
    30
100
AcDbLine
 10
-108.4321599920761
 20
737.2844299429255
 30
0.0
 11
-127.4321599920761
 21
737.2844299429255
 31
0.0
  0
LINE
  5
114
330
FF
100
AcDbEntity
  8
0
  6
Continuous
 62
     0
370
    30
100
AcDbLine
 10
-101.4321594238281
 20
732.7844299437373
 30
0.0
 11
-108.432159423828
 21
732.7844299437373
 31
0.0
  0
LINE
  5
115
330
FF
100
AcDbEntity
  8
0
  6
Continuous
 62
     0
370
    30
100
AcDbLine
 10
-101.4321594238281
 20
703.7844299437373
 30
0.0
 11
-108.432159423828
 21
703.7844299437373
 31
0.0
  0
LINE
  5
116
330
FF
100
AcDbEntity
  8
0
  6
Continuous
 62
     0
370
    30
100
AcDbLine
 10
-91.43216117228366
 20
617.0715179441413
 30
0.0
 11
-91.43216117228366
 21
627.0715179441013
 31
0.0
  0
LINE
  5
117
330
FF
100
AcDbEntity
  8
0
  6
Continuous
 62
     0
370
    30
100
AcDbLine
 10
-91.43216117228366
 20
510.0715179445687
 30
0.0
 11
-91.43216117228366
 21
520.0715179445287
 31
0.0
  0
LINE
  5
118
330
FF
100
AcDbEntity
  8
0
  6
Continuous
 62
     0
370
    30
100
AcDbLine
 10
-91.43216160939756
 20
520.0715179445287
 30
0.0
 11
-91.43216160939754
 21
617.0715179441408
 31
0.0
  0
LINE
  5
119
330
FF
100
AcDbEntity
  8
0
  6
Continuous
 62
     0
370
    30
100
AcDbLine
 10
-101.4321611722836
 20
617.0715179441413
 30
0.0
 11
-101.4321611722836
 21
627.0715179441013
 31
0.0
  0
LINE
  5
11A
330
FF
100
AcDbEntity
  8
0
  6
Continuous
 62
     0
370
    30
100
AcDbLine
 10
-101.4321611722836
 20
510.0715179445687
 30
0.0
 11
-101.4321611722836
 21
520.0715179445287
 31
0.0
  0
LINE
  5
11B
330
FF
100
AcDbEntity
  8
0
  6
Continuous
 62
     0
370
    30
100
AcDbLine
 10
-101.4321616093975
 20
520.0715179445287
 30
0.0
 11
-101.4321616093975
 21
617.0715179441408
 31
0.0
  0
LINE
  5
11C
330
FF
100
AcDbEntity
  8
0
  6
Continuous
 62
     0
370
     0
100
AcDbLine
 10
-91.43216160939752
 20
617.0715179441413
 30
0.0
 11
-101.4321616093975
 21
617.0715179441413
 31
0.0
  0
LINE
  5
11D
330
FF
100
AcDbEntity
  8
0
  6
Continuous
 62
     0
370
    30
100
AcDbLine
 10
-91.43216117228366
 20
627.0715179441013
 30
0.0
 11
-101.4321611722836
 21
627.0715179441013
 31
0.0
  0
LINE
  5
11E
330
FF
100
AcDbEntity
  8
0
  6
Continuous
 62
     0
370
    30
100
AcDbLine
 10
-91.43216117228366
 20
510.0715179445687
 30
0.0
 11
-101.4321611722836
 21
510.0715179445687
 31
0.0
  0
LINE
  5
11F
330
FF
100
AcDbEntity
  8
0
  6
Continuous
 62
     0
370
     0
100
AcDbLine
 10
-91.43216160939756
 20
520.0715179445287
 30
0.0
 11
-101.4321616093975
 21
520.0715179445287
 31
0.0
  0
LINE
  5
120
330
FF
100
AcDbEntity
  8
0
  6
Continuous
 62
     0
370
    30
100
AcDbLine
 10
-139.432159423828
 20
549.5715179443359
 30
0.0
 11
-139.432159423828
 21
568.5715179443359
 31
0.0
  0
LINE
  5
121
330
FF
100
AcDbEntity
  8
0
  6
Continuous
 62
     0
370
    30
100
AcDbLine
 10
-139.432159423828
 20
568.5715179443359
 30
0.0
 11
-139.432159423828
 21
587.5715179443359
 31
0.0
  0
LINE
  5
122
330
FF
100
AcDbEntity
  8
0
  6
Continuous
 62
     0
370
    30
100
AcDbLine
 10
-138.932159423828
 20
549.0715179443359
 30
0.0
 11
-138.932159423828
 21
568.5715179443359
 31
0.0
  0
LINE
  5
123
330
FF
100
AcDbEntity
  8
0
  6
Continuous
 62
     0
370
    30
100
AcDbLine
 10
-138.932159423828
 20
568.5715179443359
 30
0.0
 11
-138.932159423828
 21
588.0715179443359
 31
0.0
  0
LINE
  5
124
330
FF
100
AcDbEntity
  8
0
  6
Continuous
 62
     0
370
    30
100
AcDbLine
 10
-124.4821594457467
 20
594.6344359442324
 30
0.0
 11
-124.9821594457449
 21
595.1344359442304
 31
0.0
  0
LINE
  5
125
330
FF
100
AcDbEntity
  8
0
  6
Continuous
 62
     0
370
    30
100
AcDbLine
 10
-124.4821594457467
 20
594.6344359442324
 30
0.0
 11
-132.3821594457149
 21
594.6344359442324
 31
0.0
  0
LINE
  5
126
330
FF
100
AcDbEntity
  8
0
  6
Continuous
 62
     0
370
    30
100
AcDbLine
 10
-124.9821594457449
 20
595.1344359442304
 30
0.0
 11
-131.8821594457168
 21
595.1344359442304
 31
0.0
  0
ARC
  5
127
330
FF
100
AcDbEntity
  8
0
  6
Continuous
 62
     0
370
    30
100
AcDbCircle
 10
-128.4364894457308
 20
563.3729449443566
 30
0.0
 40
14.78999999994084
100
AcDbArc
 50
270.0167742210615
 51
284.8651053033066
  0
LINE
  5
128
330
FF
100
AcDbEntity
  8
0
  6
Continuous
 62
     0
370
    30
100
AcDbLine
 10
-124.6302557464193
 20
549.31725628657
 30
0.0
 11
-132.2340633711178
 21
549.31725628657
 31
0.0
  0
LINE
  5
129
330
FF
100
AcDbEntity
  8
0
  6
Continuous
 62
     0
370
    30
100
AcDbLine
 10
-124.4821594457467
 20
588.0651066339538
 30
0.0
 11
-124.4821594457467
 21
594.6344359442323
 31
0.0
  0
LWPOLYLINE
  5
12A
330
FF
100
AcDbEntity
  8
0
  6
Continuous
 62
     0
370
    30
100
AcDbPolyline
 90
        3
 70
     0
 43
0.0
 10
-132.2221221923828
 20
549.0779418945312
 10
-132.2873229980468
 20
549.1544799804687
 10
-132.2340698242187
 20
549.3172607421874
  0
LWPOLYLINE
  5
12B
330
FF
100
AcDbEntity
  8
0
  6
Continuous
 62
     0
370
    30
100
AcDbPolyline
 90
        3
 70
     0
 43
0.0
 10
-124.630256652832
 20
549.3172607421874
 10
-124.5769958496093
 20
549.1544799804687
 10
-124.6422042846679
 20
549.0779418945312
  0
ARC
  5
12C
330
FF
100
AcDbEntity
  8
0
  6
Continuous
 62
     0
370
    30
100
AcDbCircle
 10
-128.4321595587686
 20
532.8203899858526
 30
0.0
 40
16.92929621520336
100
AcDbArc
 50
77.0220873885051
 51
102.9779126115592
  0
LWPOLYLINE
  5
12D
330
FF
100
AcDbEntity
  8
0
  6
Continuous
 62
     0
370
    30
100
AcDbPolyline
 90
       17
 70
     0
 43
0.0
 10
-124.4821624755859
 20
588.0651245117187
 10
-124.5583190917968
 20
588.0299682617187
 10
-124.7832794189453
 20
587.9673461914062
 10
-125.1471099853515
 20
587.8846435546875
 10
-125.6357650756835
 20
587.7919311523437
 10
-126.2313079833984
 20
587.7017822265624
 10
-126.912124633789
 20
587.6259155273437
 10
-127.6527557373046
 20
587.5750122070312
 10
-128.4251251220703
 20
587.5570068359374
 10
-129.1976928710937
 20
587.5744018554687
 10
-129.939468383789
 20
587.6245727539062
 10
-130.6214141845703
 20
587.7001342773437
 10
-131.2184448242187
 20
587.7904052734375
 10
-131.7093963623046
 20
587.8829345703125
 10
-132.0755920410156
 20
587.9658813476562
 10
-132.3031921386718
 20
588.029052734375
 10
-132.3817291259765
 20
588.0644531249999
  0
LINE
  5
12E
330
FF
100
AcDbEntity
  8
0
  6
Continuous
 62
     0
370
    30
100
AcDbLine
 10
-132.3821594457149
 20
594.6344359442324
 30
0.0
 11
-131.8821594457168
 21
595.1344359442304
 31
0.0
  0
LINE
  5
12F
330
FF
100
AcDbEntity
  8
0
  6
Continuous
 62
     0
370
    30
100
AcDbLine
 10
-132.3821594457149
 20
588.0648302785516
 30
0.0
 11
-132.3821594457149
 21
594.6344359442324
 31
0.0
  0
ARC
  5
130
330
FF
100
AcDbEntity
  8
0
  6
Continuous
 62
     0
370
    30
100
AcDbCircle
 10
-128.4278294457308
 20
563.3729449443566
 30
0.0
 40
14.78999999994084
100
AcDbArc
 50
255.1348890564942
 51
269.9832257789385
  0
LINE
  5
131
330
FF
100
AcDbEntity
  8
0
  6
Continuous
 62
     0
370
    30
100
AcDbLine
 10
-139.432159423828
 20
587.5715179443359
 30
0.0
 11
-138.932159423828
 21
588.0715179443359
 31
0.0
  0
LINE
  5
132
330
FF
100
AcDbEntity
  8
0
  6
Continuous
 62
     0
370
    30
100
AcDbLine
 10
-139.432159423828
 20
549.5715179443359
 30
0.0
 11
-138.932159423828
 21
549.0715179443359
 31
0.0
  0
LINE
  5
133
330
FF
100
AcDbEntity
  8
0
  6
Continuous
 62
     0
370
    30
100
AcDbLine
 10
-101.4321594238281
 20
588.0715179443359
 30
0.0
 11
-124.482159423891
 21
588.0715179443359
 31
0.0
  0
LINE
  5
134
330
FF
100
AcDbEntity
  8
0
  6
Continuous
 62
     0
370
    30
100
AcDbLine
 10
-132.3821594238592
 20
588.0715179443359
 30
0.0
 11
-138.932159423828
 21
588.0715179443359
 31
0.0
  0
LINE
  5
135
330
FF
100
AcDbEntity
  8
0
  6
Continuous
 62
     0
370
    30
100
AcDbLine
 10
-101.4321594238281
 20
549.0715179443359
 30
0.0
 11
-124.6664382622423
 21
549.0715179443359
 31
0.0
  0
LINE
  5
136
330
FF
100
AcDbEntity
  8
0
  6
Continuous
 62
     0
370
    30
100
AcDbLine
 10
-132.1978805855079
 20
549.0715179443359
 30
0.0
 11
-138.932159423828
 21
549.0715179443359
 31
0.0
  0
LINE
  5
137
330
FF
100
AcDbEntity
  8
0
  6
Continuous
 62
     0
370
    30
100
AcDbLine
 10
-91.43216038547864
 20
788.2844299438565
 30
0.0
 11
-101.4321603854786
 21
788.2844299438565
 31
0.0
  0
LINE
  5
138
330
FF
100
AcDbEntity
  8
0
  6
Continuous
 62
     0
370
    30
100
AcDbLine
 10
-91.43216038547864
 20
788.2844299438565
 30
0.0
 11
-91.43216038547864
 21
796.2844299428452
 31
0.0
  0
LINE
  5
139
330
FF
100
AcDbEntity
  8
0
  6
Continuous
 62
     0
370
     0
100
AcDbLine
 10
-91.43216073516974
 20
796.2844299438239
 30
0.0
 11
-101.4321607351697
 21
796.2844299438239
 31
0.0
  0
LINE
  5
13A
330
FF
100
AcDbEntity
  8
0
  6
Continuous
 62
     0
370
    30
100
AcDbLine
 10
-101.4321603854786
 20
788.2844299438565
 30
0.0
 11
-101.4321603854786
 21
796.2844299428452
 31
0.0
  0
LINE
  5
13B
330
FF
100
AcDbEntity
  8
0
  6
Continuous
 62
     0
370
    30
100
AcDbLine
 10
-91.43216073516974
 20
796.2844299438239
 30
0.0
 11
-91.43216073516974
 21
840.2844299436479
 31
0.0
  0
LINE
  5
13C
330
FF
100
AcDbEntity
  8
0
  6
Continuous
 62
     0
370
     0
100
AcDbLine
 10
-91.43216073516974
 20
840.2844299436491
 30
0.0
 11
-101.4321607351697
 21
840.2844299436491
 31
0.0
  0
LINE
  5
13D
330
FF
100
AcDbEntity
  8
0
  6
Continuous
 62
     0
370
    30
100
AcDbLine
 10
-101.4321607351697
 20
796.2844299438239
 30
0.0
 11
-101.4321607351697
 21
840.2844299436479
 31
0.0
  0
LINE
  5
13E
330
FF
100
AcDbEntity
  8
0
  6
Continuous
 62
     0
370
    30
100
AcDbLine
 10
-91.43216038547864
 20
840.2844299436491
 30
0.0
 11
-91.43216038547864
 21
848.284429942638
 31
0.0
  0
LINE
  5
13F
330
FF
100
AcDbEntity
  8
0
  6
Continuous
 62
     0
370
    30
100
AcDbLine
 10
-91.43216038547864
 20
848.2844299436164
 30
0.0
 11
-101.4321603854786
 21
848.2844299436164
 31
0.0
  0
LINE
  5
140
330
FF
100
AcDbEntity
  8
0
  6
Continuous
 62
     0
370
    30
100
AcDbLine
 10
-101.4321603854786
 20
840.2844299436491
 30
0.0
 11
-101.4321603854786
 21
848.284429942638
 31
0.0
  0
LINE
  5
141
330
FF
100
AcDbEntity
  8
0
  6
Continuous
 62
     0
370
    30
100
AcDbLine
 10
-108.4321599920761
 20
799.2844299445463
 30
0.0
 11
-108.4321599920761
 21
805.2844299437879
 31
0.0
  0
LINE
  5
142
330
FF
100
AcDbEntity
  8
0
  6
Continuous
 62
     0
370
    30
100
AcDbLine
 10
-108.4321599920761
 20
799.2844299445463
 30
0.0
 11
-127.4321599920761
 21
799.2844299445463
 31
0.0
  0
LINE
  5
143
330
FF
100
AcDbEntity
  8
0
  6
Continuous
 62
     0
370
     0
100
AcDbLine
 10
-108.4321602543444
 20
805.2844299437879
 30
0.0
 11
-127.4321602543444
 21
805.2844299437879
 31
0.0
  0
LINE
  5
144
330
FF
100
AcDbEntity
  8
0
  6
Continuous
 62
     0
370
    30
100
AcDbLine
 10
-127.4321599920761
 20
799.2844299445463
 30
0.0
 11
-127.4321599920761
 21
805.2844299437879
 31
0.0
  0
LINE
  5
145
330
FF
100
AcDbEntity
  8
0
  6
Continuous
 62
     0
370
    30
100
AcDbLine
 10
-108.4321602543444
 20
805.2844299437879
 30
0.0
 11
-108.4321602543444
 21
831.2844299436839
 31
0.0
  0
LINE
  5
146
330
FF
100
AcDbEntity
  8
0
  6
Continuous
 62
     0
370
     0
100
AcDbLine
 10
-108.4321602543444
 20
831.2844299436839
 30
0.0
 11
-127.4321602543444
 21
831.2844299436839
 31
0.0
  0
LINE
  5
147
330
FF
100
AcDbEntity
  8
0
  6
Continuous
 62
     0
370
    30
100
AcDbLine
 10
-127.4321602543444
 20
805.2844299437879
 30
0.0
 11
-127.4321602543444
 21
831.2844299436839
 31
0.0
  0
LINE
  5
148
330
FF
100
AcDbEntity
  8
0
  6
Continuous
 62
     0
370
    30
100
AcDbLine
 10
-108.4321599920761
 20
831.2844299436839
 30
0.0
 11
-108.4321599920761
 21
837.2844299429255
 31
0.0
  0
LINE
  5
149
330
FF
100
AcDbEntity
  8
0
  6
Continuous
 62
     0
370
    30
100
AcDbLine
 10
-108.4321599920761
 20
837.2844299429255
 30
0.0
 11
-127.432159992076
 21
837.2844299429255
 31
0.0
  0
LINE
  5
14A
330
FF
100
AcDbEntity
  8
0
  6
Continuous
 62
     0
370
    30
100
AcDbLine
 10
-127.4321599920761
 20
831.2844299436839
 30
0.0
 11
-127.4321599920761
 21
837.2844299429255
 31
0.0
  0
LINE
  5
14B
330
FF
100
AcDbEntity
  8
0
  6
Continuous
 62
     0
370
    30
100
AcDbLine
 10
-101.432159423828
 20
832.7844299437373
 30
0.0
 11
-108.432159423828
 21
832.7844299437373
 31
0.0
  0
LINE
  5
14C
330
FF
100
AcDbEntity
  8
0
  6
Continuous
 62
     0
370
    30
100
AcDbLine
 10
-101.4321594238281
 20
803.7844299437374
 30
0.0
 11
-108.432159423828
 21
803.7844299437374
 31
0.0
  0
ENDBLK
  5
14E
330
FF
100
AcDbEntity
  8
0
100
AcDbBlockEnd
  0
ENDSEC
  0
SECTION
  2
ENTITIES
  0
INSERT
  5
81
330
1F
100
AcDbEntity
  8
0
  6
Continuous
 62
   250
370
     0
100
AcDbBlockReference
  2
a
 10
13.22363662719726
 20
87.81689453125
 30
0.0
  0
INSERT
  5
AF
330
1F
100
AcDbEntity
  8
0
  6
Continuous
 62
   250
370
     0
100
AcDbBlockReference
  2
b
 10
13.22363471984863
 20
319.874771118164
 30
0.0
  0
INSERT
  5
FE
330
1F
100
AcDbEntity
  8
0
  6
Continuous
 62
   250
370
     0
100
AcDbBlockReference
  2
c
 10
69.65017318725585
 20
128.1212158203125
 30
0.0
  0
INSERT
  5
14F
330
1F
100
AcDbEntity
  8
0
  6
Continuous
 62
   250
370
     0
100
AcDbBlockReference
  2
d
 10
-59.66017150878906
 20
0.0
 30
0.0
  0
ENDSEC
  0
SECTION
  2
OBJECTS
  0
DICTIONARY
  5
C
330
0
100
AcDbDictionary
281
     1
  3
ACAD_GROUP
350
D
  3
ACAD_LAYOUT
350
1A
  3
ACAD_MLEADERSTYLE
350
152
  3
ACAD_MLINESTYLE
350
17
  3
ACAD_PLOTSETTINGS
350
19
  3
ACAD_PLOTSTYLENAME
350
E
  3
ACAD_VISUALSTYLE
350
2A
  3
AcDbVariableDictionary
350
150
  0
DICTIONARY
  5
D
102
{ACAD_REACTORS
330
C
102
}
330
C
100
AcDbDictionary
281
     1
  0
DICTIONARY
  5
1A
102
{ACAD_REACTORS
330
C
102
}
330
C
100
AcDbDictionary
281
     1
  3
Layout1
350
1E
  3
Layout2
350
26
  3
Model
350
22
  0
DICTIONARY
  5
152
102
{ACAD_REACTORS
330
C
102
}
330
C
100
AcDbDictionary
281
     1
  0
DICTIONARY
  5
17
102
{ACAD_REACTORS
330
C
102
}
330
C
100
AcDbDictionary
281
     1
  3
Standard
350
18
  0
DICTIONARY
  5
19
102
{ACAD_REACTORS
330
C
102
}
330
C
100
AcDbDictionary
281
     1
  0
ACDBDICTIONARYWDFLT
  5
E
102
{ACAD_REACTORS
330
C
102
}
330
C
100
AcDbDictionary
281
     1
  3
Normal
350
F
100
AcDbDictionaryWithDefault
340
F
  0
DICTIONARY
  5
2A
102
{ACAD_REACTORS
330
C
102
}
330
C
100
AcDbDictionary
281
     1
  3
2dWireframe
350
2F
  3
3D Hidden
350
31
  3
3dWireframe
350
30
  3
Basic
350
32
  3
Brighten
350
36
  3
ColorChange
350
3A
  3
Conceptual
350
34
  3
Dim
350
35
  3
Facepattern
350
39
  3
Flat
350
2B
  3
FlatWithEdges
350
2C
  3
Gouraud
350
2D
  3
GouraudWithEdges
350
2E
  3
Linepattern
350
38
  3
Realistic
350
33
  3
Thicken
350
37
  0
DICTIONARY
  5
150
102
{ACAD_REACTORS
330
C
102
}
330
C
100
AcDbDictionary
281
     1
  3
DIMASSOC
350
15B
  3
PSOLHEIGHT
350
154
  3
PSOLWIDTH
350
153
  0
LAYOUT
  5
1E
102
{ACAD_REACTORS
330
1A
102
}
330
1A
100
AcDbPlotSettings
  1

  2
none_device
  4

  6

 40
0.0
 41
0.0
 42
0.0
 43
0.0
 44
0.0
 45
0.0
 46
0.0
 47
0.0
 48
0.0
 49
0.0
140
0.0
141
0.0
142
1.0
143
1.0
 70
   688
 72
     0
 73
     0
 74
     5
  7

 75
    16
147
1.0
148
0.0
149
0.0
100
AcDbLayout
  1
Layout1
 70
     1
 71
     1
 10
0.0
 20
0.0
 11
420.0
 21
297.0
 12
0.0
 22
0.0
 32
0.0
 14
1.000000000000000E+20
 24
1.000000000000000E+20
 34
1.000000000000000E+20
 15
-1.000000000000000E+20
 25
-1.000000000000000E+20
 35
-1.000000000000000E+20
146
0.0
 13
0.0
 23
0.0
 33
0.0
 16
1.0
 26
0.0
 36
0.0
 17
0.0
 27
1.0
 37
0.0
 76
     0
330
1B
  0
LAYOUT
  5
26
102
{ACAD_REACTORS
330
1A
102
}
330
1A
100
AcDbPlotSettings
  1

  2
none_device
  4

  6

 40
0.0
 41
0.0
 42
0.0
 43
0.0
 44
0.0
 45
0.0
 46
0.0
 47
0.0
 48
0.0
 49
0.0
140
0.0
141
0.0
142
1.0
143
1.0
 70
   688
 72
     0
 73
     0
 74
     5
  7

 75
    16
147
1.0
148
0.0
149
0.0
100
AcDbLayout
  1
Layout2
 70
     1
 71
     2
 10
0.0
 20
0.0
 11
0.0
 21
0.0
 12
0.0
 22
0.0
 32
0.0
 14
0.0
 24
0.0
 34
0.0
 15
0.0
 25
0.0
 35
0.0
146
0.0
 13
0.0
 23
0.0
 33
0.0
 16
1.0
 26
0.0
 36
0.0
 17
0.0
 27
1.0
 37
0.0
 76
     0
330
23
  0
LAYOUT
  5
22
102
{ACAD_REACTORS
330
1A
102
}
330
1A
100
AcDbPlotSettings
  1

  2
none_device
  4

  6

 40
0.0
 41
0.0
 42
0.0
 43
0.0
 44
0.0
 45
0.0
 46
0.0
 47
0.0
 48
0.0
 49
0.0
140
0.0
141
0.0
142
1.0
143
1.0
 70
  1712
 72
     0
 73
     0
 74
     0
  7

 75
     0
147
1.0
148
0.0
149
0.0
100
AcDbLayout
  1
Model
 70
     1
 71
     0
 10
-145.4321594238281
 20
304.3805847167968
 11
328.8473815917968
 21
866.284423828125
 12
0.0
 22
0.0
 32
0.0
 14
-145.4321594238281
 24
304.3805847167968
 34
0.0
 15
328.8473815917968
 25
866.284423828125
 35
0.0
146
0.0
 13
0.0
 23
0.0
 33
0.0
 16
1.0
 26
0.0
 36
0.0
 17
0.0
 27
1.0
 37
0.0
 76
     0
330
1F
  0
MLINESTYLE
  5
18
102
{ACAD_REACTORS
330
17
102
}
330
17
100
AcDbMlineStyle
  2
STANDARD
 70
     0
  3

 62
   256
 51
90.0
 52
90.0
 71
     2
 49
0.5
 62
   256
  6
BYLAYER
 49
-0.5
 62
   256
  6
BYLAYER
  0
ACDBPLACEHOLDER
  5
F
102
{ACAD_REACTORS
330
E
102
}
330
E
  0
ACAD_PROXY_OBJECT
  5
2F
102
{ACAD_REACTORS
330
2A
102
}
330
2A
100
AcDbProxyObject
 90
      499
 91
      501
 95
   851991
 70
     0
 93
      436
310
42CC9915DA5C99599C985B595049028333333333333E3BF0000000000000FB0107901411070040501600405405064090741402480A0340
 94
        0
1001
ACAD
1000
AcDbSavedByObjectVersion
1070
     0
  0
ACAD_PROXY_OBJECT
  5
31
102
{ACAD_REACTORS
330
2A
102
}
330
2A
100
AcDbProxyObject
 90
      499
 91
      501
 95
   851991
 70
     0
 93
      500
310
424CD108121A5919195B90640502408333333333333E3BF0000000000000FB01079024090700405020000000000001110200405405064090740C02480A034D
 94
        0
1001
ACAD
1000
AcDbSavedByObjectVersion
1070
     0
  0
ACAD_PROXY_OBJECT
  5
30
102
{ACAD_REACTORS
330
2A
102
}
330
2A
100
AcDbProxyObject
 90
      499
 91
      501
 95
   851991
 70
     0
 93
      436
310
42CCD915DA5C99599C985B595059028333333333333E3BF0000000000000FB0107901411070040501600405405064090741402480A0340
 94
        0
1001
ACAD
1000
AcDbSavedByObjectVersion
1070
     0
  0
ACAD_PROXY_OBJECT
  5
32
102
{ACAD_REACTORS
330
2A
102
}
330
2A
100
AcDbProxyObject
 90
      499
 91
      501
 95
   851991
 70
     0
 93
      388
310
4150985CDA58D07406404333333333333E3BF0000000000000FB0107A41107004050150841D405064090741402480A0352
 94
        0
1001
ACAD
1000
AcDbSavedByObjectVersion
1070
     0
  0
ACAD_PROXY_OBJECT
  5
36
102
{ACAD_REACTORS
330
2A
102
}
330
2A
100
AcDbProxyObject
 90
      499
 91
      501
 95
   851991
 70
     0
 93
      428
310
42109C9A59DA1D195B90C409028333333333333E3BF0000000000000FB010790141107004050150841D405064090741402480A029956
 94
        0
1001
ACAD
1000
AcDbSavedByObjectVersion
1070
     0
  0
ACAD_PROXY_OBJECT
  5
3A
102
{ACAD_REACTORS
330
2A
102
}
330
2A
100
AcDbProxyObject
 90
      499
 91
      501
 95
   851991
 70
     0
 93
      452
310
42D0DBDB1BDC90DA185B99D95104090240C333333333333E3BF0000000000000FB0108901411070040501508421405064090741402480A0354
 94
        0
1001
ACAD
1000
AcDbSavedByObjectVersion
1070
     0
  0
ACAD_PROXY_OBJECT
  5
34
102
{ACAD_REACTORS
330
2A
102
}
330
2A
100
AcDbProxyObject
 90
      499
 91
      501
 95
   851991
 70
     0
 93
      500
310
4290DBDB98D95C1D1D585B10940D028333333333333E3BF0000000000000FB0107902409070040501000000000000111010841D405064090740C02480A034D
 94
        0
1001
ACAD
1000
AcDbSavedByObjectVersion
1070
     0
  0
ACAD_PROXY_OBJECT
  5
35
102
{ACAD_REACTORS
330
2A
102
}
330
2A
100
AcDbProxyObject
 90
      499
 91
      501
 95
   851991
 70
     0
 93
      412
310
40D11A5B50B409028333333333333E3BF0000000000000FB010790141107004050150841D405064090741402480A02677FFFFFD4
 94
        0
1001
ACAD
1000
AcDbSavedByObjectVersion
1070
     0
  0
ACAD_PROXY_OBJECT
  5
39
102
{ACAD_REACTORS
330
2A
102
}
330
2A
100
AcDbProxyObject
 90
      499
 91
      501
 95
   851991
 70
     0
 93
      444
310
42D19858D95C185D1D195C9B90F409028333333333333E3BF0000000000000FB010790141107004050150841D405064090741402480A0350
 94
        0
1001
ACAD
1000
AcDbSavedByObjectVersion
1070
     0
  0
ACAD_PROXY_OBJECT
  5
2B
102
{ACAD_REACTORS
330
2A
102
}
330
2A
100
AcDbProxyObject
 90
      499
 91
      501
 95
   851991
 70
     0
 93
      388
310
41119B185D240901404333333333333E3BF0000000000000F9010740A41107004050150841D405064090741402480A1B5D
 94
        0
1001
ACAD
1000
AcDbSavedByObjectVersion
1070
     0
  0
ACAD_PROXY_OBJECT
  5
2C
102
{ACAD_REACTORS
330
2A
102
}
330
2A
100
AcDbProxyObject
 90
      499
 91
      501
 95
   851991
 70
     0
 93
      476
310
43519B185D15DA5D1A115919D95CD0140901404333333333333E3BF0000000000000F9010740901411070040501600405405064090741402480A1B50
 94
        0
1001
ACAD
1000
AcDbSavedByObjectVersion
1070
     0
  0
ACAD_PROXY_OBJECT
  5
2D
102
{ACAD_REACTORS
330
2A
102
}
330
2A
100
AcDbProxyObject
 90
      499
 91
      501
 95
   851991
 70
     0
 93
      412
310
41D1DBDD5C985D5910240902404333333333333E3BF0000000000000F9010740A411070040501641D405064090741402480A1B50
 94
        0
1001
ACAD
1000
AcDbSavedByObjectVersion
1070
     0
  0
ACAD_PROXY_OBJECT
  5
2E
102
{ACAD_REACTORS
330
2A
102
}
330
2A
100
AcDbProxyObject
 90
      499
 91
      501
 95
   851991
 70
     0
 93
      500
310
4411DBDD5C985D5915DA5D1A115919D95CD0340902404333333333333E3BF0000000000000F9010740901411070040501600405405064090741402480A1B5D
 94
        0
1001
ACAD
1000
AcDbSavedByObjectVersion
1070
     0
  0
ACAD_PROXY_OBJECT
  5
38
102
{ACAD_REACTORS
330
2A
102
}
330
2A
100
AcDbProxyObject
 90
      499
 91
      501
 95
   851991
 70
     0
 93
      444
310
42D31A5B995C185D1D195C9B90E409028333333333333E3BF0000000000000FB010790141107004050750841D405064090741402483A0350
 94
        0
1001
ACAD
1000
AcDbSavedByObjectVersion
1070
     0
  0
ACAD_PROXY_OBJECT
  5
33
102
{ACAD_REACTORS
330
2A
102
}
330
2A
100
AcDbProxyObject
 90
      499
 91
      501
 95
   851991
 70
     0
 93
      420
310
425499585B1A5CDD1A58D08409028333333333333E3BF0000000000000FB01079019070040501508421405064090741402480A1B45
 94
        0
1001
ACAD
1000
AcDbSavedByObjectVersion
1070
     0
  0
ACAD_PROXY_OBJECT
  5
37
102
{ACAD_REACTORS
330
2A
102
}
330
2A
100
AcDbProxyObject
 90
      499
 91
      501
 95
   851991
 70
     0
 93
      412
310
41D51A1A58DAD95B90D409028333333333333E3BF0000000000000FB010790141107004050150C41D405064090741402480A0352
 94
        0
1001
ACAD
1000
AcDbSavedByObjectVersion
1070
     0
  0
DICTIONARYVAR
  5
15B
102
{ACAD_REACTORS
330
150
102
}
330
150
100
DictionaryVariables
280
     0
  1
1
  0
DICTIONARYVAR
  5
154
102
{ACAD_REACTORS
330
150
102
}
330
150
100
DictionaryVariables
280
     0
  1
80.000000
  0
DICTIONARYVAR
  5
153
102
{ACAD_REACTORS
330
150
102
}
330
150
100
DictionaryVariables
280
     0
  1
5.000000
  0
ENDSEC
  0
EOF
