  0
SECTION
  2
HEADER
  9
$ACADVER
  1
AC1015
  9
$ACADMAINTVER
 70
     6
  9
$DWGCODEPAGE
  3
ANSI_1252
  9
$INSBASE
 10
0.0
 20
0.0
 30
0.0
  9
$EXTMIN
 10
-112.504837
 20
124.167931
 30
0.0
  9
$EXTMAX
 10
332.635681
 20
860.717407
 30
0.0
  9
$LIMMIN
 10
-112.504837
 20
124.167931
  9
$LIMMAX
 10
332.635681
 20
860.717407
  9
$ORTHOMODE
 70
     0
  9
$REGENMODE
 70
     1
  9
$FILLMODE
 70
     1
  9
$QTEXTMODE
 70
     0
  9
$MIRRTEXT
 70
     1
  9
$LTSCALE
 40
1.0
  9
$ATTMODE
 70
     1
  9
$TEXTSIZE
 40
2.5
  9
$TRACEWID
 40
1.0
  9
$TEXTSTYLE
  7
Standard
  9
$CLAYER
  8
0
  9
$CELTYPE
  6
ByLayer
  9
$CECOLOR
 62
   256
  9
$CELTSCALE
 40
1.0
  9
$DISPSILH
 70
     0
  9
$DIMSCALE
 40
1.0
  9
$DIMASZ
 40
2.5
  9
$DIMEXO
 40
0.625
  9
$DIMDLI
 40
3.75
  9
$DIMRND
 40
0.0
  9
$DIMDLE
 40
0.0
  9
$DIMEXE
 40
1.25
  9
$DIMTP
 40
0.0
  9
$DIMTM
 40
0.0
  9
$DIMTXT
 40
2.5
  9
$DIMCEN
 40
2.5
  9
$DIMTSZ
 40
0.0
  9
$DIMTOL
 70
     0
  9
$DIMLIM
 70
     0
  9
$DIMTIH
 70
     0
  9
$DIMTOH
 70
     0
  9
$DIMSE1
 70
     0
  9
$DIMSE2
 70
     0
  9
$DIMTAD
 70
     1
  9
$DIMZIN
 70
     8
  9
$DIMBLK
  1

  9
$DIMASO
 70
     1
  9
$DIMSHO
 70
     1
  9
$DIMPOST
  1

  9
$DIMAPOST
  1

  9
$DIMALT
 70
     0
  9
$DIMALTD
 70
     3
  9
$DIMALTF
 40
0.03937
  9
$DIMLFAC
 40
1.0
  9
$DIMTOFL
 70
     1
  9
$DIMTVP
 40
0.0
  9
$DIMTIX
 70
     0
  9
$DIMSOXD
 70
     0
  9
$DIMSAH
 70
     0
  9
$DIMBLK1
  1

  9
$DIMBLK2
  1

  9
$DIMSTYLE
  2
ISO-25
  9
$DIMCLRD
 70
     0
  9
$DIMCLRE
 70
     0
  9
$DIMCLRT
 70
     0
  9
$DIMTFAC
 40
1.0
  9
$DIMGAP
 40
0.625
  9
$DIMJUST
 70
     0
  9
$DIMSD1
 70
     0
  9
$DIMSD2
 70
     0
  9
$DIMTOLJ
 70
     0
  9
$DIMTZIN
 70
     8
  9
$DIMALTZ
 70
     0
  9
$DIMALTTZ
 70
     0
  9
$DIMUPT
 70
     0
  9
$DIMDEC
 70
     2
  9
$DIMTDEC
 70
     2
  9
$DIMALTU
 70
     2
  9
$DIMALTTD
 70
     3
  9
$DIMTXSTY
  7
Standard
  9
$DIMAUNIT
 70
     0
  9
$DIMADEC
 70
     0
  9
$DIMALTRND
 40
0.0
  9
$DIMAZIN
 70
     0
  9
$DIMDSEP
 70
    44
  9
$DIMATFIT
 70
     3
  9
$DIMFRAC
 70
     0
  9
$DIMLDRBLK
  1

  9
$DIMLUNIT
 70
     2
  9
$DIMLWD
 70
    -2
  9
$DIMLWE
 70
    -2
  9
$DIMTMOVE
 70
     0
  9
$LUNITS
 70
     2
  9
$LUPREC
 70
     4
  9
$SKETCHINC
 40
1.0
  9
$FILLETRAD
 40
10.0
  9
$AUNITS
 70
     0
  9
$AUPREC
 70
     0
  9
$MENU
  1
.
  9
$ELEVATION
 40
0.0
  9
$PELEVATION
 40
0.0
  9
$THICKNESS
 40
0.0
  9
$LIMCHECK
 70
     0
  9
$CHAMFERA
 40
10.0
  9
$CHAMFERB
 40
10.0
  9
$CHAMFERC
 40
20.0
  9
$CHAMFERD
 40
0.0
  9
$SKPOLY
 70
     0
  9
$TDCREATE
 40
2455576.731414919
  9
$TDUCREATE
 40
2455576.689748252
  9
$TDUPDATE
 40
2455576.73141493
  9
$TDUUPDATE
 40
2455576.689748264
  9
$TDINDWG
 40
0.0000000116
  9
$TDUSRTIMER
 40
0.0000000116
  9
$USRTIMER
 70
     1
  9
$ANGBASE
 50
0.0
  9
$ANGDIR
 70
     0
  9
$PDMODE
 70
     0
  9
$PDSIZE
 40
0.0
  9
$PLINEWID
 40
0.0
  9
$SPLFRAME
 70
     0
  9
$SPLINETYPE
 70
     6
  9
$SPLINESEGS
 70
     8
  9
$HANDSEED
  5
44F
  9
$SURFTAB1
 70
     6
  9
$SURFTAB2
 70
     6
  9
$SURFTYPE
 70
     6
  9
$SURFU
 70
     6
  9
$SURFV
 70
     6
  9
$UCSBASE
  2

  9
$UCSNAME
  2

  9
$UCSORG
 10
0.0
 20
0.0
 30
0.0
  9
$UCSXDIR
 10
1.0
 20
0.0
 30
0.0
  9
$UCSYDIR
 10
0.0
 20
1.0
 30
0.0
  9
$UCSORTHOREF
  2

  9
$UCSORTHOVIEW
 70
     0
  9
$UCSORGTOP
 10
0.0
 20
0.0
 30
0.0
  9
$UCSORGBOTTOM
 10
0.0
 20
0.0
 30
0.0
  9
$UCSORGLEFT
 10
0.0
 20
0.0
 30
0.0
  9
$UCSORGRIGHT
 10
0.0
 20
0.0
 30
0.0
  9
$UCSORGFRONT
 10
0.0
 20
0.0
 30
0.0
  9
$UCSORGBACK
 10
0.0
 20
0.0
 30
0.0
  9
$PUCSBASE
  2

  9
$PUCSNAME
  2

  9
$PUCSORG
 10
0.0
 20
0.0
 30
0.0
  9
$PUCSXDIR
 10
1.0
 20
0.0
 30
0.0
  9
$PUCSYDIR
 10
0.0
 20
1.0
 30
0.0
  9
$PUCSORTHOREF
  2

  9
$PUCSORTHOVIEW
 70
     0
  9
$PUCSORGTOP
 10
0.0
 20
0.0
 30
0.0
  9
$PUCSORGBOTTOM
 10
0.0
 20
0.0
 30
0.0
  9
$PUCSORGLEFT
 10
0.0
 20
0.0
 30
0.0
  9
$PUCSORGRIGHT
 10
0.0
 20
0.0
 30
0.0
  9
$PUCSORGFRONT
 10
0.0
 20
0.0
 30
0.0
  9
$PUCSORGBACK
 10
0.0
 20
0.0
 30
0.0
  9
$USERI1
 70
     0
  9
$USERI2
 70
     0
  9
$USERI3
 70
     0
  9
$USERI4
 70
     0
  9
$USERI5
 70
     0
  9
$USERR1
 40
0.0
  9
$USERR2
 40
0.0
  9
$USERR3
 40
0.0
  9
$USERR4
 40
0.0
  9
$USERR5
 40
0.0
  9
$WORLDVIEW
 70
     1
  9
$SHADEDGE
 70
     3
  9
$SHADEDIF
 70
    70
  9
$TILEMODE
 70
     1
  9
$MAXACTVP
 70
    64
  9
$PINSBASE
 10
0.0
 20
0.0
 30
0.0
  9
$PLIMCHECK
 70
     0
  9
$PEXTMIN
 10
1.000000E+20
 20
1.000000E+20
 30
1.000000E+20
  9
$PEXTMAX
 10
-1.000000E+20
 20
-1.000000E+20
 30
-1.000000E+20
  9
$PLIMMIN
 10
0.0
 20
0.0
  9
$PLIMMAX
 10
420.0
 20
297.0
  9
$UNITMODE
 70
     0
  9
$VISRETAIN
 70
     1
  9
$PLINEGEN
 70
     0
  9
$PSLTSCALE
 70
     1
  9
$TREEDEPTH
 70
  3020
  9
$CMLSTYLE
  2
Standard
  9
$CMLJUST
 70
     0
  9
$CMLSCALE
 40
20.0
  9
$PROXYGRAPHICS
 70
     1
  9
$MEASUREMENT
 70
     1
  9
$CELWEIGHT
370
    -1
  9
$ENDCAPS
280
     0
  9
$JOINSTYLE
280
     0
  9
$LWDISPLAY
290
     0
  9
$INSUNITS
 70
     4
  9
$HYPERLINKBASE
  1

  9
$STYLESHEET
  1

  9
$XEDIT
290
     1
  9
$CEPSNTYPE
380
     0
  9
$PSTYLEMODE
290
     1
  9
$FINGERPRINTGUID
  2
{C2E391AB-7EFE-41E1-BB5A-011F762B017B}
  9
$VERSIONGUID
  2
{FAEB1C32-E019-11D5-929B-00C0DF256EC4}
  9
$EXTNAMES
290
     1
  9
$PSVPSCALE
 40
0.0
  9
$OLESTARTUP
290
     0
  0
ENDSEC
  0
SECTION
  2
CLASSES
  0
CLASS
  1
ACDBDICTIONARYWDFLT
  2
AcDbDictionaryWithDefault
  3
ObjectDBX Classes
 90
        0
280
     0
281
     0
  0
CLASS
  1
VISUALSTYLE
  2
AcDbVisualStyle
  3
ObjectDBX Classes
 90
     4095
280
     0
281
     0
  0
CLASS
  1
DICTIONARYVAR
  2
AcDbDictionaryVar
  3
ObjectDBX Classes
 90
        0
280
     0
281
     0
  0
CLASS
  1
ACDBPLACEHOLDER
  2
AcDbPlaceHolder
  3
ObjectDBX Classes
 90
        0
280
     0
281
     0
  0
CLASS
  1
LAYOUT
  2
AcDbLayout
  3
ObjectDBX Classes
 90
        0
280
     0
281
     0
  0
ENDSEC
  0
SECTION
  2
TABLES
  0
TABLE
  2
VPORT
  5
8
330
0
100
AcDbSymbolTable
 70
     1
  0
VPORT
  5
29
330
8
100
AcDbSymbolTableRecord
100
AcDbViewportTableRecord
  2
*Active
 70
     0
 10
0.0
 20
0.0
 11
1.0
 21
1.0
 12
344.186916
 22
148.5
 13
0.0
 23
0.0
 14
10.0
 24
10.0
 15
10.0
 25
10.0
 16
0.0
 26
0.0
 36
1.0
 17
0.0
 27
0.0
 37
0.0
 40
297.0
 41
1.972973
 42
50.0
 43
0.0
 44
0.0
 50
0.0
 51
0.0
 71
     0
 72
   100
 73
     1
 74
     3
 75
     0
 76
     0
 77
     0
 78
     0
281
     0
 65
     1
110
0.0
120
0.0
130
0.0
111
1.0
121
0.0
131
0.0
112
0.0
122
1.0
132
0.0
 79
     0
146
0.0
  0
ENDTAB
  0
TABLE
  2
LTYPE
  5
5
330
0
100
AcDbSymbolTable
 70
     1
  0
LTYPE
  5
14
330
5
100
AcDbSymbolTableRecord
100
AcDbLinetypeTableRecord
  2
ByBlock
 70
     0
  3

 72
    65
 73
     0
 40
0.0
  0
LTYPE
  5
15
330
5
100
AcDbSymbolTableRecord
100
AcDbLinetypeTableRecord
  2
ByLayer
 70
     0
  3

 72
    65
 73
     0
 40
0.0
  0
LTYPE
  5
16
330
5
100
AcDbSymbolTableRecord
100
AcDbLinetypeTableRecord
  2
Continuous
 70
     0
  3
Solid line
 72
    65
 73
     0
 40
0.0
  0
ENDTAB
  0
TABLE
  2
LAYER
  5
2
330
0
100
AcDbSymbolTable
 70
     1
  0
LAYER
  5
10
330
2
100
AcDbSymbolTableRecord
100
AcDbLayerTableRecord
  2
0
 70
     0
 62
   106
  6
Continuous
370
     0
390
F
  0
ENDTAB
  0
TABLE
  2
STYLE
  5
3
330
0
100
AcDbSymbolTable
 70
     4
  0
STYLE
  5
11
330
3
100
AcDbSymbolTableRecord
100
AcDbTextStyleTableRecord
  2
Standard
 70
     0
 40
0.0
 41
1.0
 50
0.0
 71
     0
 42
2.5
  3
txt
  4

  0
STYLE
  5
3B
330
3
100
AcDbSymbolTableRecord
100
AcDbTextStyleTableRecord
  2
Default
 70
     0
 40
0.0
 41
1.0
 50
0.0
 71
     0
 42
0.2
  3

  4

1001
ACAD
1000
txt
1071
        0
  0
STYLE
  5
3C
330
3
100
AcDbSymbolTableRecord
100
AcDbTextStyleTableRecord
  2
ISO
 70
     0
 40
0.0
 41
1.0
 50
0.0
 71
     0
 42
0.2
  3

  4

1001
ACAD
1000
txt
1071
        0
  0
STYLE
  5
3D
330
3
100
AcDbSymbolTableRecord
100
AcDbTextStyleTableRecord
  2
GIANLU
 70
     0
 40
0.0
 41
1.0
 50
0.0
 71
     0
 42
0.2
  3

  4

1001
ACAD
1000
Arial
1071
        0
  0
ENDTAB
  0
TABLE
  2
VIEW
  5
6
330
0
100
AcDbSymbolTable
 70
     0
  0
ENDTAB
  0
TABLE
  2
UCS
  5
7
330
0
100
AcDbSymbolTable
 70
     0
  0
ENDTAB
  0
TABLE
  2
APPID
  5
9
330
0
100
AcDbSymbolTable
 70
     1
  0
APPID
  5
12
330
9
100
AcDbSymbolTableRecord
100
AcDbRegAppTableRecord
  2
ACAD
 70
     0
  0
ENDTAB
  0
TABLE
  2
DIMSTYLE
  5
A
330
0
100
AcDbSymbolTable
 70
     4
100
AcDbDimStyleTable
  0
DIMSTYLE
105
27
330
A
100
AcDbSymbolTableRecord
100
AcDbDimStyleTableRecord
  2
ISO-25
 70
     0
 41
2.5
 42
0.625
 43
3.75
 44
1.25
 73
     0
 74
     0
 77
     1
 78
     8
140
2.5
141
2.5
143
0.03937
147
0.625
171
     3
172
     1
271
     2
272
     2
274
     3
278
    44
283
     0
284
     8
340
11
  0
DIMSTYLE
105
3E
330
A
100
AcDbSymbolTableRecord
100
AcDbDimStyleTableRecord
  2
Default
 70
     0
  3
<>
 41
4.375
 42
1.05
 44
2.1
 73
     0
 74
     0
 77
     1
 78
     8
140
3.5
146
0.4
147
1.75
178
     3
271
     2
272
     3
284
     8
340
3B
341
3F
342
3F
  0
DIMSTYLE
105
46
330
A
100
AcDbSymbolTableRecord
100
AcDbDimStyleTableRecord
  2
ISO
 70
     0
  3
<>
 41
4.375
 42
1.05
 44
2.1
 73
     0
 74
     0
 77
     1
 78
     8
140
3.5
146
0.4
147
1.75
178
     3
271
     2
272
     3
284
     8
340
3C
341
3F
342
3F
  0
DIMSTYLE
105
47
330
A
100
AcDbSymbolTableRecord
100
AcDbDimStyleTableRecord
  2
zucchetti_unico
 70
     0
  3
<>
 41
3.0
 42
0.9
 44
1.8
 73
     0
 74
     0
 77
     1
 78
     8
140
3.0
146
0.6
147
1.5
176
   104
177
     3
178
     3
271
     2
272
     2
284
     8
340
3D
  0
ENDTAB
  0
TABLE
  2
BLOCK_RECORD
  5
1
330
0
100
AcDbSymbolTable
 70
     7
  0
BLOCK_RECORD
  5
1F
330
1
100
AcDbSymbolTableRecord
100
AcDbBlockTableRecord
  2
*Model_Space
340
22
  0
BLOCK_RECORD
  5
1B
330
1
100
AcDbSymbolTableRecord
100
AcDbBlockTableRecord
  2
*Paper_Space
340
1E
  0
BLOCK_RECORD
  5
23
330
1
100
AcDbSymbolTableRecord
100
AcDbBlockTableRecord
  2
*Paper_Space0
340
26
  0
BLOCK_RECORD
  5
3F
330
1
100
AcDbSymbolTableRecord
100
AcDbBlockTableRecord
  2
_CLOSED
340
0
  0
BLOCK_RECORD
  5
48
330
1
100
AcDbSymbolTableRecord
100
AcDbBlockTableRecord
  2
a
340
0
102
{BLKREFS
331
147
102
}
  0
BLOCK_RECORD
  5
148
330
1
100
AcDbSymbolTableRecord
100
AcDbBlockTableRecord
  2
b
340
0
102
{BLKREFS
331
1AD
102
}
  0
BLOCK_RECORD
  5
1AE
330
1
100
AcDbSymbolTableRecord
100
AcDbBlockTableRecord
  2
c
340
0
102
{BLKREFS
331
27A
102
}
  0
BLOCK_RECORD
  5
27B
330
1
100
AcDbSymbolTableRecord
100
AcDbBlockTableRecord
  2
d
340
0
102
{BLKREFS
331
37E
102
}
  0
BLOCK_RECORD
  5
37F
330
1
100
AcDbSymbolTableRecord
100
AcDbBlockTableRecord
  2
e
340
0
102
{BLKREFS
331
449
102
}
  0
ENDTAB
  0
ENDSEC
  0
SECTION
  2
BLOCKS
  0
BLOCK
  5
20
330
1F
100
AcDbEntity
  8
0
100
AcDbBlockBegin
  2
*Model_Space
 70
     0
 10
0.0
 20
0.0
 30
0.0
  3
*Model_Space
  1

  0
ENDBLK
  5
21
330
1F
100
AcDbEntity
  8
0
100
AcDbBlockEnd
  0
BLOCK
  5
1C
330
1B
100
AcDbEntity
 67
     1
  8
0
100
AcDbBlockBegin
  2
*Paper_Space
 70
     0
 10
0.0
 20
0.0
 30
0.0
  3
*Paper_Space
  1

  0
ENDBLK
  5
1D
330
1B
100
AcDbEntity
 67
     1
  8
0
100
AcDbBlockEnd
  0
BLOCK
  5
24
330
23
100
AcDbEntity
  8
0
100
AcDbBlockBegin
  2
*Paper_Space0
 70
     0
 10
0.0
 20
0.0
 30
0.0
  3
*Paper_Space0
  1

  0
ENDBLK
  5
25
330
23
100
AcDbEntity
  8
0
100
AcDbBlockEnd
  0
BLOCK
  5
40
330
3F
100
AcDbEntity
  8
0
100
AcDbBlockBegin
  2
_CLOSED
 70
     0
 10
0.0
 20
0.0
 30
0.0
  3
_CLOSED
  1

  0
LINE
  5
42
330
3F
100
AcDbEntity
  8
0
  6
ByBlock
 62
     0
370
    -2
100
AcDbLine
 10
-1.0
 20
0.166667
 30
0.0
 11
0.0
 21
0.0
 31
0.0
  0
LINE
  5
43
330
3F
100
AcDbEntity
  8
0
  6
ByBlock
 62
     0
370
    -2
100
AcDbLine
 10
0.0
 20
0.0
 30
0.0
 11
-1.0
 21
-0.166667
 31
0.0
  0
LINE
  5
44
330
3F
100
AcDbEntity
  8
0
  6
ByBlock
 62
     0
370
    -2
100
AcDbLine
 10
-1.0
 20
0.166667
 30
0.0
 11
-1.0
 21
-0.166667
 31
0.0
  0
LINE
  5
45
330
3F
100
AcDbEntity
  8
0
  6
ByBlock
 62
     0
370
    -2
100
AcDbLine
 10
0.0
 20
0.0
 30
0.0
 11
-1.0
 21
0.0
 31
0.0
  0
ENDBLK
  5
41
330
3F
100
AcDbEntity
  8
0
100
AcDbBlockEnd
  0
BLOCK
  5
145
330
48
100
AcDbEntity
  8
0
100
AcDbBlockBegin
  2
a
 70
     0
 10
10.760319
 20
87.502983
 30
0.0
  3
a
  1

  0
ARC
  5
49
330
48
100
AcDbEntity
  8
0
  6
Continuous
 62
     0
370
    30
100
AcDbCircle
 10
99.139081
 20
578.263038
 30
0.0
 40
19.66608080893975
100
AcDbArc
 50
269.999397
 51
78.265003
  0
ARC
  5
4A
330
48
100
AcDbEntity
  8
0
  6
Continuous
 62
     0
370
    30
100
AcDbCircle
 10
99.138667
 20
578.263038
 30
0.0
 40
19.66608080893975
100
AcDbArc
 50
101.734997
 51
270.000603
  0
ARC
  5
4B
330
48
100
AcDbEntity
  8
0
  6
Continuous
 62
     0
370
    30
100
AcDbCircle
 10
99.139461
 20
578.217415
 30
0.0
 40
59.99882685985408
100
AcDbArc
 50
269.99944
 51
90.00056
  0
ARC
  5
4C
330
48
100
AcDbEntity
  8
0
  6
Continuous
 62
     0
370
    30
100
AcDbCircle
 10
99.138287
 20
578.217415
 30
0.0
 40
59.99882685985408
100
AcDbArc
 50
89.99944
 51
270.00056
  0
ARC
  5
4D
330
48
100
AcDbEntity
  8
0
  6
Continuous
 62
     0
370
     0
100
AcDbCircle
 10
99.138293
 20
578.261623
 30
0.0
 40
59.45461899556535
100
AcDbArc
 50
89.99944
 51
270.00056
  0
ARC
  5
4E
330
48
100
AcDbEntity
  8
0
  6
Continuous
 62
     0
370
     0
100
AcDbCircle
 10
99.139455
 20
578.261623
 30
0.0
 40
59.45461899556535
100
AcDbArc
 50
269.99944
 51
90.00056
  0
ARC
  5
4F
330
48
100
AcDbEntity
  8
0
  6
Continuous
 62
     0
370
    30
100
AcDbCircle
 10
99.13946
 20
578.259422
 30
0.0
 40
59.95682010142477
100
AcDbArc
 50
269.99944
 51
90.00056
  0
ARC
  5
50
330
48
100
AcDbEntity
  8
0
  6
Continuous
 62
     0
370
    30
100
AcDbCircle
 10
99.138288
 20
578.259422
 30
0.0
 40
59.95682010142477
100
AcDbArc
 50
89.99944
 51
270.00056
  0
ARC
  5
51
330
48
100
AcDbEntity
  8
0
  6
Continuous
 62
     0
370
     0
100
AcDbCircle
 10
99.138688
 20
578.429525
 30
0.0
 40
18.99962850561706
100
AcDbArc
 50
89.99944
 51
270.00056
  0
ARC
  5
52
330
48
100
AcDbEntity
  8
0
  6
Continuous
 62
     0
370
     0
100
AcDbCircle
 10
99.13906
 20
578.429525
 30
0.0
 40
18.99962850561706
100
AcDbArc
 50
269.99944
 51
90.00056
  0
ARC
  5
53
330
48
100
AcDbEntity
  8
0
  6
Continuous
 62
     0
370
    30
100
AcDbCircle
 10
99.139065
 20
578.427324
 30
0.0
 40
19.50182961147284
100
AcDbArc
 50
269.99944
 51
90.00056
  0
ARC
  5
54
330
48
100
AcDbEntity
  8
0
  6
Continuous
 62
     0
370
    30
100
AcDbCircle
 10
99.138683
 20
578.427324
 30
0.0
 40
19.50182961147284
100
AcDbArc
 50
89.99944
 51
270.00056
  0
LINE
  5
55
330
48
100
AcDbEntity
  8
0
  6
Continuous
 62
     0
370
     0
100
AcDbLine
 10
97.973488
 20
604.929525
 30
0.0
 11
95.138874
 21
604.929525
 31
0.0
  0
LINE
  5
56
330
48
100
AcDbEntity
  8
0
  6
Continuous
 62
     0
370
     0
100
AcDbLine
 10
103.138874
 20
604.929525
 30
0.0
 11
97.973488
 21
604.929525
 31
0.0
  0
LINE
  5
57
330
48
100
AcDbEntity
  8
0
  6
Continuous
 62
     0
370
    30
100
AcDbLine
 10
102.638874
 20
605.429525
 30
0.0
 11
98.119161
 21
605.429525
 31
0.0
  0
LINE
  5
58
330
48
100
AcDbEntity
  8
0
  6
Continuous
 62
     0
370
    30
100
AcDbLine
 10
98.119161
 20
605.429525
 30
0.0
 11
95.638874
 21
605.429525
 31
0.0
  0
ARC
  5
59
330
48
100
AcDbEntity
  8
0
  6
Continuous
 62
     0
370
    30
100
AcDbCircle
 10
102.638711
 20
604.929533
 30
0.0
 40
0.4999921416634377
100
AcDbArc
 50
359.999099
 51
89.980905
  0
ARC
  5
5A
330
48
100
AcDbEntity
  8
0
  6
Continuous
 62
     0
370
    30
100
AcDbCircle
 10
95.638882
 20
604.929523
 30
0.0
 40
0.5000024122982065
100
AcDbArc
 50
90.002903
 51
179.999724
  0
LINE
  5
5B
330
48
100
AcDbEntity
  8
0
  6
Continuous
 62
     0
370
    30
100
AcDbLine
 10
95.138874
 20
604.929525
 30
0.0
 11
95.138874
 21
597.515656
 31
0.0
  0
LINE
  5
5C
330
48
100
AcDbEntity
  8
0
  6
Continuous
 62
     0
370
    30
100
AcDbLine
 10
103.138874
 20
604.929525
 30
0.0
 11
103.138874
 21
597.515418
 31
0.0
  0
ARC
  5
5D
330
48
100
AcDbEntity
  8
0
  6
Continuous
 62
     0
370
     0
100
AcDbCircle
 10
99.138874
 20
728.217415
 30
0.0
 40
32.06095238095237
100
AcDbArc
 50
180.0
 51
0.0
  0
ARC
  5
5E
330
48
100
AcDbEntity
  8
0
  6
Continuous
 62
     0
370
     0
100
AcDbCircle
 10
99.138874
 20
728.217415
 30
0.0
 40
32.06095238095237
100
AcDbArc
 50
0.0
 51
180.0
  0
ARC
  5
5F
330
48
100
AcDbEntity
  8
0
  6
Continuous
 62
     0
370
    30
100
AcDbCircle
 10
99.138874
 20
728.217415
 30
0.0
 40
32.50000000000001
100
AcDbArc
 50
360.0
 51
180.0
  0
ARC
  5
60
330
48
100
AcDbEntity
  8
0
  6
Continuous
 62
     0
370
    30
100
AcDbCircle
 10
99.138874
 20
728.217415
 30
0.0
 40
32.5
100
AcDbArc
 50
180.0
 51
360.0
  0
LWPOLYLINE
  5
61
330
48
100
AcDbEntity
  8
0
  6
Continuous
 62
     0
370
     0
100
AcDbPolyline
 90
        3
 70
     0
 43
0.0
 10
94.000092
 20
722.207336
 10
93.91291
 20
722.282959
 10
93.124054
 20
723.079224
  0
LWPOLYLINE
  5
62
330
48
100
AcDbEntity
  8
0
  6
Continuous
 62
     0
370
     0
100
AcDbPolyline
 90
        3
 70
     0
 43
0.0
 10
105.153694
 20
723.079224
 10
105.077721
 20
722.99231
 10
104.277657
 20
722.207336
  0
LWPOLYLINE
  5
63
330
48
100
AcDbEntity
  8
0
  6
Continuous
 62
     0
370
     0
100
AcDbPolyline
 90
        3
 70
     0
 43
0.0
 10
104.277657
 20
734.227539
 10
104.364838
 20
734.151855
 10
105.153694
 20
733.355652
  0
LWPOLYLINE
  5
64
330
48
100
AcDbEntity
  8
0
  6
Continuous
 62
     0
370
     0
100
AcDbPolyline
 90
        3
 70
     0
 43
0.0
 10
93.124054
 20
733.355652
 10
93.200027
 20
733.442566
 10
94.000092
 20
734.227539
  0
LINE
  5
65
330
48
100
AcDbEntity
  8
0
  6
Continuous
 62
     0
370
     0
100
AcDbLine
 10
102.464823
 20
732.516402
 30
0.0
 11
101.504099
 21
730.58264
 31
0.0
  0
LINE
  5
66
330
48
100
AcDbEntity
  8
0
  6
Continuous
 62
     0
370
     0
100
AcDbLine
 10
101.504099
 20
730.58264
 30
0.0
 11
103.437861
 21
731.543364
 31
0.0
  0
ARC
  5
67
330
48
100
AcDbEntity
  8
0
  6
Continuous
 62
     0
370
     0
100
AcDbCircle
 10
103.476499
 20
732.55504
 30
0.0
 40
1.012414032832938
100
AcDbArc
 50
182.187183
 51
267.812817
  0
ARC
  5
68
330
48
100
AcDbEntity
  8
0
  6
Continuous
 62
     0
370
    30
100
AcDbCircle
 10
105.269256
 20
734.347797
 30
0.0
 40
0.9988714311824393
100
AcDbArc
 50
186.468184
 51
263.531817
  0
LWPOLYLINE
  5
69
330
48
100
AcDbEntity
  8
0
  6
Continuous
 62
     0
370
     0
100
AcDbPolyline
 90
        7
 70
     0
 43
0.0
 10
104.276741
 20
734.235291
 10
104.136955
 20
734.102722
 10
103.94622
 20
733.924255
 10
103.700066
 20
733.695007
 10
103.393547
 20
733.407166
 10
103.022522
 20
733.054199
 10
102.464821
 20
732.516418
  0
LWPOLYLINE
  5
6A
330
48
100
AcDbEntity
  8
0
  6
Continuous
 62
     0
370
     0
100
AcDbPolyline
 90
        7
 70
     0
 43
0.0
 10
103.437859
 20
731.543335
 10
103.878113
 20
731.999268
 10
104.24778
 20
732.386719
 10
104.551239
 20
732.708801
 10
104.794205
 20
732.96936
 10
104.984512
 20
733.17334
 10
105.156731
 20
733.355286
  0
LWPOLYLINE
  5
6B
330
48
100
AcDbEntity
  8
0
  6
Continuous
 62
     0
370
     0
100
AcDbPolyline
 90
        6
 70
     0
 43
0.0
 10
120.491005
 20
731.470093
 10
117.286842
 20
731.417419
 10
114.082474
 20
731.38446
 10
110.877975
 20
731.409668
 10
107.673798
 20
731.462341
 10
103.437859
 20
731.543335
  0
ARC
  5
6C
330
48
100
AcDbEntity
  8
0
  6
Continuous
 62
     0
370
     0
100
AcDbCircle
 10
120.883595
 20
730.81298
 30
0.0
 40
0.7654638935361529
100
AcDbArc
 50
96.120897
 51
120.855703
  0
LINE
  5
6D
330
48
100
AcDbEntity
  8
0
  6
Continuous
 62
     0
370
    30
100
AcDbLine
 10
105.156732
 20
733.355284
 30
0.0
 11
120.801976
 21
731.57408
 31
0.0
  0
LWPOLYLINE
  5
6E
330
48
100
AcDbEntity
  8
0
  6
Continuous
 62
     0
370
     0
100
AcDbPolyline
 90
        6
 70
     0
 43
0.0
 10
101.504097
 20
730.582642
 10
105.176025
 20
730.517578
 10
108.847839
 20
730.446045
 10
112.519989
 20
730.394043
 10
116.192421
 20
730.399536
 10
120.496841
 20
730.470154
  0
LINE
  5
6F
330
48
100
AcDbEntity
  8
0
  6
Continuous
 62
     0
370
     0
100
AcDbLine
 10
120.496842
 20
730.470155
 30
0.0
 11
120.491006
 21
731.470102
 31
0.0
  0
LWPOLYLINE
  5
70
330
48
100
AcDbEntity
  8
0
  6
Continuous
 62
     0
370
     0
100
AcDbPolyline
 90
        6
 70
     0
 43
0.0
 10
102.464828
 20
732.516418
 10
102.403358
 20
735.717834
 10
102.346336
 20
738.919312
 10
102.309349
 20
742.121094
 10
102.320953
 20
745.322937
 10
102.391563
 20
749.569519
  0
LINE
  5
71
330
48
100
AcDbEntity
  8
0
  6
Continuous
 62
     0
370
     0
100
AcDbLine
 10
102.391561
 20
749.569546
 30
0.0
 11
101.391614
 21
749.575383
 31
0.0
  0
LWPOLYLINE
  5
72
330
48
100
AcDbEntity
  8
0
  6
Continuous
 62
     0
370
     0
100
AcDbPolyline
 90
        6
 70
     0
 43
0.0
 10
101.391617
 20
749.575378
 10
101.330856
 20
745.903381
 10
101.310928
 20
742.231018
 10
101.356453
 20
738.558777
 10
101.42627
 20
734.886963
 10
101.504097
 20
730.582642
  0
ARC
  5
73
330
48
100
AcDbEntity
  8
0
  6
Continuous
 62
     0
370
    30
100
AcDbCircle
 10
105.269257
 20
722.087032
 30
0.0
 40
0.9988714311846536
100
AcDbArc
 50
96.468184
 51
173.531817
  0
LWPOLYLINE
  5
74
330
48
100
AcDbEntity
  8
0
  6
Continuous
 62
     0
370
     0
100
AcDbPolyline
 90
        7
 70
     0
 43
0.0
 10
105.156731
 20
723.079529
 10
105.02417
 20
723.21936
 10
104.845734
 20
723.410095
 10
104.616493
 20
723.65625
 10
104.328613
 20
723.962769
 10
103.975685
 20
724.33374
 10
103.437859
 20
724.891479
  0
ARC
  5
75
330
48
100
AcDbEntity
  8
0
  6
Continuous
 62
     0
370
     0
100
AcDbCircle
 10
103.476166
 20
723.880123
 30
0.0
 40
1.012067958909673
100
AcDbArc
 50
92.16903
 51
177.830971
  0
LWPOLYLINE
  5
76
330
48
100
AcDbEntity
  8
0
  6
Continuous
 62
     0
370
     0
100
AcDbPolyline
 90
        7
 70
     0
 43
0.0
 10
102.464821
 20
723.918457
 10
102.920723
 20
723.478149
 10
103.308151
 20
723.108521
 10
103.630249
 20
722.805054
 10
103.890846
 20
722.562073
 10
104.094803
 20
722.371765
 10
104.276741
 20
722.199585
  0
LINE
  5
77
330
48
100
AcDbEntity
  8
0
  6
Continuous
 62
     0
370
     0
100
AcDbLine
 10
103.437861
 20
724.891466
 30
0.0
 11
101.504099
 21
725.85219
 31
0.0
  0
LINE
  5
78
330
48
100
AcDbEntity
  8
0
  6
Continuous
 62
     0
370
     0
100
AcDbLine
 10
101.504099
 20
725.85219
 30
0.0
 11
102.464823
 21
723.918428
 31
0.0
  0
LWPOLYLINE
  5
79
330
48
100
AcDbEntity
  8
0
  6
Continuous
 62
     0
370
     0
100
AcDbPolyline
 90
        6
 70
     0
 43
0.0
 10
101.504097
 20
725.852173
 10
101.439011
 20
722.180237
 10
101.367477
 20
718.508423
 10
101.315529
 20
714.836304
 10
101.320984
 20
711.163879
 10
101.391617
 20
706.859436
  0
LINE
  5
7A
330
48
100
AcDbEntity
  8
0
  6
Continuous
 62
     0
370
     0
100
AcDbLine
 10
101.391614
 20
706.859447
 30
0.0
 11
102.391561
 21
706.865283
 31
0.0
  0
LWPOLYLINE
  5
7B
330
48
100
AcDbEntity
  8
0
  6
Continuous
 62
     0
370
     0
100
AcDbPolyline
 90
        6
 70
     0
 43
0.0
 10
102.391563
 20
706.865295
 10
102.338974
 20
710.066833
 10
102.305962
 20
713.268555
 10
102.331024
 20
716.470398
 10
102.383583
 20
719.671997
 10
102.464828
 20
723.918457
  0
LWPOLYLINE
  5
7C
330
48
100
AcDbEntity
  8
0
  6
Continuous
 62
     0
370
     0
100
AcDbPolyline
 90
        6
 70
     0
 43
0.0
 10
103.437859
 20
724.891479
 10
106.63929
 20
724.952942
 10
109.840767
 20
725.009949
 10
113.042526
 20
725.046936
 10
116.244408
 20
725.035339
 10
120.491005
 20
724.964722
  0
LINE
  5
7D
330
48
100
AcDbEntity
  8
0
  6
Continuous
 62
     0
370
     0
100
AcDbLine
 10
120.491006
 20
724.964728
 30
0.0
 11
120.496842
 21
725.964675
 31
0.0
  0
LWPOLYLINE
  5
7E
330
48
100
AcDbEntity
  8
0
  6
Continuous
 62
     0
370
     0
100
AcDbPolyline
 90
        6
 70
     0
 43
0.0
 10
120.496841
 20
725.964661
 10
116.824837
 20
726.025452
 10
113.152458
 20
726.045349
 10
109.480232
 20
725.999817
 10
105.808395
 20
725.929993
 10
101.504097
 20
725.852173
  0
LINE
  5
7F
330
48
100
AcDbEntity
  8
0
  6
Continuous
 62
     0
370
    30
100
AcDbLine
 10
120.801976
 20
724.86075
 30
0.0
 11
105.156732
 21
723.079546
 31
0.0
  0
ARC
  5
80
330
48
100
AcDbEntity
  8
0
  6
Continuous
 62
     0
370
     0
100
AcDbCircle
 10
120.883576
 20
725.621794
 30
0.0
 40
0.7654070158423799
100
AcDbArc
 50
239.143364
 51
263.880038
  0
LINE
  5
81
330
48
100
AcDbEntity
  8
0
  6
Continuous
 62
     0
370
     0
100
AcDbLine
 10
95.812925
 20
723.918428
 30
0.0
 11
96.773649
 21
725.85219
 31
0.0
  0
LINE
  5
82
330
48
100
AcDbEntity
  8
0
  6
Continuous
 62
     0
370
     0
100
AcDbLine
 10
96.773649
 20
725.85219
 30
0.0
 11
94.839887
 21
724.891466
 31
0.0
  0
ARC
  5
83
330
48
100
AcDbEntity
  8
0
  6
Continuous
 62
     0
370
     0
100
AcDbCircle
 10
94.801249
 20
723.87979
 30
0.0
 40
1.012414032834532
100
AcDbArc
 50
2.187183
 51
87.812817
  0
ARC
  5
84
330
48
100
AcDbEntity
  8
0
  6
Continuous
 62
     0
370
    30
100
AcDbCircle
 10
93.008492
 20
722.087032
 30
0.0
 40
0.9988714311818779
100
AcDbArc
 50
6.468184
 51
83.531817
  0
LWPOLYLINE
  5
85
330
48
100
AcDbEntity
  8
0
  6
Continuous
 62
     0
370
     0
100
AcDbPolyline
 90
        7
 70
     0
 43
0.0
 10
94.001007
 20
722.199585
 10
94.140793
 20
722.332092
 10
94.331528
 20
722.510559
 10
94.577682
 20
722.739807
 10
94.884201
 20
723.027649
 10
95.255226
 20
723.380615
 10
95.812927
 20
723.918457
  0
LWPOLYLINE
  5
86
330
48
100
AcDbEntity
  8
0
  6
Continuous
 62
     0
370
     0
100
AcDbPolyline
 90
        7
 70
     0
 43
0.0
 10
94.83989
 20
724.891479
 10
94.399635
 20
724.435547
 10
94.029968
 20
724.048157
 10
93.726509
 20
723.726013
 10
93.483543
 20
723.465454
 10
93.293236
 20
723.261475
 10
93.121017
 20
723.079529
  0
LWPOLYLINE
  5
87
330
48
100
AcDbEntity
  8
0
  6
Continuous
 62
     0
370
     0
100
AcDbPolyline
 90
        6
 70
     0
 43
0.0
 10
77.786743
 20
724.964722
 10
80.990906
 20
725.017395
 10
84.195274
 20
725.050354
 10
87.399773
 20
725.025146
 10
90.603951
 20
724.972534
 10
94.83989
 20
724.891479
  0
ARC
  5
88
330
48
100
AcDbEntity
  8
0
  6
Continuous
 62
     0
370
     0
100
AcDbCircle
 10
77.394153
 20
725.621849
 30
0.0
 40
0.7654638934927053
100
AcDbArc
 50
276.120897
 51
300.855703
  0
LINE
  5
89
330
48
100
AcDbEntity
  8
0
  6
Continuous
 62
     0
370
    30
100
AcDbLine
 10
93.121016
 20
723.079546
 30
0.0
 11
77.475772
 21
724.860749
 31
0.0
  0
LWPOLYLINE
  5
8A
330
48
100
AcDbEntity
  8
0
  6
Continuous
 62
     0
370
     0
100
AcDbPolyline
 90
        6
 70
     0
 43
0.0
 10
96.773651
 20
725.852173
 10
93.101723
 20
725.917297
 10
89.429909
 20
725.988831
 10
85.757759
 20
726.040771
 10
82.085327
 20
726.035278
 10
77.780907
 20
725.964661
  0
LINE
  5
8B
330
48
100
AcDbEntity
  8
0
  6
Continuous
 62
     0
370
     0
100
AcDbLine
 10
77.780906
 20
725.964675
 30
0.0
 11
77.786743
 21
724.964728
 31
0.0
  0
LWPOLYLINE
  5
8C
330
48
100
AcDbEntity
  8
0
  6
Continuous
 62
     0
370
     0
100
AcDbPolyline
 90
        6
 70
     0
 43
0.0
 10
95.81292
 20
723.918457
 10
95.87439
 20
720.71698
 10
95.931412
 20
717.515503
 10
95.968399
 20
714.313782
 10
95.956795
 20
711.111877
 10
95.886185
 20
706.865295
  0
LINE
  5
8D
330
48
100
AcDbEntity
  8
0
  6
Continuous
 62
     0
370
     0
100
AcDbLine
 10
95.886187
 20
706.865283
 30
0.0
 11
96.886134
 21
706.859447
 31
0.0
  0
LWPOLYLINE
  5
8E
330
48
100
AcDbEntity
  8
0
  6
Continuous
 62
     0
370
     0
100
AcDbPolyline
 90
        6
 70
     0
 43
0.0
 10
96.886131
 20
706.859436
 10
96.946892
 20
710.531433
 10
96.96682
 20
714.203857
 10
96.921295
 20
717.876038
 10
96.851479
 20
721.547913
 10
96.773651
 20
725.852173
  0
ARC
  5
8F
330
48
100
AcDbEntity
  8
0
  6
Continuous
 62
     0
370
    30
100
AcDbCircle
 10
93.008492
 20
734.347797
 30
0.0
 40
0.9988714311851309
100
AcDbArc
 50
276.468184
 51
353.531817
  0
LWPOLYLINE
  5
90
330
48
100
AcDbEntity
  8
0
  6
Continuous
 62
     0
370
     0
100
AcDbPolyline
 90
        7
 70
     0
 43
0.0
 10
93.121017
 20
733.355286
 10
93.253578
 20
733.215515
 10
93.432014
 20
733.02478
 10
93.661255
 20
732.778625
 10
93.949135
 20
732.472107
 10
94.302063
 20
732.101074
 10
94.83989
 20
731.543335
  0
ARC
  5
91
330
48
100
AcDbEntity
  8
0
  6
Continuous
 62
     0
370
     0
100
AcDbCircle
 10
94.801582
 20
732.554706
 30
0.0
 40
1.012067958911796
100
AcDbArc
 50
272.16903
 51
357.830971
  0
LWPOLYLINE
  5
92
330
48
100
AcDbEntity
  8
0
  6
Continuous
 62
     0
370
     0
100
AcDbPolyline
 90
        7
 70
     0
 43
0.0
 10
95.812927
 20
732.516418
 10
95.357025
 20
732.956665
 10
94.969597
 20
733.326294
 10
94.647499
 20
733.629761
 10
94.386902
 20
733.872742
 10
94.182945
 20
734.063049
 10
94.001007
 20
734.235291
  0
LINE
  5
93
330
48
100
AcDbEntity
  8
0
  6
Continuous
 62
     0
370
     0
100
AcDbLine
 10
94.839887
 20
731.543364
 30
0.0
 11
96.773649
 21
730.58264
 31
0.0
  0
LINE
  5
94
330
48
100
AcDbEntity
  8
0
  6
Continuous
 62
     0
370
     0
100
AcDbLine
 10
96.773649
 20
730.58264
 30
0.0
 11
95.812925
 21
732.516402
 31
0.0
  0
LWPOLYLINE
  5
95
330
48
100
AcDbEntity
  8
0
  6
Continuous
 62
     0
370
     0
100
AcDbPolyline
 90
        6
 70
     0
 43
0.0
 10
94.83989
 20
731.543396
 10
91.638458
 20
731.481873
 10
88.436981
 20
731.424866
 10
85.235222
 20
731.387878
 10
82.03334
 20
731.399475
 10
77.786743
 20
731.470093
  0
LINE
  5
96
330
48
100
AcDbEntity
  8
0
  6
Continuous
 62
     0
370
     0
100
AcDbLine
 10
77.786743
 20
731.470101
 30
0.0
 11
77.780906
 21
730.470155
 31
0.0
  0
LWPOLYLINE
  5
97
330
48
100
AcDbEntity
  8
0
  6
Continuous
 62
     0
370
     0
100
AcDbPolyline
 90
        6
 70
     0
 43
0.0
 10
77.780907
 20
730.470154
 10
81.452911
 20
730.409424
 10
85.12529
 20
730.389465
 10
88.797516
 20
730.434998
 10
92.469353
 20
730.504822
 10
96.773651
 20
730.582642
  0
LINE
  5
98
330
48
100
AcDbEntity
  8
0
  6
Continuous
 62
     0
370
    30
100
AcDbLine
 10
77.475772
 20
731.57408
 30
0.0
 11
93.121016
 21
733.355284
 31
0.0
  0
ARC
  5
99
330
48
100
AcDbEntity
  8
0
  6
Continuous
 62
     0
370
     0
100
AcDbCircle
 10
77.394172
 20
730.813035
 30
0.0
 40
0.7654070159747807
100
AcDbArc
 50
59.143364
 51
83.880038
  0
ARC
  5
9A
330
48
100
AcDbEntity
  8
0
  6
Continuous
 62
     0
370
    30
100
AcDbCircle
 10
96.775396
 20
706.666971
 30
0.0
 40
0.9995563738206434
100
AcDbArc
 50
186.471459
 51
270.022132
  0
LWPOLYLINE
  5
9B
330
48
100
AcDbEntity
  8
0
  6
Continuous
 62
     0
370
     0
100
AcDbPolyline
 90
        3
 70
     0
 43
0.0
 10
96.77578
 20
705.667419
 10
96.780045
 20
705.691345
 10
96.886131
 20
705.859497
  0
ARC
  5
9C
330
48
100
AcDbEntity
  8
0
  6
Continuous
 62
     0
370
     0
100
AcDbCircle
 10
96.886427
 20
706.859734
 30
0.0
 40
1.000255419996225
100
AcDbArc
 50
179.682139
 51
269.983192
  0
ARC
  5
9D
330
48
100
AcDbEntity
  8
0
  6
Continuous
 62
     0
370
     0
100
AcDbCircle
 10
96.549434
 20
706.470646
 30
0.0
 40
0.7717739505763954
100
AcDbArc
 50
149.246994
 51
173.776407
  0
LINE
  5
9E
330
48
100
AcDbEntity
  8
0
  6
Continuous
 62
     0
370
     0
100
AcDbLine
 10
96.886134
 20
706.859447
 30
0.0
 11
96.886134
 21
705.859479
 31
0.0
  0
LINE
  5
9F
330
48
100
AcDbEntity
  8
0
  6
Continuous
 62
     0
370
     0
100
AcDbLine
 10
96.886134
 20
705.859479
 30
0.0
 11
101.391614
 21
705.859479
 31
0.0
  0
LINE
  5
A0
330
48
100
AcDbEntity
  8
0
  6
Continuous
 62
     0
370
     0
100
AcDbLine
 10
101.391614
 20
705.859479
 30
0.0
 11
101.391614
 21
706.859447
 31
0.0
  0
LINE
  5
A1
330
48
100
AcDbEntity
  8
0
  6
Continuous
 62
     0
370
     0
100
AcDbLine
 10
101.391614
 20
706.859447
 30
0.0
 11
96.886134
 21
706.859447
 31
0.0
  0
ARC
  5
A2
330
48
100
AcDbEntity
  8
0
  6
Continuous
 62
     0
370
    30
100
AcDbCircle
 10
101.502352
 20
706.666971
 30
0.0
 40
0.9995563738131056
100
AcDbArc
 50
269.977869
 51
353.528542
  0
ARC
  5
A3
330
48
100
AcDbEntity
  8
0
  6
Continuous
 62
     0
370
     0
100
AcDbCircle
 10
101.728314
 20
706.470646
 30
0.0
 40
0.771773950529204
100
AcDbArc
 50
6.223593
 51
30.753007
  0
ARC
  5
A4
330
48
100
AcDbEntity
  8
0
  6
Continuous
 62
     0
370
     0
100
AcDbCircle
 10
101.391321
 20
706.859734
 30
0.0
 40
1.000255419999422
100
AcDbArc
 50
270.016809
 51
0.317862
  0
LWPOLYLINE
  5
A5
330
48
100
AcDbEntity
  8
0
  6
Continuous
 62
     0
370
     0
100
AcDbPolyline
 90
        3
 70
     0
 43
0.0
 10
101.391617
 20
705.859497
 10
101.415665
 20
705.83551
 10
101.501968
 20
705.667419
  0
LINE
  5
A6
330
48
100
AcDbEntity
  8
0
  6
Continuous
 62
     0
370
    30
100
AcDbLine
 10
94.001005
 20
722.199557
 30
0.0
 11
95.782209
 21
706.554313
 31
0.0
  0
ARC
  5
A7
330
48
100
AcDbEntity
  8
0
  6
Continuous
 62
     0
370
    30
100
AcDbCircle
 10
77.588876
 20
725.854334
 30
0.0
 40
1.000001794995313
100
AcDbArc
 50
180.000664
 51
263.505747
  0
LINE
  5
A8
330
48
100
AcDbEntity
  8
0
  6
Continuous
 62
     0
370
    30
100
AcDbLine
 10
76.588874
 20
730.580507
 30
0.0
 11
76.588874
 21
725.854323
 31
0.0
  0
ARC
  5
A9
330
48
100
AcDbEntity
  8
0
  6
Continuous
 62
     0
370
    30
100
AcDbCircle
 10
77.588876
 20
730.580495
 30
0.0
 40
1.000001810016483
100
AcDbArc
 50
96.494254
 51
179.999337
  0
LINE
  5
AA
330
48
100
AcDbEntity
  8
0
  6
Continuous
 62
     0
370
    30
100
AcDbLine
 10
95.782208
 20
749.880517
 30
0.0
 11
94.001005
 21
734.235273
 31
0.0
  0
ARC
  5
AB
330
48
100
AcDbEntity
  8
0
  6
Continuous
 62
     0
370
    30
100
AcDbCircle
 10
96.775793
 20
749.767413
 30
0.0
 40
1.000001795001165
100
AcDbArc
 50
90.000664
 51
173.505747
  0
LINE
  5
AC
330
48
100
AcDbEntity
  8
0
  6
Continuous
 62
     0
370
    30
100
AcDbLine
 10
101.501966
 20
750.767415
 30
0.0
 11
96.775782
 21
750.767415
 31
0.0
  0
ARC
  5
AD
330
48
100
AcDbEntity
  8
0
  6
Continuous
 62
     0
370
    30
100
AcDbCircle
 10
101.501954
 20
749.767413
 30
0.0
 40
1.000001810013093
100
AcDbArc
 50
6.494254
 51
89.999337
  0
LINE
  5
AE
330
48
100
AcDbEntity
  8
0
  6
Continuous
 62
     0
370
    30
100
AcDbLine
 10
104.276743
 20
734.235273
 30
0.0
 11
102.495539
 21
749.880517
 31
0.0
  0
ARC
  5
AF
330
48
100
AcDbEntity
  8
0
  6
Continuous
 62
     0
370
    30
100
AcDbCircle
 10
120.688872
 20
730.580495
 30
0.0
 40
1.000001794996662
100
AcDbArc
 50
0.000664
 51
83.505747
  0
LINE
  5
B0
330
48
100
AcDbEntity
  8
0
  6
Continuous
 62
     0
370
    30
100
AcDbLine
 10
121.688874
 20
725.854323
 30
0.0
 11
121.688874
 21
730.580507
 31
0.0
  0
ARC
  5
B1
330
48
100
AcDbEntity
  8
0
  6
Continuous
 62
     0
370
    30
100
AcDbCircle
 10
120.688872
 20
725.854335
 30
0.0
 40
1.000001810014869
100
AcDbArc
 50
276.494254
 51
359.999337
  0
LINE
  5
B2
330
48
100
AcDbEntity
  8
0
  6
Continuous
 62
     0
370
    30
100
AcDbLine
 10
102.49554
 20
706.554313
 30
0.0
 11
104.276743
 21
722.199557
 31
0.0
  0
LINE
  5
B3
330
48
100
AcDbEntity
  8
0
  6
Continuous
 62
     0
370
    30
100
AcDbLine
 10
96.775782
 20
705.667415
 30
0.0
 11
101.501966
 21
705.667415
 31
0.0
  0
LINE
  5
B4
330
48
100
AcDbEntity
  8
0
  6
Continuous
 62
     0
370
     0
100
AcDbLine
 10
120.496842
 20
730.470155
 30
0.0
 11
120.496842
 21
725.964675
 31
0.0
  0
LINE
  5
B5
330
48
100
AcDbEntity
  8
0
  6
Continuous
 62
     0
370
     0
100
AcDbLine
 10
96.886134
 20
749.575383
 30
0.0
 11
101.391614
 21
749.575383
 31
0.0
  0
LWPOLYLINE
  5
B6
330
48
100
AcDbEntity
  8
0
  6
Continuous
 62
     0
370
     0
100
AcDbPolyline
 90
        6
 70
     0
 43
0.0
 10
96.773651
 20
730.582642
 10
96.83033
 20
733.83606
 10
96.905746
 20
737.676941
 10
96.961586
 20
741.518066
 10
96.95578
 20
745.359863
 10
96.886131
 20
749.575378
  0
LINE
  5
B7
330
48
100
AcDbEntity
  8
0
  6
Continuous
 62
     0
370
     0
100
AcDbLine
 10
77.780906
 20
725.964675
 30
0.0
 11
77.780906
 21
730.470155
 31
0.0
  0
LWPOLYLINE
  5
B8
330
48
100
AcDbEntity
  8
0
  6
Continuous
 62
     0
370
     0
100
AcDbPolyline
 90
        3
 70
     0
 43
0.0
 10
76.588875
 20
730.580505
 10
76.612816
 20
730.576233
 10
76.780937
 20
730.470154
  0
ARC
  5
B9
330
48
100
AcDbEntity
  8
0
  6
Continuous
 62
     0
370
     0
100
AcDbCircle
 10
77.781193
 20
730.469861
 30
0.0
 40
1.000255419996187
100
AcDbArc
 50
89.682139
 51
179.983192
  0
LINE
  5
BA
330
48
100
AcDbEntity
  8
0
  6
Continuous
 62
     0
370
     0
100
AcDbLine
 10
77.780906
 20
730.470155
 30
0.0
 11
76.780938
 21
730.470155
 31
0.0
  0
LINE
  5
BB
330
48
100
AcDbEntity
  8
0
  6
Continuous
 62
     0
370
     0
100
AcDbLine
 10
76.780938
 20
730.470155
 30
0.0
 11
76.780938
 21
725.964675
 31
0.0
  0
LINE
  5
BC
330
48
100
AcDbEntity
  8
0
  6
Continuous
 62
     0
370
     0
100
AcDbLine
 10
76.780938
 20
725.964675
 30
0.0
 11
77.780906
 21
725.964675
 31
0.0
  0
ARC
  5
BD
330
48
100
AcDbEntity
  8
0
  6
Continuous
 62
     0
370
     0
100
AcDbCircle
 10
77.781193
 20
725.964968
 30
0.0
 40
1.000255419998085
100
AcDbArc
 50
180.016809
 51
270.317862
  0
LWPOLYLINE
  5
BE
330
48
100
AcDbEntity
  8
0
  6
Continuous
 62
     0
370
     0
100
AcDbPolyline
 90
        3
 70
     0
 43
0.0
 10
76.780937
 20
725.964661
 10
76.756996
 20
725.940613
 10
76.588875
 20
725.854309
  0
LWPOLYLINE
  5
BF
330
48
100
AcDbEntity
  8
0
  6
Continuous
 62
     0
370
     0
100
AcDbPolyline
 90
        3
 70
     0
 43
0.0
 10
101.501968
 20
750.767395
 10
101.497704
 20
750.743469
 10
101.391617
 20
750.575378
  0
ARC
  5
C0
330
48
100
AcDbEntity
  8
0
  6
Continuous
 62
     0
370
     0
100
AcDbCircle
 10
101.391321
 20
749.575095
 30
0.0
 40
1.000255419998066
100
AcDbArc
 50
359.682139
 51
89.983192
  0
ARC
  5
C1
330
48
100
AcDbEntity
  8
0
  6
Continuous
 62
     0
370
     0
100
AcDbCircle
 10
101.728314
 20
749.964184
 30
0.0
 40
0.7717739505713206
100
AcDbArc
 50
329.246994
 51
353.776407
  0
LINE
  5
C2
330
48
100
AcDbEntity
  8
0
  6
Continuous
 62
     0
370
     0
100
AcDbLine
 10
101.391614
 20
749.575383
 30
0.0
 11
101.391614
 21
750.575351
 31
0.0
  0
LINE
  5
C3
330
48
100
AcDbEntity
  8
0
  6
Continuous
 62
     0
370
     0
100
AcDbLine
 10
101.391614
 20
750.575351
 30
0.0
 11
96.886134
 21
750.575351
 31
0.0
  0
LINE
  5
C4
330
48
100
AcDbEntity
  8
0
  6
Continuous
 62
     0
370
     0
100
AcDbLine
 10
96.886134
 20
750.575351
 30
0.0
 11
96.886134
 21
749.575383
 31
0.0
  0
ARC
  5
C5
330
48
100
AcDbEntity
  8
0
  6
Continuous
 62
     0
370
     0
100
AcDbCircle
 10
96.549434
 20
749.964184
 30
0.0
 40
0.7717739506049933
100
AcDbArc
 50
186.223593
 51
210.753007
  0
ARC
  5
C6
330
48
100
AcDbEntity
  8
0
  6
Continuous
 62
     0
370
     0
100
AcDbCircle
 10
96.886427
 20
749.575095
 30
0.0
 40
1.000255419999969
100
AcDbArc
 50
90.016809
 51
180.317862
  0
LWPOLYLINE
  5
C7
330
48
100
AcDbEntity
  8
0
  6
Continuous
 62
     0
370
     0
100
AcDbPolyline
 90
        3
 70
     0
 43
0.0
 10
96.886131
 20
750.575378
 10
96.862083
 20
750.599304
 10
96.77578
 20
750.767395
  0
LINE
  5
C8
330
48
100
AcDbEntity
  8
0
  6
Continuous
 62
     0
370
     0
100
AcDbLine
 10
95.886187
 20
749.569546
 30
0.0
 11
96.886134
 21
749.575383
 31
0.0
  0
LWPOLYLINE
  5
C9
330
48
100
AcDbEntity
  8
0
  6
Continuous
 62
     0
370
     0
100
AcDbPolyline
 90
        6
 70
     0
 43
0.0
 10
95.886185
 20
749.569519
 10
95.938774
 20
746.368042
 10
95.971786
 20
743.16626
 10
95.946724
 20
739.964417
 10
95.894165
 20
736.762878
 10
95.81292
 20
732.516418
  0
LWPOLYLINE
  5
CA
330
48
100
AcDbEntity
  8
0
  6
Continuous
 62
     0
370
     0
100
AcDbPolyline
 90
        3
 70
     0
 43
0.0
 10
121.688873
 20
725.854309
 10
121.664932
 20
725.858582
 10
121.496811
 20
725.964661
  0
ARC
  5
CB
330
48
100
AcDbEntity
  8
0
  6
Continuous
 62
     0
370
     0
100
AcDbCircle
 10
120.496555
 20
725.964968
 30
0.0
 40
1.000255420001428
100
AcDbArc
 50
269.682139
 51
359.983192
  0
LINE
  5
CC
330
48
100
AcDbEntity
  8
0
  6
Continuous
 62
     0
370
     0
100
AcDbLine
 10
120.496842
 20
725.964675
 30
0.0
 11
121.49681
 21
725.964675
 31
0.0
  0
LINE
  5
CD
330
48
100
AcDbEntity
  8
0
  6
Continuous
 62
     0
370
     0
100
AcDbLine
 10
121.49681
 20
725.964675
 30
0.0
 11
121.49681
 21
730.470155
 31
0.0
  0
LINE
  5
CE
330
48
100
AcDbEntity
  8
0
  6
Continuous
 62
     0
370
     0
100
AcDbLine
 10
121.49681
 20
730.470155
 30
0.0
 11
120.496842
 21
730.470155
 31
0.0
  0
ARC
  5
CF
330
48
100
AcDbEntity
  8
0
  6
Continuous
 62
     0
370
     0
100
AcDbCircle
 10
120.496555
 20
730.469862
 30
0.0
 40
1.000255420001014
100
AcDbArc
 50
0.016809
 51
90.317862
  0
LWPOLYLINE
  5
D0
330
48
100
AcDbEntity
  8
0
  6
Continuous
 62
     0
370
     0
100
AcDbPolyline
 90
        3
 70
     0
 43
0.0
 10
121.496811
 20
730.470154
 10
121.520752
 20
730.494202
 10
121.688873
 20
730.580505
  0
ARC
  5
D1
330
48
100
AcDbEntity
  8
0
  6
Continuous
 62
     0
370
     0
100
AcDbCircle
 10
99.138874
 20
828.217415
 30
0.0
 40
32.06095238095237
100
AcDbArc
 50
180.0
 51
360.0
  0
ARC
  5
D2
330
48
100
AcDbEntity
  8
0
  6
Continuous
 62
     0
370
     0
100
AcDbCircle
 10
99.138874
 20
828.217415
 30
0.0
 40
32.06095238095236
100
AcDbArc
 50
0.0
 51
180.0
  0
ARC
  5
D3
330
48
100
AcDbEntity
  8
0
  6
Continuous
 62
     0
370
    30
100
AcDbCircle
 10
99.138874
 20
828.217415
 30
0.0
 40
32.5
100
AcDbArc
 50
0.0
 51
180.0
  0
ARC
  5
D4
330
48
100
AcDbEntity
  8
0
  6
Continuous
 62
     0
370
    30
100
AcDbCircle
 10
99.138874
 20
828.217415
 30
0.0
 40
32.5
100
AcDbArc
 50
180.0
 51
360.0
  0
LWPOLYLINE
  5
D5
330
48
100
AcDbEntity
  8
0
  6
Continuous
 62
     0
370
     0
100
AcDbPolyline
 90
        3
 70
     0
 43
0.0
 10
94.000092
 20
822.207336
 10
93.91291
 20
822.282959
 10
93.124054
 20
823.079224
  0
LWPOLYLINE
  5
D6
330
48
100
AcDbEntity
  8
0
  6
Continuous
 62
     0
370
     0
100
AcDbPolyline
 90
        3
 70
     0
 43
0.0
 10
105.153694
 20
823.079224
 10
105.077721
 20
822.99231
 10
104.277657
 20
822.207336
  0
LWPOLYLINE
  5
D7
330
48
100
AcDbEntity
  8
0
  6
Continuous
 62
     0
370
     0
100
AcDbPolyline
 90
        3
 70
     0
 43
0.0
 10
104.277657
 20
834.227539
 10
104.364838
 20
834.151855
 10
105.153694
 20
833.355652
  0
LWPOLYLINE
  5
D8
330
48
100
AcDbEntity
  8
0
  6
Continuous
 62
     0
370
     0
100
AcDbPolyline
 90
        3
 70
     0
 43
0.0
 10
93.124054
 20
833.355652
 10
93.200027
 20
833.442566
 10
94.000092
 20
834.227539
  0
LINE
  5
D9
330
48
100
AcDbEntity
  8
0
  6
Continuous
 62
     0
370
     0
100
AcDbLine
 10
102.464823
 20
832.516402
 30
0.0
 11
101.504099
 21
830.58264
 31
0.0
  0
LINE
  5
DA
330
48
100
AcDbEntity
  8
0
  6
Continuous
 62
     0
370
     0
100
AcDbLine
 10
101.504099
 20
830.58264
 30
0.0
 11
103.437861
 21
831.543364
 31
0.0
  0
ARC
  5
DB
330
48
100
AcDbEntity
  8
0
  6
Continuous
 62
     0
370
     0
100
AcDbCircle
 10
103.476499
 20
832.55504
 30
0.0
 40
1.012414032828674
100
AcDbArc
 50
182.187183
 51
267.812817
  0
ARC
  5
DC
330
48
100
AcDbEntity
  8
0
  6
Continuous
 62
     0
370
    30
100
AcDbCircle
 10
105.269256
 20
834.347797
 30
0.0
 40
0.9988714311947737
100
AcDbArc
 50
186.468184
 51
263.531817
  0
LWPOLYLINE
  5
DD
330
48
100
AcDbEntity
  8
0
  6
Continuous
 62
     0
370
     0
100
AcDbPolyline
 90
        7
 70
     0
 43
0.0
 10
104.276741
 20
834.235291
 10
104.136955
 20
834.102722
 10
103.94622
 20
833.924255
 10
103.700066
 20
833.695007
 10
103.393547
 20
833.407166
 10
103.022522
 20
833.054199
 10
102.464821
 20
832.516418
  0
LWPOLYLINE
  5
DE
330
48
100
AcDbEntity
  8
0
  6
Continuous
 62
     0
370
     0
100
AcDbPolyline
 90
        7
 70
     0
 43
0.0
 10
103.437859
 20
831.543335
 10
103.878113
 20
831.999268
 10
104.24778
 20
832.386719
 10
104.551239
 20
832.708801
 10
104.794205
 20
832.96936
 10
104.984512
 20
833.17334
 10
105.156731
 20
833.355286
  0
LWPOLYLINE
  5
DF
330
48
100
AcDbEntity
  8
0
  6
Continuous
 62
     0
370
     0
100
AcDbPolyline
 90
        6
 70
     0
 43
0.0
 10
120.491005
 20
831.470093
 10
117.286842
 20
831.417419
 10
114.082474
 20
831.38446
 10
110.877975
 20
831.409668
 10
107.673798
 20
831.462341
 10
103.437859
 20
831.543335
  0
ARC
  5
E0
330
48
100
AcDbEntity
  8
0
  6
Continuous
 62
     0
370
     0
100
AcDbCircle
 10
120.883595
 20
830.81298
 30
0.0
 40
0.7654638934270683
100
AcDbArc
 50
96.120897
 51
120.855703
  0
LINE
  5
E1
330
48
100
AcDbEntity
  8
0
  6
Continuous
 62
     0
370
    30
100
AcDbLine
 10
105.156732
 20
833.355284
 30
0.0
 11
120.801976
 21
831.57408
 31
0.0
  0
LWPOLYLINE
  5
E2
330
48
100
AcDbEntity
  8
0
  6
Continuous
 62
     0
370
     0
100
AcDbPolyline
 90
        6
 70
     0
 43
0.0
 10
101.504097
 20
830.582642
 10
105.176025
 20
830.517578
 10
108.847839
 20
830.446045
 10
112.519989
 20
830.394043
 10
116.192421
 20
830.399536
 10
120.496841
 20
830.470154
  0
LINE
  5
E3
330
48
100
AcDbEntity
  8
0
  6
Continuous
 62
     0
370
     0
100
AcDbLine
 10
120.496842
 20
830.470155
 30
0.0
 11
120.491006
 21
831.470102
 31
0.0
  0
LWPOLYLINE
  5
E4
330
48
100
AcDbEntity
  8
0
  6
Continuous
 62
     0
370
     0
100
AcDbPolyline
 90
        6
 70
     0
 43
0.0
 10
102.464828
 20
832.516418
 10
102.403358
 20
835.717834
 10
102.346336
 20
838.919312
 10
102.309349
 20
842.121094
 10
102.320953
 20
845.322937
 10
102.391563
 20
849.569519
  0
LINE
  5
E5
330
48
100
AcDbEntity
  8
0
  6
Continuous
 62
     0
370
     0
100
AcDbLine
 10
102.391561
 20
849.569546
 30
0.0
 11
101.391614
 21
849.575383
 31
0.0
  0
LWPOLYLINE
  5
E6
330
48
100
AcDbEntity
  8
0
  6
Continuous
 62
     0
370
     0
100
AcDbPolyline
 90
        6
 70
     0
 43
0.0
 10
101.391617
 20
849.575378
 10
101.330856
 20
845.903381
 10
101.310928
 20
842.231018
 10
101.356453
 20
838.558777
 10
101.42627
 20
834.886963
 10
101.504097
 20
830.582642
  0
ARC
  5
E7
330
48
100
AcDbEntity
  8
0
  6
Continuous
 62
     0
370
    30
100
AcDbCircle
 10
105.269257
 20
822.087032
 30
0.0
 40
0.9988714311822304
100
AcDbArc
 50
96.468184
 51
173.531817
  0
LWPOLYLINE
  5
E8
330
48
100
AcDbEntity
  8
0
  6
Continuous
 62
     0
370
     0
100
AcDbPolyline
 90
        7
 70
     0
 43
0.0
 10
105.156731
 20
823.079529
 10
105.02417
 20
823.21936
 10
104.845734
 20
823.410095
 10
104.616493
 20
823.65625
 10
104.328613
 20
823.962769
 10
103.975685
 20
824.33374
 10
103.437859
 20
824.891479
  0
ARC
  5
E9
330
48
100
AcDbEntity
  8
0
  6
Continuous
 62
     0
370
     0
100
AcDbCircle
 10
103.476166
 20
823.880123
 30
0.0
 40
1.012067958920696
100
AcDbArc
 50
92.16903
 51
177.830971
  0
LWPOLYLINE
  5
EA
330
48
100
AcDbEntity
  8
0
  6
Continuous
 62
     0
370
     0
100
AcDbPolyline
 90
        7
 70
     0
 43
0.0
 10
102.464821
 20
823.918457
 10
102.920723
 20
823.478149
 10
103.308151
 20
823.108521
 10
103.630249
 20
822.805054
 10
103.890846
 20
822.562073
 10
104.094803
 20
822.371765
 10
104.276741
 20
822.199585
  0
LINE
  5
EB
330
48
100
AcDbEntity
  8
0
  6
Continuous
 62
     0
370
     0
100
AcDbLine
 10
103.437861
 20
824.891466
 30
0.0
 11
101.504099
 21
825.85219
 31
0.0
  0
LINE
  5
EC
330
48
100
AcDbEntity
  8
0
  6
Continuous
 62
     0
370
     0
100
AcDbLine
 10
101.504099
 20
825.85219
 30
0.0
 11
102.464823
 21
823.918428
 31
0.0
  0
LWPOLYLINE
  5
ED
330
48
100
AcDbEntity
  8
0
  6
Continuous
 62
     0
370
     0
100
AcDbPolyline
 90
        6
 70
     0
 43
0.0
 10
101.504097
 20
825.852173
 10
101.439011
 20
822.180237
 10
101.367477
 20
818.508423
 10
101.315529
 20
814.836304
 10
101.320984
 20
811.163879
 10
101.391617
 20
806.859436
  0
LINE
  5
EE
330
48
100
AcDbEntity
  8
0
  6
Continuous
 62
     0
370
     0
100
AcDbLine
 10
101.391614
 20
806.859447
 30
0.0
 11
102.391561
 21
806.865283
 31
0.0
  0
LWPOLYLINE
  5
EF
330
48
100
AcDbEntity
  8
0
  6
Continuous
 62
     0
370
     0
100
AcDbPolyline
 90
        6
 70
     0
 43
0.0
 10
102.391563
 20
806.865295
 10
102.338974
 20
810.066833
 10
102.305962
 20
813.268555
 10
102.331024
 20
816.470398
 10
102.383583
 20
819.671997
 10
102.464828
 20
823.918457
  0
LWPOLYLINE
  5
F0
330
48
100
AcDbEntity
  8
0
  6
Continuous
 62
     0
370
     0
100
AcDbPolyline
 90
        6
 70
     0
 43
0.0
 10
103.437859
 20
824.891479
 10
106.63929
 20
824.952942
 10
109.840767
 20
825.009949
 10
113.042526
 20
825.046936
 10
116.244408
 20
825.035339
 10
120.491005
 20
824.964722
  0
LINE
  5
F1
330
48
100
AcDbEntity
  8
0
  6
Continuous
 62
     0
370
     0
100
AcDbLine
 10
120.491006
 20
824.964728
 30
0.0
 11
120.496842
 21
825.964675
 31
0.0
  0
LWPOLYLINE
  5
F2
330
48
100
AcDbEntity
  8
0
  6
Continuous
 62
     0
370
     0
100
AcDbPolyline
 90
        6
 70
     0
 43
0.0
 10
120.496841
 20
825.964661
 10
116.824837
 20
826.025452
 10
113.152458
 20
826.045349
 10
109.480232
 20
825.999817
 10
105.808395
 20
825.929993
 10
101.504097
 20
825.852173
  0
LINE
  5
F3
330
48
100
AcDbEntity
  8
0
  6
Continuous
 62
     0
370
    30
100
AcDbLine
 10
120.801976
 20
824.86075
 30
0.0
 11
105.156732
 21
823.079546
 31
0.0
  0
ARC
  5
F4
330
48
100
AcDbEntity
  8
0
  6
Continuous
 62
     0
370
     0
100
AcDbCircle
 10
120.883576
 20
825.621794
 30
0.0
 40
0.7654070158846994
100
AcDbArc
 50
239.143364
 51
263.880038
  0
LINE
  5
F5
330
48
100
AcDbEntity
  8
0
  6
Continuous
 62
     0
370
     0
100
AcDbLine
 10
95.812925
 20
823.918428
 30
0.0
 11
96.773649
 21
825.85219
 31
0.0
  0
LINE
  5
F6
330
48
100
AcDbEntity
  8
0
  6
Continuous
 62
     0
370
     0
100
AcDbLine
 10
96.773649
 20
825.85219
 30
0.0
 11
94.839887
 21
824.891466
 31
0.0
  0
ARC
  5
F7
330
48
100
AcDbEntity
  8
0
  6
Continuous
 62
     0
370
     0
100
AcDbCircle
 10
94.801249
 20
823.87979
 30
0.0
 40
1.012414032828858
100
AcDbArc
 50
2.187183
 51
87.812817
  0
ARC
  5
F8
330
48
100
AcDbEntity
  8
0
  6
Continuous
 62
     0
370
    30
100
AcDbCircle
 10
93.008492
 20
822.087032
 30
0.0
 40
0.9988714311779081
100
AcDbArc
 50
6.468184
 51
83.531817
  0
LWPOLYLINE
  5
F9
330
48
100
AcDbEntity
  8
0
  6
Continuous
 62
     0
370
     0
100
AcDbPolyline
 90
        7
 70
     0
 43
0.0
 10
94.001007
 20
822.199585
 10
94.140793
 20
822.332092
 10
94.331528
 20
822.510559
 10
94.577682
 20
822.739807
 10
94.884201
 20
823.027649
 10
95.255226
 20
823.380615
 10
95.812927
 20
823.918457
  0
LWPOLYLINE
  5
FA
330
48
100
AcDbEntity
  8
0
  6
Continuous
 62
     0
370
     0
100
AcDbPolyline
 90
        7
 70
     0
 43
0.0
 10
94.83989
 20
824.891479
 10
94.399635
 20
824.435547
 10
94.029968
 20
824.048157
 10
93.726509
 20
823.726013
 10
93.483543
 20
823.465454
 10
93.293236
 20
823.261475
 10
93.121017
 20
823.079529
  0
LWPOLYLINE
  5
FB
330
48
100
AcDbEntity
  8
0
  6
Continuous
 62
     0
370
     0
100
AcDbPolyline
 90
        6
 70
     0
 43
0.0
 10
77.786743
 20
824.964722
 10
80.990906
 20
825.017395
 10
84.195274
 20
825.050354
 10
87.399773
 20
825.025146
 10
90.603951
 20
824.972534
 10
94.83989
 20
824.891479
  0
ARC
  5
FC
330
48
100
AcDbEntity
  8
0
  6
Continuous
 62
     0
370
     0
100
AcDbCircle
 10
77.394153
 20
825.621849
 30
0.0
 40
0.7654638936529022
100
AcDbArc
 50
276.120897
 51
300.855703
  0
LINE
  5
FD
330
48
100
AcDbEntity
  8
0
  6
Continuous
 62
     0
370
    30
100
AcDbLine
 10
93.121016
 20
823.079546
 30
0.0
 11
77.475772
 21
824.860749
 31
0.0
  0
LWPOLYLINE
  5
FE
330
48
100
AcDbEntity
  8
0
  6
Continuous
 62
     0
370
     0
100
AcDbPolyline
 90
        6
 70
     0
 43
0.0
 10
96.773651
 20
825.852173
 10
93.101723
 20
825.917297
 10
89.429909
 20
825.988831
 10
85.757759
 20
826.040771
 10
82.085327
 20
826.035278
 10
77.780907
 20
825.964661
  0
LINE
  5
FF
330
48
100
AcDbEntity
  8
0
  6
Continuous
 62
     0
370
     0
100
AcDbLine
 10
77.780906
 20
825.964675
 30
0.0
 11
77.786743
 21
824.964728
 31
0.0
  0
LWPOLYLINE
  5
100
330
48
100
AcDbEntity
  8
0
  6
Continuous
 62
     0
370
     0
100
AcDbPolyline
 90
        6
 70
     0
 43
0.0
 10
95.81292
 20
823.918457
 10
95.87439
 20
820.71698
 10
95.931412
 20
817.515503
 10
95.968399
 20
814.313782
 10
95.956795
 20
811.111877
 10
95.886185
 20
806.865295
  0
LINE
  5
101
330
48
100
AcDbEntity
  8
0
  6
Continuous
 62
     0
370
     0
100
AcDbLine
 10
95.886187
 20
806.865283
 30
0.0
 11
96.886134
 21
806.859447
 31
0.0
  0
LWPOLYLINE
  5
102
330
48
100
AcDbEntity
  8
0
  6
Continuous
 62
     0
370
     0
100
AcDbPolyline
 90
        6
 70
     0
 43
0.0
 10
96.886131
 20
806.859436
 10
96.946892
 20
810.531433
 10
96.96682
 20
814.203857
 10
96.921295
 20
817.876038
 10
96.851479
 20
821.547913
 10
96.773651
 20
825.852173
  0
ARC
  5
103
330
48
100
AcDbEntity
  8
0
  6
Continuous
 62
     0
370
    30
100
AcDbCircle
 10
93.008492
 20
834.347797
 30
0.0
 40
0.9988714311697453
100
AcDbArc
 50
276.468184
 51
353.531817
  0
LWPOLYLINE
  5
104
330
48
100
AcDbEntity
  8
0
  6
Continuous
 62
     0
370
     0
100
AcDbPolyline
 90
        7
 70
     0
 43
0.0
 10
93.121017
 20
833.355286
 10
93.253578
 20
833.215515
 10
93.432014
 20
833.02478
 10
93.661255
 20
832.778625
 10
93.949135
 20
832.472107
 10
94.302063
 20
832.101074
 10
94.83989
 20
831.543335
  0
ARC
  5
105
330
48
100
AcDbEntity
  8
0
  6
Continuous
 62
     0
370
     0
100
AcDbCircle
 10
94.801582
 20
832.554706
 30
0.0
 40
1.012067958912977
100
AcDbArc
 50
272.16903
 51
357.830971
  0
LWPOLYLINE
  5
106
330
48
100
AcDbEntity
  8
0
  6
Continuous
 62
     0
370
     0
100
AcDbPolyline
 90
        7
 70
     0
 43
0.0
 10
95.812927
 20
832.516418
 10
95.357025
 20
832.956665
 10
94.969597
 20
833.326294
 10
94.647499
 20
833.629761
 10
94.386902
 20
833.872742
 10
94.182945
 20
834.063049
 10
94.001007
 20
834.235291
  0
LINE
  5
107
330
48
100
AcDbEntity
  8
0
  6
Continuous
 62
     0
370
     0
100
AcDbLine
 10
94.839887
 20
831.543364
 30
0.0
 11
96.773649
 21
830.58264
 31
0.0
  0
LINE
  5
108
330
48
100
AcDbEntity
  8
0
  6
Continuous
 62
     0
370
     0
100
AcDbLine
 10
96.773649
 20
830.58264
 30
0.0
 11
95.812925
 21
832.516402
 31
0.0
  0
LWPOLYLINE
  5
109
330
48
100
AcDbEntity
  8
0
  6
Continuous
 62
     0
370
     0
100
AcDbPolyline
 90
        6
 70
     0
 43
0.0
 10
94.83989
 20
831.543396
 10
91.638458
 20
831.481873
 10
88.436981
 20
831.424866
 10
85.235222
 20
831.387878
 10
82.03334
 20
831.399475
 10
77.786743
 20
831.470093
  0
LINE
  5
10A
330
48
100
AcDbEntity
  8
0
  6
Continuous
 62
     0
370
     0
100
AcDbLine
 10
77.786743
 20
831.470101
 30
0.0
 11
77.780906
 21
830.470155
 31
0.0
  0
LWPOLYLINE
  5
10B
330
48
100
AcDbEntity
  8
0
  6
Continuous
 62
     0
370
     0
100
AcDbPolyline
 90
        6
 70
     0
 43
0.0
 10
77.780907
 20
830.470154
 10
81.452911
 20
830.409424
 10
85.12529
 20
830.389465
 10
88.797516
 20
830.434998
 10
92.469353
 20
830.504822
 10
96.773651
 20
830.582642
  0
LINE
  5
10C
330
48
100
AcDbEntity
  8
0
  6
Continuous
 62
     0
370
    30
100
AcDbLine
 10
77.475772
 20
831.57408
 30
0.0
 11
93.121016
 21
833.355284
 31
0.0
  0
ARC
  5
10D
330
48
100
AcDbEntity
  8
0
  6
Continuous
 62
     0
370
     0
100
AcDbCircle
 10
77.394172
 20
830.813035
 30
0.0
 40
0.7654070158692559
100
AcDbArc
 50
59.143364
 51
83.880038
  0
ARC
  5
10E
330
48
100
AcDbEntity
  8
0
  6
Continuous
 62
     0
370
    30
100
AcDbCircle
 10
96.775396
 20
806.666971
 30
0.0
 40
0.9995563738130748
100
AcDbArc
 50
186.471459
 51
270.022132
  0
LWPOLYLINE
  5
10F
330
48
100
AcDbEntity
  8
0
  6
Continuous
 62
     0
370
     0
100
AcDbPolyline
 90
        3
 70
     0
 43
0.0
 10
96.77578
 20
805.667419
 10
96.780045
 20
805.691345
 10
96.886131
 20
805.859497
  0
ARC
  5
110
330
48
100
AcDbEntity
  8
0
  6
Continuous
 62
     0
370
     0
100
AcDbCircle
 10
96.886427
 20
806.859734
 30
0.0
 40
1.000255419999512
100
AcDbArc
 50
179.682139
 51
269.983192
  0
ARC
  5
111
330
48
100
AcDbEntity
  8
0
  6
Continuous
 62
     0
370
     0
100
AcDbCircle
 10
96.549434
 20
806.470646
 30
0.0
 40
0.7717739503636417
100
AcDbArc
 50
149.246994
 51
173.776407
  0
LINE
  5
112
330
48
100
AcDbEntity
  8
0
  6
Continuous
 62
     0
370
     0
100
AcDbLine
 10
96.886134
 20
806.859447
 30
0.0
 11
96.886134
 21
805.859479
 31
0.0
  0
LINE
  5
113
330
48
100
AcDbEntity
  8
0
  6
Continuous
 62
     0
370
     0
100
AcDbLine
 10
96.886134
 20
805.859479
 30
0.0
 11
101.391614
 21
805.859479
 31
0.0
  0
LINE
  5
114
330
48
100
AcDbEntity
  8
0
  6
Continuous
 62
     0
370
     0
100
AcDbLine
 10
101.391614
 20
805.859479
 30
0.0
 11
101.391614
 21
806.859447
 31
0.0
  0
LINE
  5
115
330
48
100
AcDbEntity
  8
0
  6
Continuous
 62
     0
370
     0
100
AcDbLine
 10
101.391614
 20
806.859447
 30
0.0
 11
96.886134
 21
806.859447
 31
0.0
  0
ARC
  5
116
330
48
100
AcDbEntity
  8
0
  6
Continuous
 62
     0
370
    30
100
AcDbCircle
 10
101.502352
 20
806.666971
 30
0.0
 40
0.9995563738051025
100
AcDbArc
 50
269.977869
 51
353.528542
  0
ARC
  5
117
330
48
100
AcDbEntity
  8
0
  6
Continuous
 62
     0
370
     0
100
AcDbCircle
 10
101.728314
 20
806.470646
 30
0.0
 40
0.7717739506064252
100
AcDbArc
 50
6.223593
 51
30.753007
  0
ARC
  5
118
330
48
100
AcDbEntity
  8
0
  6
Continuous
 62
     0
370
     0
100
AcDbCircle
 10
101.391321
 20
806.859734
 30
0.0
 40
1.000255419991958
100
AcDbArc
 50
270.016809
 51
0.317862
  0
LWPOLYLINE
  5
119
330
48
100
AcDbEntity
  8
0
  6
Continuous
 62
     0
370
     0
100
AcDbPolyline
 90
        3
 70
     0
 43
0.0
 10
101.391617
 20
805.859497
 10
101.415665
 20
805.83551
 10
101.501968
 20
805.667419
  0
LINE
  5
11A
330
48
100
AcDbEntity
  8
0
  6
Continuous
 62
     0
370
    30
100
AcDbLine
 10
94.001005
 20
822.199557
 30
0.0
 11
95.782209
 21
806.554313
 31
0.0
  0
ARC
  5
11B
330
48
100
AcDbEntity
  8
0
  6
Continuous
 62
     0
370
    30
100
AcDbCircle
 10
77.588876
 20
825.854334
 30
0.0
 40
1.00000179500456
100
AcDbArc
 50
180.000664
 51
263.505747
  0
LINE
  5
11C
330
48
100
AcDbEntity
  8
0
  6
Continuous
 62
     0
370
    30
100
AcDbLine
 10
76.588874
 20
830.580507
 30
0.0
 11
76.588874
 21
825.854323
 31
0.0
  0
ARC
  5
11D
330
48
100
AcDbEntity
  8
0
  6
Continuous
 62
     0
370
    30
100
AcDbCircle
 10
77.588876
 20
830.580495
 30
0.0
 40
1.000001810019968
100
AcDbArc
 50
96.494254
 51
179.999337
  0
LINE
  5
11E
330
48
100
AcDbEntity
  8
0
  6
Continuous
 62
     0
370
    30
100
AcDbLine
 10
95.782208
 20
849.880517
 30
0.0
 11
94.001005
 21
834.235273
 31
0.0
  0
ARC
  5
11F
330
48
100
AcDbEntity
  8
0
  6
Continuous
 62
     0
370
    30
100
AcDbCircle
 10
96.775793
 20
849.767413
 30
0.0
 40
1.0000017949912
100
AcDbArc
 50
90.000664
 51
173.505747
  0
LINE
  5
120
330
48
100
AcDbEntity
  8
0
  6
Continuous
 62
     0
370
    30
100
AcDbLine
 10
101.501966
 20
850.767415
 30
0.0
 11
96.775782
 21
850.767415
 31
0.0
  0
ARC
  5
121
330
48
100
AcDbEntity
  8
0
  6
Continuous
 62
     0
370
    30
100
AcDbCircle
 10
101.501954
 20
849.767413
 30
0.0
 40
1.000001810023915
100
AcDbArc
 50
6.494254
 51
89.999337
  0
LINE
  5
122
330
48
100
AcDbEntity
  8
0
  6
Continuous
 62
     0
370
    30
100
AcDbLine
 10
104.276743
 20
834.235273
 30
0.0
 11
102.495539
 21
849.880517
 31
0.0
  0
ARC
  5
123
330
48
100
AcDbEntity
  8
0
  6
Continuous
 62
     0
370
    30
100
AcDbCircle
 10
120.688872
 20
830.580495
 30
0.0
 40
1.000001795001229
100
AcDbArc
 50
0.000664
 51
83.505747
  0
LINE
  5
124
330
48
100
AcDbEntity
  8
0
  6
Continuous
 62
     0
370
    30
100
AcDbLine
 10
121.688874
 20
825.854323
 30
0.0
 11
121.688874
 21
830.580507
 31
0.0
  0
ARC
  5
125
330
48
100
AcDbEntity
  8
0
  6
Continuous
 62
     0
370
    30
100
AcDbCircle
 10
120.688872
 20
825.854335
 30
0.0
 40
1.000001810017132
100
AcDbArc
 50
276.494254
 51
359.999337
  0
LINE
  5
126
330
48
100
AcDbEntity
  8
0
  6
Continuous
 62
     0
370
    30
100
AcDbLine
 10
102.49554
 20
806.554313
 30
0.0
 11
104.276743
 21
822.199557
 31
0.0
  0
LINE
  5
127
330
48
100
AcDbEntity
  8
0
  6
Continuous
 62
     0
370
    30
100
AcDbLine
 10
96.775782
 20
805.667415
 30
0.0
 11
101.501966
 21
805.667415
 31
0.0
  0
LINE
  5
128
330
48
100
AcDbEntity
  8
0
  6
Continuous
 62
     0
370
     0
100
AcDbLine
 10
120.496842
 20
830.470155
 30
0.0
 11
120.496842
 21
825.964675
 31
0.0
  0
LINE
  5
129
330
48
100
AcDbEntity
  8
0
  6
Continuous
 62
     0
370
     0
100
AcDbLine
 10
96.886134
 20
849.575383
 30
0.0
 11
101.391614
 21
849.575383
 31
0.0
  0
LWPOLYLINE
  5
12A
330
48
100
AcDbEntity
  8
0
  6
Continuous
 62
     0
370
     0
100
AcDbPolyline
 90
        6
 70
     0
 43
0.0
 10
96.773651
 20
830.582642
 10
96.83033
 20
833.83606
 10
96.905746
 20
837.676941
 10
96.961586
 20
841.518066
 10
96.95578
 20
845.359863
 10
96.886131
 20
849.575378
  0
LINE
  5
12B
330
48
100
AcDbEntity
  8
0
  6
Continuous
 62
     0
370
     0
100
AcDbLine
 10
77.780906
 20
825.964675
 30
0.0
 11
77.780906
 21
830.470155
 31
0.0
  0
LWPOLYLINE
  5
12C
330
48
100
AcDbEntity
  8
0
  6
Continuous
 62
     0
370
     0
100
AcDbPolyline
 90
        3
 70
     0
 43
0.0
 10
76.588875
 20
830.580505
 10
76.612816
 20
830.576233
 10
76.780937
 20
830.470154
  0
ARC
  5
12D
330
48
100
AcDbEntity
  8
0
  6
Continuous
 62
     0
370
     0
100
AcDbCircle
 10
77.781193
 20
830.469861
 30
0.0
 40
1.000255420007834
100
AcDbArc
 50
89.682139
 51
179.983192
  0
LINE
  5
12E
330
48
100
AcDbEntity
  8
0
  6
Continuous
 62
     0
370
     0
100
AcDbLine
 10
77.780906
 20
830.470155
 30
0.0
 11
76.780938
 21
830.470155
 31
0.0
  0
LINE
  5
12F
330
48
100
AcDbEntity
  8
0
  6
Continuous
 62
     0
370
     0
100
AcDbLine
 10
76.780938
 20
830.470155
 30
0.0
 11
76.780938
 21
825.964675
 31
0.0
  0
LINE
  5
130
330
48
100
AcDbEntity
  8
0
  6
Continuous
 62
     0
370
     0
100
AcDbLine
 10
76.780938
 20
825.964675
 30
0.0
 11
77.780906
 21
825.964675
 31
0.0
  0
ARC
  5
131
330
48
100
AcDbEntity
  8
0
  6
Continuous
 62
     0
370
     0
100
AcDbCircle
 10
77.781193
 20
825.964968
 30
0.0
 40
1.000255419998326
100
AcDbArc
 50
180.016809
 51
270.317862
  0
LWPOLYLINE
  5
132
330
48
100
AcDbEntity
  8
0
  6
Continuous
 62
     0
370
     0
100
AcDbPolyline
 90
        3
 70
     0
 43
0.0
 10
76.780937
 20
825.964661
 10
76.756996
 20
825.940613
 10
76.588875
 20
825.854309
  0
LWPOLYLINE
  5
133
330
48
100
AcDbEntity
  8
0
  6
Continuous
 62
     0
370
     0
100
AcDbPolyline
 90
        3
 70
     0
 43
0.0
 10
101.501968
 20
850.767395
 10
101.497704
 20
850.743469
 10
101.391617
 20
850.575378
  0
ARC
  5
134
330
48
100
AcDbEntity
  8
0
  6
Continuous
 62
     0
370
     0
100
AcDbCircle
 10
101.391321
 20
849.575095
 30
0.0
 40
1.000255420005839
100
AcDbArc
 50
359.682139
 51
89.983192
  0
ARC
  5
135
330
48
100
AcDbEntity
  8
0
  6
Continuous
 62
     0
370
     0
100
AcDbCircle
 10
101.728314
 20
849.964184
 30
0.0
 40
0.7717739503945156
100
AcDbArc
 50
329.246994
 51
353.776407
  0
LINE
  5
136
330
48
100
AcDbEntity
  8
0
  6
Continuous
 62
     0
370
     0
100
AcDbLine
 10
101.391614
 20
849.575383
 30
0.0
 11
101.391614
 21
850.575351
 31
0.0
  0
LINE
  5
137
330
48
100
AcDbEntity
  8
0
  6
Continuous
 62
     0
370
     0
100
AcDbLine
 10
101.391614
 20
850.575351
 30
0.0
 11
96.886134
 21
850.575351
 31
0.0
  0
LINE
  5
138
330
48
100
AcDbEntity
  8
0
  6
Continuous
 62
     0
370
     0
100
AcDbLine
 10
96.886134
 20
850.575351
 30
0.0
 11
96.886134
 21
849.575383
 31
0.0
  0
ARC
  5
139
330
48
100
AcDbEntity
  8
0
  6
Continuous
 62
     0
370
     0
100
AcDbCircle
 10
96.549434
 20
849.964184
 30
0.0
 40
0.7717739505795936
100
AcDbArc
 50
186.223593
 51
210.753007
  0
ARC
  5
13A
330
48
100
AcDbEntity
  8
0
  6
Continuous
 62
     0
370
     0
100
AcDbCircle
 10
96.886427
 20
849.575095
 30
0.0
 40
1.000255419987452
100
AcDbArc
 50
90.016809
 51
180.317862
  0
LWPOLYLINE
  5
13B
330
48
100
AcDbEntity
  8
0
  6
Continuous
 62
     0
370
     0
100
AcDbPolyline
 90
        3
 70
     0
 43
0.0
 10
96.886131
 20
850.575378
 10
96.862083
 20
850.599304
 10
96.77578
 20
850.767395
  0
LINE
  5
13C
330
48
100
AcDbEntity
  8
0
  6
Continuous
 62
     0
370
     0
100
AcDbLine
 10
95.886187
 20
849.569546
 30
0.0
 11
96.886134
 21
849.575383
 31
0.0
  0
LWPOLYLINE
  5
13D
330
48
100
AcDbEntity
  8
0
  6
Continuous
 62
     0
370
     0
100
AcDbPolyline
 90
        6
 70
     0
 43
0.0
 10
95.886185
 20
849.569519
 10
95.938774
 20
846.368042
 10
95.971786
 20
843.16626
 10
95.946724
 20
839.964417
 10
95.894165
 20
836.762878
 10
95.81292
 20
832.516418
  0
LWPOLYLINE
  5
13E
330
48
100
AcDbEntity
  8
0
  6
Continuous
 62
     0
370
     0
100
AcDbPolyline
 90
        3
 70
     0
 43
0.0
 10
121.688873
 20
825.854309
 10
121.664932
 20
825.858582
 10
121.496811
 20
825.964661
  0
ARC
  5
13F
330
48
100
AcDbEntity
  8
0
  6
Continuous
 62
     0
370
     0
100
AcDbCircle
 10
120.496555
 20
825.964968
 30
0.0
 40
1.000255419993103
100
AcDbArc
 50
269.682139
 51
359.983192
  0
LINE
  5
140
330
48
100
AcDbEntity
  8
0
  6
Continuous
 62
     0
370
     0
100
AcDbLine
 10
120.496842
 20
825.964675
 30
0.0
 11
121.49681
 21
825.964675
 31
0.0
  0
LINE
  5
141
330
48
100
AcDbEntity
  8
0
  6
Continuous
 62
     0
370
     0
100
AcDbLine
 10
121.49681
 20
825.964675
 30
0.0
 11
121.49681
 21
830.470155
 31
0.0
  0
LINE
  5
142
330
48
100
AcDbEntity
  8
0
  6
Continuous
 62
     0
370
     0
100
AcDbLine
 10
121.49681
 20
830.470155
 30
0.0
 11
120.496842
 21
830.470155
 31
0.0
  0
ARC
  5
143
330
48
100
AcDbEntity
  8
0
  6
Continuous
 62
     0
370
     0
100
AcDbCircle
 10
120.496555
 20
830.469862
 30
0.0
 40
1.000255420001652
100
AcDbArc
 50
0.016809
 51
90.317862
  0
LWPOLYLINE
  5
144
330
48
100
AcDbEntity
  8
0
  6
Continuous
 62
     0
370
     0
100
AcDbPolyline
 90
        3
 70
     0
 43
0.0
 10
121.496811
 20
830.470154
 10
121.520752
 20
830.494202
 10
121.688873
 20
830.580505
  0
ENDBLK
  5
146
330
48
100
AcDbEntity
  8
0
100
AcDbBlockEnd
  0
BLOCK
  5
1AB
330
148
100
AcDbEntity
  8
0
100
AcDbBlockBegin
  2
b
 70
     0
 10
48.034054
 20
267.94558
 30
0.0
  3
b
  1

  0
ELLIPSE
  5
149
330
148
100
AcDbEntity
  8
0
  6
Continuous
 62
     0
370
    30
100
AcDbEllipse
 10
99.138878
 20
296.123528
 30
0.0
 11
19.66629030543769
 21
0.0
 31
0.0
210
0.0
220
0.0
230
1.0
 40
0.004422
 41
6.283165754417711
 42
7.511490526591066
  0
ELLIPSE
  5
14A
330
148
100
AcDbEntity
  8
0
  6
Continuous
 62
     0
370
    30
100
AcDbEllipse
 10
99.138878
 20
296.123528
 30
0.0
 11
19.66629030543769
 21
0.0
 31
0.0
210
0.0
220
0.0
230
1.0
 40
0.004422
 41
1.913286492970411
 42
3.141612206351668
  0
ELLIPSE
  5
14B
330
148
100
AcDbEntity
  8
0
  6
Continuous
 62
     0
370
    30
100
AcDbEllipse
 10
99.138878
 20
306.445183
 30
0.0
 11
59.99941342550657
 21
0.0
 31
0.0
210
0.0
220
0.0
230
1.0
 40
0.004422
 41
6.283165754417716
 42
7.853981633974483
  0
ELLIPSE
  5
14C
330
148
100
AcDbEntity
  8
0
  6
Continuous
 62
     0
370
    30
100
AcDbEllipse
 10
99.138878
 20
306.445183
 30
0.0
 11
59.99941342550657
 21
0.0
 31
0.0
210
0.0
220
0.0
230
1.0
 40
0.004422
 41
1.570796326794897
 42
3.141612206351663
  0
ELLIPSE
  5
14D
330
148
100
AcDbEntity
  8
0
  6
Continuous
 62
     0
370
    30
100
AcDbEllipse
 10
99.138878
 20
296.447589
 30
0.0
 11
59.45520024088646
 21
0.0
 31
0.0
210
0.0
220
0.0
230
1.0
 40
0.004422
 41
1.775394618589447
 42
4.500202741122468
  0
ELLIPSE
  5
14E
330
148
100
AcDbEntity
  8
0
  6
Continuous
 62
     0
370
    30
100
AcDbEllipse
 10
99.138878
 20
296.447589
 30
0.0
 11
59.45520024088646
 21
0.0
 31
0.0
210
0.0
220
0.0
230
1.0
 40
0.004422
 41
4.924575219646908
 42
7.649383342179916
  0
ELLIPSE
  5
14F
330
148
100
AcDbEntity
  8
0
  6
Continuous
 62
     0
370
     0
100
AcDbEllipse
 10
99.138878
 20
296.945369
 30
0.0
 11
59.9574062564072
 21
0.0
 31
0.0
210
0.0
220
0.0
230
1.0
 40
0.004422
 41
6.283165754417714
 42
7.512902737185528
  0
ELLIPSE
  5
150
330
148
100
AcDbEntity
  8
0
  6
Continuous
 62
     0
370
     0
100
AcDbEllipse
 10
99.138878
 20
296.945369
 30
0.0
 11
59.9574062564072
 21
0.0
 31
0.0
210
0.0
220
0.0
230
1.0
 40
0.004422
 41
1.911875223583859
 42
3.141612206351664
  0
ELLIPSE
  5
151
330
148
100
AcDbEntity
  8
0
  6
Continuous
 62
     0
370
    30
100
AcDbEllipse
 10
99.138878
 20
258.476498
 30
0.0
 11
18.99981425140702
 21
0.0
 31
0.0
210
0.0
220
0.0
230
1.0
 40
0.004422
 41
1.570796326794897
 42
4.71238898038469
  0
ELLIPSE
  5
152
330
148
100
AcDbEntity
  8
0
  6
Continuous
 62
     0
370
    30
100
AcDbEllipse
 10
99.138878
 20
258.476498
 30
0.0
 11
18.99981425140702
 21
0.0
 31
0.0
210
0.0
220
0.0
230
1.0
 40
0.004422
 41
4.71238898038469
 42
7.853981633974483
  0
ELLIPSE
  5
153
330
148
100
AcDbEntity
  8
0
  6
Continuous
 62
     0
370
     0
100
AcDbEllipse
 10
99.138878
 20
258.974277
 30
0.0
 11
19.50202026692412
 21
0.0
 31
0.0
210
0.0
220
0.0
230
1.0
 40
0.004422
 41
6.283165754417713
 42
7.853981633974483
  0
ELLIPSE
  5
154
330
148
100
AcDbEntity
  8
0
  6
Continuous
 62
     0
370
     0
100
AcDbEllipse
 10
99.138878
 20
258.974277
 30
0.0
 11
19.50202026692412
 21
0.0
 31
0.0
210
0.0
220
0.0
230
1.0
 40
0.004422
 41
1.570796326794897
 42
3.141612206351667
  0
LWPOLYLINE
  5
155
330
148
100
AcDbEntity
  8
0
  6
Continuous
 62
     0
370
    30
100
AcDbPolyline
 90
       53
 70
     0
 43
0.0
 10
49.053795
 20
296.305878
 10
48.703094
 20
296.30835
 10
48.358532
 20
296.310822
 10
48.020149
 20
296.313293
 10
47.687984
 20
296.315796
 10
47.362087
 20
296.318329
 10
47.042496
 20
296.320862
 10
46.729248
 20
296.323395
 10
46.422375
 20
296.325958
 10
46.121918
 20
296.328552
 10
45.827911
 20
296.331146
 10
45.54039
 20
296.333771
 10
45.259392
 20
296.336395
 10
44.984947
 20
296.33902
 10
44.717091
 20
296.341675
 10
44.455853
 20
296.34433
 10
44.201271
 20
296.347015
 10
43.953373
 20
296.349701
 10
43.712196
 20
296.352386
 10
43.477768
 20
296.355103
 10
43.250118
 20
296.357819
 10
43.029278
 20
296.360565
 10
42.815254
 20
296.363312
 10
42.608074
 20
296.366058
 10
42.407749
 20
296.368835
 10
42.214298
 20
296.371613
 10
42.027748
 20
296.37439
 10
41.848114
 20
296.377197
 10
41.675419
 20
296.380005
 10
41.509682
 20
296.382812
 10
41.350937
 20
296.385651
 10
41.199203
 20
296.388458
 10
41.054493
 20
296.391296
 10
40.916809
 20
296.394165
 10
40.786156
 20
296.397003
 10
40.662533
 20
296.399872
 10
40.54594
 20
296.40274
 10
40.436382
 20
296.40564
 10
40.333862
 20
296.408539
 10
40.238365
 20
296.411438
 10
40.14983
 20
296.414368
 10
40.068195
 20
296.417297
 10
39.993404
 20
296.420258
 10
39.925411
 20
296.423248
 10
39.863983
 20
296.42627
 10
39.808727
 20
296.429413
 10
39.759247
 20
296.432648
 10
39.714897
 20
296.436127
 10
39.673218
 20
296.440247
 10
39.629757
 20
296.445923
 10
39.568604
 20
296.45816
 10
39.415066
 20
296.523468
 10
39.181473
 20
296.945374
  0
LWPOLYLINE
  5
156
330
148
100
AcDbEntity
  8
0
  6
Continuous
 62
     0
370
    30
100
AcDbPolyline
 90
       51
 70
     0
 43
0.0
 10
159.096283
 20
296.945374
 10
158.833633
 20
296.506409
 10
158.691162
 20
296.453918
 10
158.631699
 20
296.443573
 10
158.584793
 20
296.438171
 10
158.536682
 20
296.43399
 10
158.483231
 20
296.430267
 10
158.422653
 20
296.426758
 10
158.354385
 20
296.42334
 10
158.277939
 20
296.419983
 10
158.192932
 20
296.416687
 10
158.099243
 20
296.413391
 10
157.996811
 20
296.410126
 10
157.885574
 20
296.40686
 10
157.765518
 20
296.403625
 10
157.636612
 20
296.400391
 10
157.498886
 20
296.397186
 10
157.35231
 20
296.393982
 10
157.196884
 20
296.390778
 10
157.032608
 20
296.387604
 10
156.859482
 20
296.38443
 10
156.677536
 20
296.381256
 10
156.486816
 20
296.378113
 10
156.287369
 20
296.374969
 10
156.079193
 20
296.371857
 10
155.86235
 20
296.368744
 10
155.636856
 20
296.365631
 10
155.402725
 20
296.362549
 10
155.160004
 20
296.359467
 10
154.908707
 20
296.356384
 10
154.648849
 20
296.353363
 10
154.380493
 20
296.350311
 10
154.103668
 20
296.34729
 10
153.818405
 20
296.344299
 10
153.52478
 20
296.341309
 10
153.222824
 20
296.338348
 10
152.912598
 20
296.335388
 10
152.594147
 20
296.332458
 10
152.267502
 20
296.329529
 10
151.932724
 20
296.32663
 10
151.589874
 20
296.323761
 10
151.238983
 20
296.320892
 10
150.880112
 20
296.318054
 10
150.513306
 20
296.315216
 10
150.138626
 20
296.312408
 10
149.756134
 20
296.309631
 10
149.365875
 20
296.306885
 10
148.967941
 20
296.304138
 10
148.562363
 20
296.301422
 10
148.149231
 20
296.298737
 10
147.725327
 20
296.296021
  0
LWPOLYLINE
  5
157
330
148
100
AcDbEntity
  8
0
  6
Continuous
 62
     0
370
    30
100
AcDbPolyline
 90
       56
 70
     0
 43
0.0
 10
86.155777
 20
258.415131
 10
85.944527
 20
258.416016
 10
85.736366
 20
258.416931
 10
85.531357
 20
258.417847
 10
85.329544
 20
258.418762
 10
85.130981
 20
258.419708
 10
84.935707
 20
258.420654
 10
84.743782
 20
258.421631
 10
84.555229
 20
258.422607
 10
84.370102
 20
258.423615
 10
84.188438
 20
258.424622
 10
84.010284
 20
258.425629
 10
83.83567
 20
258.426666
 10
83.664658
 20
258.427704
 10
83.497261
 20
258.428772
 10
83.333542
 20
258.42984
 10
83.173531
 20
258.430908
 10
83.017265
 20
258.432007
 10
82.864792
 20
258.433105
 10
82.716141
 20
258.434204
 10
82.571342
 20
258.435333
 10
82.430435
 20
258.436462
 10
82.293449
 20
258.437592
 10
82.160416
 20
258.438751
 10
82.031357
 20
258.439911
 10
81.906303
 20
258.441071
 10
81.785286
 20
258.44223
 10
81.668312
 20
258.44342
 10
81.555428
 20
258.444611
 10
81.44664
 20
258.445801
 10
81.34198
 20
258.447021
 10
81.241478
 20
258.448212
 10
81.145157
 20
258.449432
 10
81.053032
 20
258.450684
 10
80.965141
 20
258.451904
 10
80.881477
 20
258.453156
 10
80.802055
 20
258.454376
 10
80.726883
 20
258.455627
 10
80.655968
 20
258.456909
 10
80.589325
 20
258.45816
 10
80.526939
 20
258.459442
 10
80.468811
 20
258.460724
 10
80.414909
 20
258.462006
 10
80.365219
 20
258.463318
 10
80.319687
 20
258.46463
 10
80.278259
 20
258.465973
 10
80.240761
 20
258.467316
 10
80.206932
 20
258.468719
 10
80.176437
 20
258.470215
 10
80.148666
 20
258.471832
 10
80.121788
 20
258.473816
 10
80.091743
 20
258.476807
 10
80.043869
 20
258.484283
 10
79.91497
 20
258.528137
 10
79.718651
 20
258.702362
 10
79.636856
 20
258.974274
  0
LWPOLYLINE
  5
158
330
148
100
AcDbEntity
  8
0
  6
Continuous
 62
     0
370
    30
100
AcDbPolyline
 90
       56
 70
     0
 43
0.0
 10
118.6409
 20
258.974274
 10
118.559746
 20
258.703156
 10
118.363136
 20
258.528198
 10
118.233902
 20
258.484314
 10
118.186005
 20
258.476807
 10
118.155846
 20
258.473816
 10
118.128967
 20
258.471832
 10
118.101006
 20
258.470184
 10
118.070488
 20
258.468719
 10
118.036575
 20
258.467316
 10
117.998924
 20
258.465942
 10
117.957329
 20
258.4646
 10
117.911629
 20
258.463287
 10
117.861748
 20
258.461975
 10
117.80764
 20
258.460693
 10
117.74929
 20
258.459412
 10
117.686676
 20
258.45813
 10
117.619781
 20
258.456879
 10
117.548599
 20
258.455597
 10
117.473137
 20
258.454346
 10
117.39341
 20
258.453094
 10
117.309425
 20
258.451843
 10
117.221191
 20
258.450623
 10
117.128716
 20
258.449402
 10
117.032028
 20
258.448181
 10
116.931137
 20
258.44696
 10
116.82608
 20
258.44574
 10
116.716873
 20
258.44455
 10
116.603554
 20
258.443359
 10
116.48613
 20
258.442169
 10
116.364632
 20
258.44101
 10
116.239098
 20
258.439819
 10
116.109535
 20
258.43866
 10
115.975975
 20
258.437531
 10
115.838455
 20
258.436371
 10
115.696991
 20
258.435242
 10
115.551628
 20
258.434143
 10
115.402397
 20
258.433014
 10
115.249336
 20
258.431915
 10
115.092476
 20
258.430847
 10
114.931862
 20
258.429749
 10
114.767532
 20
258.42868
 10
114.599518
 20
258.427643
 10
114.427872
 20
258.426575
 10
114.252609
 20
258.425568
 10
114.073792
 20
258.42453
 10
113.891457
 20
258.423523
 10
113.705635
 20
258.422516
 10
113.516388
 20
258.421539
 10
113.323746
 20
258.420563
 10
113.127754
 20
258.419617
 10
112.928467
 20
258.418671
 10
112.725922
 20
258.417755
 10
112.520172
 20
258.41684
 10
112.311264
 20
258.415924
 10
112.096893
 20
258.415039
  0
LINE
  5
159
330
148
100
AcDbEntity
  8
0
  6
Continuous
 62
     0
370
    30
100
AcDbLine
 10
118.650586
 20
261.165183
 30
0.0
 11
118.640898
 21
258.974276
 31
0.0
  0
LINE
  5
15A
330
148
100
AcDbEntity
  8
0
  6
Continuous
 62
     0
370
    30
100
AcDbLine
 10
118.805168
 20
296.123526
 30
0.0
 11
118.761133
 21
286.165183
 31
0.0
  0
LINE
  5
15B
330
148
100
AcDbEntity
  8
0
  6
Continuous
 62
     0
370
    30
100
AcDbLine
 10
79.62717
 20
261.165183
 30
0.0
 11
79.636858
 21
258.974276
 31
0.0
  0
LINE
  5
15C
330
148
100
AcDbEntity
  8
0
  6
Continuous
 62
     0
370
    30
100
AcDbLine
 10
79.472588
 20
296.123526
 30
0.0
 11
79.516622
 21
286.165183
 31
0.0
  0
LINE
  5
15D
330
148
100
AcDbEntity
  8
0
  6
Continuous
 62
     0
370
    30
100
AcDbLine
 10
159.138291
 20
306.445178
 30
0.0
 11
159.096284
 21
296.945363
 31
0.0
  0
LINE
  5
15E
330
148
100
AcDbEntity
  8
0
  6
Continuous
 62
     0
370
    30
100
AcDbLine
 10
39.139464
 20
306.445178
 30
0.0
 11
39.181472
 21
296.945363
 31
0.0
  0
ARC
  5
15F
330
148
100
AcDbEntity
  8
0
  6
Continuous
 62
     0
370
    30
100
AcDbCircle
 10
131.138878
 20
298.887144
 30
0.0
 40
0.499999999999866
100
AcDbArc
 50
277.002045
 51
0.0
  0
LINE
  5
160
330
148
100
AcDbEntity
  8
0
  6
Continuous
 62
     0
370
     0
100
AcDbLine
 10
67.077925
 20
298.390873
 30
0.0
 11
131.19983
 21
298.390873
 31
0.0
  0
LINE
  5
161
330
148
100
AcDbEntity
  8
0
  6
Continuous
 62
     0
370
     0
100
AcDbLine
 10
131.638878
 20
298.887144
 30
0.0
 11
66.638878
 21
298.887144
 31
0.0
  0
LWPOLYLINE
  5
162
330
148
100
AcDbEntity
  8
0
  6
Continuous
 62
     0
370
     0
100
AcDbPolyline
 90
       24
 70
     0
 43
0.0
 10
91.229103
 20
296.54834
 10
91.301643
 20
296.54837
 10
91.525009
 20
296.548309
 10
91.886909
 20
296.548279
 10
92.379494
 20
296.548401
 10
93.001381
 20
296.548401
 10
93.740692
 20
296.548279
 10
94.576645
 20
296.548309
 10
95.496437
 20
296.54837
 10
96.485329
 20
296.54834
 10
97.523308
 20
296.548309
 10
98.590981
 20
296.54834
 10
99.668732
 20
296.54834
 10
100.73674
 20
296.548309
 10
101.775375
 20
296.54834
 10
102.765259
 20
296.54837
 10
103.686348
 20
296.548309
 10
104.523796
 20
296.548279
 10
105.264885
 20
296.548401
 10
105.888901
 20
296.548401
 10
106.383652
 20
296.548279
 10
106.747787
 20
296.548279
 10
106.973579
 20
296.54837
 10
107.048653
 20
296.54834
  0
LINE
  5
163
330
148
100
AcDbEntity
  8
0
  6
Continuous
 62
     0
370
    30
100
AcDbLine
 10
131.638878
 20
298.887144
 30
0.0
 11
131.638878
 21
306.445172
 31
0.0
  0
LINE
  5
164
330
148
100
AcDbEntity
  8
0
  6
Continuous
 62
     0
370
    30
100
AcDbLine
 10
131.638878
 20
306.445172
 30
0.0
 11
66.638878
 21
306.445172
 31
0.0
  0
LINE
  5
165
330
148
100
AcDbEntity
  8
0
  6
Continuous
 62
     0
370
    30
100
AcDbLine
 10
104.138878
 20
291.165172
 30
0.0
 11
104.138878
 21
293.549695
 31
0.0
  0
LINE
  5
166
330
148
100
AcDbEntity
  8
0
  6
Continuous
 62
     0
370
     0
100
AcDbLine
 10
104.138878
 20
293.549695
 30
0.0
 11
94.138878
 21
293.549695
 31
0.0
  0
LINE
  5
167
330
148
100
AcDbEntity
  8
0
  6
Continuous
 62
     0
370
    30
100
AcDbLine
 10
94.138878
 20
291.165172
 30
0.0
 11
104.138878
 21
291.165172
 31
0.0
  0
ARC
  5
168
330
148
100
AcDbEntity
  8
0
  6
Continuous
 62
     0
370
    30
100
AcDbCircle
 10
107.138878
 20
293.549695
 30
0.0
 40
2.99999999999997
100
AcDbArc
 50
91.723441
 51
180.0
  0
LWPOLYLINE
  5
169
330
148
100
AcDbEntity
  8
0
  6
Continuous
 62
     0
370
     0
100
AcDbPolyline
 90
        7
 70
     0
 43
0.0
 10
102.464828
 20
262.035553
 10
102.375328
 20
261.726868
 10
102.214714
 20
261.484344
 10
102.013428
 20
261.31369
 10
101.791145
 20
261.209717
 10
101.507156
 20
261.165192
 10
101.504105
 20
261.165161
  0
LWPOLYLINE
  5
16A
330
148
100
AcDbEntity
  8
0
  6
Continuous
 62
     0
370
     0
100
AcDbPolyline
 90
        8
 70
     0
 43
0.0
 10
101.504105
 20
261.165161
 10
101.510246
 20
261.165192
 10
101.919395
 20
261.187958
 10
102.31768
 20
261.255798
 10
102.693184
 20
261.371674
 10
103.027771
 20
261.540039
 10
103.289917
 20
261.762817
 10
103.437866
 20
262.035553
  0
LWPOLYLINE
  5
16B
330
148
100
AcDbEntity
  8
0
  6
Continuous
 62
     0
370
     0
100
AcDbPolyline
 90
        5
 70
     0
 43
0.0
 10
103.437866
 20
262.035553
 10
103.076973
 20
262.071442
 10
102.768318
 20
262.084503
 10
102.555267
 20
262.072784
 10
102.464828
 20
262.035553
  0
LINE
  5
16C
330
148
100
AcDbEntity
  8
0
  6
Continuous
 62
     0
370
    30
100
AcDbLine
 10
105.156736
 20
286.165172
 30
0.0
 11
104.276747
 21
286.165172
 31
0.0
  0
LWPOLYLINE
  5
16D
330
148
100
AcDbEntity
  8
0
  6
Continuous
 62
     0
370
     0
100
AcDbPolyline
 90
        6
 70
     0
 43
0.0
 10
104.276749
 20
286.165161
 10
104.104248
 20
281.53537
 10
103.85807
 20
276.911652
 10
103.530296
 20
272.297211
 10
103.113029
 20
267.695984
 10
102.464828
 20
262.035553
  0
LWPOLYLINE
  5
16E
330
148
100
AcDbEntity
  8
0
  6
Continuous
 62
     0
370
     0
100
AcDbPolyline
 90
        6
 70
     0
 43
0.0
 10
103.437866
 20
262.035553
 10
103.957565
 20
266.63858
 10
104.376877
 20
271.263153
 10
104.703804
 20
275.902405
 10
104.950317
 20
280.551758
 10
105.156738
 20
286.165161
  0
LWPOLYLINE
  5
16F
330
148
100
AcDbEntity
  8
0
  6
Continuous
 62
     0
370
     0
100
AcDbPolyline
 90
        3
 70
     0
 43
0.0
 10
120.491013
 20
262.156647
 10
117.019104
 20
262.129852
 10
103.437866
 20
262.035553
  0
ARC
  5
170
330
148
100
AcDbEntity
  8
0
  6
Continuous
 62
     0
370
     0
100
AcDbCircle
 10
-4452.159607
 20
333.390174
 30
0.0
 40
4573.205426374778
100
AcDbArc
 50
359.107509
 51
359.408327
  0
LINE
  5
171
330
148
100
AcDbEntity
  8
0
  6
Continuous
 62
     0
370
    30
100
AcDbLine
 10
105.156736
 20
286.165172
 30
0.0
 11
120.80198
 21
286.165172
 31
0.0
  0
LINE
  5
172
330
148
100
AcDbEntity
  8
0
  6
Continuous
 62
     0
370
    30
100
AcDbLine
 10
101.504103
 20
261.165172
 30
0.0
 11
120.496846
 21
261.165172
 31
0.0
  0
ARC
  5
173
330
148
100
AcDbEntity
  8
0
  6
Continuous
 62
     0
370
     0
100
AcDbCircle
 10
162.832317
 20
261.910141
 30
0.0
 40
42.34202477468857
100
AcDbArc
 50
179.666442
 51
181.008119
  0
LWPOLYLINE
  5
174
330
148
100
AcDbEntity
  8
0
  6
Continuous
 62
     0
370
     0
100
AcDbPolyline
 90
        2
 70
     0
 43
0.0
 10
102.464828
 20
262.035553
 10
102.385803
 20
262.057526
  0
LINE
  5
175
330
148
100
AcDbEntity
  8
0
  6
Continuous
 62
     0
370
    30
100
AcDbLine
 10
101.391618
 20
261.165172
 30
0.0
 11
101.504103
 21
261.165172
 31
0.0
  0
LINE
  5
176
330
148
100
AcDbEntity
  8
0
  6
Continuous
 62
     0
370
    30
100
AcDbLine
 10
94.001009
 20
286.165172
 30
0.0
 11
93.12102
 21
286.165172
 31
0.0
  0
LWPOLYLINE
  5
177
330
148
100
AcDbEntity
  8
0
  6
Continuous
 62
     0
370
     0
100
AcDbPolyline
 90
        6
 70
     0
 43
0.0
 10
93.121017
 20
286.165161
 10
93.285522
 20
281.507965
 10
93.517197
 20
276.856934
 10
93.826477
 20
272.215332
 10
94.226089
 20
267.587219
 10
94.83989
 20
262.035553
  0
LWPOLYLINE
  5
178
330
148
100
AcDbEntity
  8
0
  6
Continuous
 62
     0
370
     0
100
AcDbPolyline
 90
        5
 70
     0
 43
0.0
 10
94.83989
 20
262.035553
 10
95.19973
 20
262.071411
 10
95.507576
 20
262.084534
 10
95.721344
 20
262.073151
 10
95.812927
 20
262.035553
  0
LWPOLYLINE
  5
179
330
148
100
AcDbEntity
  8
0
  6
Continuous
 62
     0
370
     0
100
AcDbPolyline
 90
        6
 70
     0
 43
0.0
 10
95.812927
 20
262.035553
 10
95.277039
 20
266.61142
 10
94.83773
 20
271.208618
 10
94.489464
 20
275.820374
 10
94.224754
 20
280.4422
 10
94.001007
 20
286.165161
  0
LWPOLYLINE
  5
17A
330
148
100
AcDbEntity
  8
0
  6
Continuous
 62
     0
370
     0
100
AcDbPolyline
 90
        8
 70
     0
 43
0.0
 10
94.83989
 20
262.035553
 10
94.986542
 20
261.764282
 10
95.248383
 20
261.541351
 10
95.5821
 20
261.372864
 10
95.95697
 20
261.256622
 10
96.35498
 20
261.188354
 10
96.767509
 20
261.165192
 10
96.773651
 20
261.165161
  0
LWPOLYLINE
  5
17B
330
148
100
AcDbEntity
  8
0
  6
Continuous
 62
     0
370
     0
100
AcDbPolyline
 90
        7
 70
     0
 43
0.0
 10
96.773651
 20
261.165161
 10
96.770599
 20
261.165192
 10
96.537323
 20
261.195221
 10
96.312256
 20
261.285248
 10
96.105064
 20
261.440613
 10
95.93335
 20
261.666656
 10
95.812927
 20
262.035553
  0
LWPOLYLINE
  5
17C
330
148
100
AcDbEntity
  8
0
  6
Continuous
 62
     0
370
     0
100
AcDbPolyline
 90
        3
 70
     0
 43
0.0
 10
94.83989
 20
262.035553
 10
92.045013
 20
262.049377
 10
77.786743
 20
262.156647
  0
ARC
  5
17D
330
148
100
AcDbEntity
  8
0
  6
Continuous
 62
     0
370
     0
100
AcDbCircle
 10
35.445331
 20
261.910141
 30
0.0
 40
42.34213332462954
100
AcDbArc
 50
358.991884
 51
0.333557
  0
LINE
  5
17E
330
148
100
AcDbEntity
  8
0
  6
Continuous
 62
     0
370
    30
100
AcDbLine
 10
77.78091
 20
261.165172
 30
0.0
 11
96.773653
 21
261.165172
 31
0.0
  0
LINE
  5
17F
330
148
100
AcDbEntity
  8
0
  6
Continuous
 62
     0
370
    30
100
AcDbLine
 10
77.475776
 20
286.165172
 30
0.0
 11
93.12102
 21
286.165172
 31
0.0
  0
ARC
  5
180
330
148
100
AcDbEntity
  8
0
  6
Continuous
 62
     0
370
     0
100
AcDbCircle
 10
4651.527701
 20
333.404297
 30
0.0
 40
4574.295853171439
100
AcDbArc
 50
180.591709
 51
180.892455
  0
LINE
  5
181
330
148
100
AcDbEntity
  8
0
  6
Continuous
 62
     0
370
    30
100
AcDbLine
 10
77.475776
 20
286.165172
 30
0.0
 11
76.588878
 21
286.165172
 31
0.0
  0
LINE
  5
182
330
148
100
AcDbEntity
  8
0
  6
Continuous
 62
     0
370
    30
100
AcDbLine
 10
95.782212
 20
286.165171
 30
0.0
 11
94.001009
 21
286.165172
 31
0.0
  0
LINE
  5
183
330
148
100
AcDbEntity
  8
0
  6
Continuous
 62
     0
370
    30
100
AcDbLine
 10
96.775786
 20
286.165171
 30
0.0
 11
95.782212
 21
286.165171
 31
0.0
  0
LINE
  5
184
330
148
100
AcDbEntity
  8
0
  6
Continuous
 62
     0
370
    30
100
AcDbLine
 10
101.50197
 20
286.165171
 30
0.0
 11
96.775786
 21
286.165171
 31
0.0
  0
LINE
  5
185
330
148
100
AcDbEntity
  8
0
  6
Continuous
 62
     0
370
    30
100
AcDbLine
 10
102.495543
 20
286.165171
 30
0.0
 11
101.50197
 21
286.165171
 31
0.0
  0
LINE
  5
186
330
148
100
AcDbEntity
  8
0
  6
Continuous
 62
     0
370
    30
100
AcDbLine
 10
104.276747
 20
286.165172
 30
0.0
 11
102.495543
 21
286.165171
 31
0.0
  0
LINE
  5
187
330
148
100
AcDbEntity
  8
0
  6
Continuous
 62
     0
370
    30
100
AcDbLine
 10
121.688878
 20
286.165172
 30
0.0
 11
120.80198
 21
286.165172
 31
0.0
  0
LINE
  5
188
330
148
100
AcDbEntity
  8
0
  6
Continuous
 62
     0
370
    30
100
AcDbLine
 10
96.886138
 20
261.165171
 30
0.0
 11
101.391618
 21
261.165171
 31
0.0
  0
LINE
  5
189
330
148
100
AcDbEntity
  8
0
  6
Continuous
 62
     0
370
    30
100
AcDbLine
 10
96.773653
 20
261.165172
 30
0.0
 11
96.885533
 21
261.165172
 31
0.0
  0
LINE
  5
18A
330
148
100
AcDbEntity
  8
0
  6
Continuous
 62
     0
370
    30
100
AcDbLine
 10
76.588878
 20
286.165172
 30
0.0
 11
76.780942
 21
262.157172
 31
0.0
  0
LWPOLYLINE
  5
18B
330
148
100
AcDbEntity
  8
0
  6
Continuous
 62
     0
370
     0
100
AcDbPolyline
 90
        5
 70
     0
 43
0.0
 10
76.780945
 20
262.157166
 10
76.857124
 20
262.15451
 10
77.073875
 20
262.153442
 10
77.39817
 20
262.154175
 10
77.786743
 20
262.156647
  0
ARC
  5
18C
330
148
100
AcDbEntity
  8
0
  6
Continuous
 62
     0
370
    30
100
AcDbCircle
 10
77.78091
 20
262.165172
 30
0.0
 40
1.0
100
AcDbArc
 50
180.458356
 51
270.0
  0
ARC
  5
18D
330
148
100
AcDbEntity
  8
0
  6
Continuous
 62
     0
370
     0
100
AcDbCircle
 10
-3076.625923
 20
288.769057
 30
0.0
 40
3178.128959463791
100
AcDbArc
 50
359.520231
 51
359.953057
  0
LWPOLYLINE
  5
18E
330
148
100
AcDbEntity
  8
0
  6
Continuous
 62
     0
370
     0
100
AcDbPolyline
 90
        5
 70
     0
 43
0.0
 10
101.391617
 20
262.157166
 10
101.774017
 20
262.15451
 10
102.098198
 20
262.153442
 10
102.315056
 20
262.154175
 10
102.391563
 20
262.156647
  0
ARC
  5
18F
330
148
100
AcDbEntity
  8
0
  6
Continuous
 62
     0
370
     0
100
AcDbCircle
 10
-2993.384788
 20
287.528779
 30
0.0
 40
3095.880631766082
100
AcDbArc
 50
359.545241
 51
359.974764
  0
LINE
  5
190
330
148
100
AcDbEntity
  8
0
  6
Continuous
 62
     0
370
     0
100
AcDbLine
 10
101.391618
 20
261.165171
 30
0.0
 11
101.391618
 21
262.157171
 31
0.0
  0
LINE
  5
191
330
148
100
AcDbEntity
  8
0
  6
Continuous
 62
     0
370
     0
100
AcDbLine
 10
101.391618
 20
262.157171
 30
0.0
 11
96.886138
 21
262.157171
 31
0.0
  0
LINE
  5
192
330
148
100
AcDbEntity
  8
0
  6
Continuous
 62
     0
370
     0
100
AcDbLine
 10
96.886138
 20
262.157171
 30
0.0
 11
96.886138
 21
261.165171
 31
0.0
  0
ARC
  5
193
330
148
100
AcDbEntity
  8
0
  6
Continuous
 62
     0
370
     0
100
AcDbCircle
 10
3191.662512
 20
287.528779
 30
0.0
 40
3095.880600066293
100
AcDbArc
 50
180.025236
 51
180.454759
  0
LWPOLYLINE
  5
194
330
148
100
AcDbEntity
  8
0
  6
Continuous
 62
     0
370
     0
100
AcDbPolyline
 90
        5
 70
     0
 43
0.0
 10
95.886192
 20
262.156647
 10
95.959999
 20
262.154205
 10
96.174553
 20
262.153442
 10
96.497192
 20
262.15448
 10
96.886139
 20
262.157166
  0
ARC
  5
195
330
148
100
AcDbEntity
  8
0
  6
Continuous
 62
     0
370
     0
100
AcDbCircle
 10
3274.903707
 20
288.769057
 30
0.0
 40
3178.128988097339
100
AcDbArc
 50
180.046943
 51
180.479769
  0
LWPOLYLINE
  5
196
330
148
100
AcDbEntity
  8
0
  6
Continuous
 62
     0
370
     0
100
AcDbPolyline
 90
        2
 70
     0
 43
0.0
 10
95.891953
 20
262.057526
 10
95.812927
 20
262.035553
  0
ARC
  5
197
330
148
100
AcDbEntity
  8
0
  6
Continuous
 62
     0
370
    30
100
AcDbCircle
 10
120.496846
 20
262.165172
 30
0.0
 40
1.0
100
AcDbArc
 50
270.000002
 51
359.541644
  0
LWPOLYLINE
  5
198
330
148
100
AcDbEntity
  8
0
  6
Continuous
 62
     0
370
     0
100
AcDbPolyline
 90
        5
 70
     0
 43
0.0
 10
120.491013
 20
262.156647
 10
120.874008
 20
262.154205
 10
121.199608
 20
262.153442
 10
121.418312
 20
262.15448
 10
121.496811
 20
262.157166
  0
LINE
  5
199
330
148
100
AcDbEntity
  8
0
  6
Continuous
 62
     0
370
    30
100
AcDbLine
 10
121.496814
 20
262.157172
 30
0.0
 11
121.688878
 21
286.165172
 31
0.0
  0
LINE
  5
19A
330
148
100
AcDbEntity
  8
0
  6
Continuous
 62
     0
370
    30
100
AcDbLine
 10
104.038878
 20
286.165172
 30
0.0
 11
104.038878
 21
291.165172
 31
0.0
  0
LINE
  5
19B
330
148
100
AcDbEntity
  8
0
  6
Continuous
 62
     0
370
    30
100
AcDbLine
 10
94.238878
 20
286.165172
 30
0.0
 11
94.238878
 21
291.165172
 31
0.0
  0
LINE
  5
19C
330
148
100
AcDbEntity
  8
0
  6
Continuous
 62
     0
370
    30
100
AcDbLine
 10
95.854958
 20
264.724525
 30
0.0
 11
95.868612
 21
264.307095
 31
0.0
  0
LWPOLYLINE
  5
19D
330
148
100
AcDbEntity
  8
0
  6
Continuous
 62
     0
370
    30
100
AcDbPolyline
 90
        8
 70
     0
 43
0.0
 10
95.879387
 20
262.961334
 10
95.876053
 20
263.325745
 10
95.872269
 20
263.671387
 10
95.868118
 20
263.990753
 10
95.863815
 20
264.273224
 10
95.859726
 20
264.502655
 10
95.856499
 20
264.659088
 10
95.854958
 20
264.724518
  0
LWPOLYLINE
  5
19E
330
148
100
AcDbEntity
  8
0
  6
Continuous
 62
     0
370
    30
100
AcDbPolyline
 90
        7
 70
     0
 43
0.0
 10
102.422798
 20
264.724426
 10
102.42115
 20
264.654144
 10
102.417175
 20
264.457733
 10
102.412231
 20
264.166321
 10
102.407219
 20
263.81134
 10
102.402603
 20
263.414307
 10
102.398369
 20
262.961334
  0
LINE
  5
19F
330
148
100
AcDbEntity
  8
0
  6
Continuous
 62
     0
370
    30
100
AcDbLine
 10
102.409143
 20
264.307029
 30
0.0
 11
102.422794
 21
264.724422
 31
0.0
  0
ARC
  5
1A0
330
148
100
AcDbEntity
  8
0
  6
Continuous
 62
     0
370
    30
100
AcDbCircle
 10
96.886254
 20
262.165288
 30
0.0
 40
1.000117525332936
100
AcDbArc
 50
180.498097
 51
269.958696
  0
LINE
  5
1A1
330
148
100
AcDbEntity
  8
0
  6
Continuous
 62
     0
370
    30
100
AcDbLine
 10
95.879424
 20
262.957199
 30
0.0
 11
95.886174
 21
262.156595
 31
0.0
  0
ARC
  5
1A2
330
148
100
AcDbEntity
  8
0
  6
Continuous
 62
     0
370
    30
100
AcDbCircle
 10
101.391617
 20
262.165172
 30
0.0
 40
1.000001250250314
100
AcDbArc
 50
270.000069
 51
359.509188
  0
LINE
  5
1A3
330
148
100
AcDbEntity
  8
0
  6
Continuous
 62
     0
370
    30
100
AcDbLine
 10
102.391581
 20
262.156595
 30
0.0
 11
102.398331
 21
262.957197
 31
0.0
  0
ARC
  5
1A4
330
148
100
AcDbEntity
  8
0
  6
Continuous
 62
     0
370
    30
100
AcDbCircle
 10
91.138878
 20
293.549695
 30
0.0
 40
2.99999964272169
100
AcDbArc
 50
359.999993
 51
88.276565
  0
LWPOLYLINE
  5
1A5
330
148
100
AcDbEntity
  8
0
  6
Continuous
 62
     0
370
    30
100
AcDbPolyline
 90
        2
 70
     0
 43
0.0
 10
107.048645
 20
296.54834
 10
107.048653
 20
296.54834
  0
LINE
  5
1A6
330
148
100
AcDbEntity
  8
0
  6
Continuous
 62
     0
370
    30
100
AcDbLine
 10
94.138878
 20
291.165172
 30
0.0
 11
94.138878
 21
293.549695
 31
0.0
  0
LINE
  5
1A7
330
148
100
AcDbEntity
  8
0
  6
Continuous
 62
     0
370
    30
100
AcDbLine
 10
66.638878
 20
298.887144
 30
0.0
 11
66.638878
 21
306.445172
 31
0.0
  0
LWPOLYLINE
  5
1A8
330
148
100
AcDbEntity
  8
0
  6
Continuous
 62
     0
370
    30
100
AcDbPolyline
 90
       30
 70
     0
 43
0.0
 10
131.199829
 20
298.390869
 10
130.370728
 20
298.290375
 10
129.541306
 20
298.192505
 10
128.711578
 20
298.09729
 10
127.881538
 20
298.0047
 10
127.051216
 20
297.914734
 10
126.220612
 20
297.827423
 10
125.389732
 20
297.742737
 10
124.558594
 20
297.660706
 10
123.727203
 20
297.581299
 10
122.895561
 20
297.504517
 10
122.063675
 20
297.43042
 10
121.23156
 20
297.358917
 10
120.399223
 20
297.2901
 10
119.566673
 20
297.223907
 10
118.73391
 20
297.160339
 10
117.900955
 20
297.099396
 10
117.06781
 20
297.041138
 10
116.234489
 20
296.985565
 10
115.401001
 20
296.932709
 10
114.567329
 20
296.882324
 10
113.733475
 20
296.83429
 10
112.899567
 20
296.789795
 10
112.065582
 20
296.748535
 10
111.231018
 20
296.705658
 10
110.396408
 20
296.666107
 10
109.563568
 20
296.647369
 10
108.728928
 20
296.614929
 10
107.887253
 20
296.518402
 10
107.048653
 20
296.54834
  0
LWPOLYLINE
  5
1A9
330
148
100
AcDbEntity
  8
0
  6
Continuous
 62
     0
370
    30
100
AcDbPolyline
 90
       30
 70
     0
 43
0.0
 10
67.077927
 20
298.390869
 10
67.907028
 20
298.290375
 10
68.73645
 20
298.192505
 10
69.566185
 20
298.09729
 10
70.396217
 20
298.0047
 10
71.22654
 20
297.914734
 10
72.057144
 20
297.827423
 10
72.888023
 20
297.742737
 10
73.719162
 20
297.660706
 10
74.550552
 20
297.581299
 10
75.382195
 20
297.504517
 10
76.214081
 20
297.43042
 10
77.046196
 20
297.358917
 10
77.878532
 20
297.2901
 10
78.711082
 20
297.223907
 10
79.543846
 20
297.160339
 10
80.376801
 20
297.099396
 10
81.209946
 20
297.041138
 10
82.043266
 20
296.985565
 10
82.876755
 20
296.932709
 10
83.710426
 20
296.882324
 10
84.544281
 20
296.83429
 10
85.378189
 20
296.789795
 10
86.212173
 20
296.748535
 10
87.046738
 20
296.705658
 10
87.881348
 20
296.666107
 10
88.714188
 20
296.647369
 10
89.548828
 20
296.614929
 10
90.390503
 20
296.518402
 10
91.229103
 20
296.54834
  0
ARC
  5
1AA
330
148
100
AcDbEntity
  8
0
  6
Continuous
 62
     0
370
    30
100
AcDbCircle
 10
67.138968
 20
298.887223
 30
0.0
 40
0.5000896921812961
100
AcDbArc
 50
180.009087
 51
262.988868
  0
ENDBLK
  5
1AC
330
148
100
AcDbEntity
  8
0
100
AcDbBlockEnd
  0
BLOCK
  5
278
330
1AE
100
AcDbEntity
  8
0
100
AcDbBlockBegin
  2
c
 70
     0
 10
42.386112
 20
91.952385
 30
0.0
  3
c
  1

  0
LINE
  5
1AF
330
1AE
100
AcDbEntity
  8
0
  6
Continuous
 62
     0
370
    30
100
AcDbLine
 10
266.047618
 20
597.929123
 30
0.0
 11
266.047618
 21
582.929123
 31
0.0
  0
LINE
  5
1B0
330
1AE
100
AcDbEntity
  8
0
  6
Continuous
 62
     0
370
    30
100
AcDbLine
 10
266.047618
 20
582.929123
 30
0.0
 11
266.088886
 21
573.596341
 31
0.0
  0
LINE
  5
1B1
330
1AE
100
AcDbEntity
  8
0
  6
Continuous
 62
     0
370
    30
100
AcDbLine
 10
266.047618
 20
597.929123
 30
0.0
 11
266.221539
 21
558.596927
 31
0.0
  0
LINE
  5
1B2
330
1AE
100
AcDbEntity
  8
0
  6
Continuous
 62
     0
370
    30
100
AcDbLine
 10
266.047618
 20
582.929123
 30
0.0
 11
265.789878
 21
582.929123
 31
0.0
  0
LINE
  5
1B3
330
1AE
100
AcDbEntity
  8
0
  6
Continuous
 62
     0
370
    30
100
AcDbLine
 10
255.547618
 20
638.216211
 30
0.0
 11
255.547618
 21
578.216211
 31
0.0
  0
LINE
  5
1B4
330
1AE
100
AcDbEntity
  8
0
  6
Continuous
 62
     0
370
    30
100
AcDbLine
 10
255.547618
 20
638.216211
 30
0.0
 11
256.07823
 21
518.218557
 31
0.0
  0
LINE
  5
1B5
330
1AE
100
AcDbEntity
  8
0
  6
Continuous
 62
     0
370
     0
100
AcDbLine
 10
265.547618
 20
637.716211
 30
0.0
 11
266.073417
 21
518.806973
 31
0.0
  0
LINE
  5
1B6
330
1AE
100
AcDbEntity
  8
0
  6
Continuous
 62
     0
370
    30
100
AcDbLine
 10
265.047618
 20
638.216211
 30
0.0
 11
255.547618
 21
638.216211
 31
0.0
  0
LINE
  5
1B7
330
1AE
100
AcDbEntity
  8
0
  6
Continuous
 62
     0
370
     0
100
AcDbLine
 10
265.047618
 20
638.216211
 30
0.0
 11
265.577858
 21
518.302571
 31
0.0
  0
LINE
  5
1B8
330
1AE
100
AcDbEntity
  8
0
  6
Continuous
 62
     0
370
     0
100
AcDbLine
 10
303.865171
 20
559.531821
 30
0.0
 11
303.865622
 21
559.429866
 31
0.0
  0
LINE
  5
1B9
330
1AE
100
AcDbEntity
  8
0
  6
Continuous
 62
     0
370
     0
100
AcDbLine
 10
303.697595
 20
597.429123
 30
0.0
 11
303.698047
 21
597.326944
 31
0.0
  0
LINE
  5
1BA
330
1AE
100
AcDbEntity
  8
0
  6
Continuous
 62
     0
370
    30
100
AcDbLine
 10
288.781609
 20
597.929123
 30
0.0
 11
266.047618
 21
597.929123
 31
0.0
  0
LINE
  5
1BB
330
1AE
100
AcDbEntity
  8
0
  6
Continuous
 62
     0
370
    30
100
AcDbLine
 10
303.197595
 20
597.929123
 30
0.0
 11
296.781609
 21
597.929123
 31
0.0
  0
LINE
  5
1BC
330
1AE
100
AcDbEntity
  8
0
  6
Continuous
 62
     0
370
     0
100
AcDbLine
 10
303.197595
 20
597.929123
 30
0.0
 11
303.370064
 21
558.925464
 31
0.0
  0
LINE
  5
1BD
330
1AE
100
AcDbEntity
  8
0
  6
Continuous
 62
     0
370
    30
100
AcDbLine
 10
296.608079
 20
597.894324
 30
0.0
 11
296.781609
 21
597.929123
 31
0.0
  0
LWPOLYLINE
  5
1BE
330
1AE
100
AcDbEntity
  8
0
  6
Continuous
 62
     0
370
    30
100
AcDbPolyline
 90
       16
 70
     0
 43
0.0
 10
288.781616
 20
597.929138
 10
288.853333
 20
597.914612
 10
289.065582
 20
597.872986
 10
289.409821
 20
597.810425
 10
289.873627
 20
597.735352
 10
290.440338
 20
597.658386
 10
291.091034
 20
597.590149
 10
291.803314
 20
597.540588
 10
292.551727
 20
597.516968
 10
293.308746
 20
597.522705
 10
294.046082
 20
597.557129
 10
294.736969
 20
597.615051
 10
295.357208
 20
597.687927
 10
295.885376
 20
597.765442
 10
296.304016
 20
597.836914
 10
296.608093
 20
597.894348
  0
ARC
  5
1BF
330
1AE
100
AcDbEntity
  8
0
  6
Continuous
 62
     0
370
    30
100
AcDbCircle
 10
303.197595
 20
597.429123
 30
0.0
 40
0.5
100
AcDbArc
 50
0.247251
 51
90.0
  0
ARC
  5
1C0
330
1AE
100
AcDbEntity
  8
0
  6
Continuous
 62
     0
370
    30
100
AcDbCircle
 10
265.047618
 20
637.716211
 30
0.0
 40
0.5
100
AcDbArc
 50
6.899503
 51
90.0
  0
LINE
  5
1C1
330
1AE
100
AcDbEntity
  8
0
  6
Continuous
 62
     0
370
     0
100
AcDbLine
 10
296.608079
 20
604.929495
 30
0.0
 11
288.781609
 21
604.929495
 31
0.0
  0
LINE
  5
1C2
330
1AE
100
AcDbEntity
  8
0
  6
Continuous
 62
     0
370
     0
100
AcDbLine
 10
296.781609
 20
604.929495
 30
0.0
 11
296.608079
 21
604.929495
 31
0.0
  0
LINE
  5
1C3
330
1AE
100
AcDbEntity
  8
0
  6
Continuous
 62
     0
370
    30
100
AcDbLine
 10
296.281609
 20
605.429495
 30
0.0
 11
296.12977
 21
605.429495
 31
0.0
  0
LINE
  5
1C4
330
1AE
100
AcDbEntity
  8
0
  6
Continuous
 62
     0
370
    30
100
AcDbLine
 10
296.12977
 20
605.429495
 30
0.0
 11
289.281609
 21
605.429495
 31
0.0
  0
ARC
  5
1C5
330
1AE
100
AcDbEntity
  8
0
  6
Continuous
 62
     0
370
    30
100
AcDbCircle
 10
296.281617
 20
604.929491
 30
0.0
 40
0.500003533445756
100
AcDbArc
 50
0.000405
 51
89.989894
  0
ARC
  5
1C6
330
1AE
100
AcDbEntity
  8
0
  6
Continuous
 62
     0
370
    30
100
AcDbCircle
 10
289.281744
 20
604.929501
 30
0.0
 40
0.4999939923124423
100
AcDbArc
 50
90.014141
 51
180.000689
  0
LINE
  5
1C7
330
1AE
100
AcDbEntity
  8
0
  6
Continuous
 62
     0
370
    30
100
AcDbLine
 10
288.781609
 20
604.929495
 30
0.0
 11
288.781609
 21
597.929123
 31
0.0
  0
LINE
  5
1C8
330
1AE
100
AcDbEntity
  8
0
  6
Continuous
 62
     0
370
    30
100
AcDbLine
 10
296.781609
 20
604.929495
 30
0.0
 11
296.781609
 21
597.929123
 31
0.0
  0
ARC
  5
1C9
330
1AE
100
AcDbEntity
  8
0
  6
Continuous
 62
     0
370
    30
100
AcDbCircle
 10
265.573434
 20
518.802554
 30
0.0
 40
0.5000027409869732
100
AcDbArc
 50
270.507018
 51
0.506389
  0
ARC
  5
1CA
330
1AE
100
AcDbEntity
  8
0
  6
Continuous
 62
     0
370
    30
100
AcDbCircle
 10
265.051185
 20
637.716043
 30
0.0
 40
0.4964328316563019
100
AcDbArc
 50
0.019425
 51
6.968232
  0
ARC
  5
1CB
330
1AE
100
AcDbEntity
  8
0
  6
Continuous
 62
     0
370
    30
100
AcDbCircle
 10
303.365639
 20
559.425447
 30
0.0
 40
0.5000027030494718
100
AcDbArc
 50
270.507013
 51
0.506394
  0
LINE
  5
1CC
330
1AE
100
AcDbEntity
  8
0
  6
Continuous
 62
     0
370
    30
100
AcDbLine
 10
303.69759
 20
597.431281
 30
0.0
 11
303.865636
 21
559.427833
 31
0.0
  0
LINE
  5
1CD
330
1AE
100
AcDbEntity
  8
0
  6
Continuous
 62
     0
370
    30
100
AcDbLine
 10
266.221539
 20
558.596927
 30
0.0
 11
303.370064
 21
558.925464
 31
0.0
  0
LINE
  5
1CE
330
1AE
100
AcDbEntity
  8
0
  6
Continuous
 62
     0
370
    30
100
AcDbLine
 10
256.07823
 20
518.218557
 30
0.0
 11
265.577858
 21
518.302571
 31
0.0
  0
LINE
  5
1CF
330
1AE
100
AcDbEntity
  8
0
  6
Continuous
 62
     0
370
    30
100
AcDbLine
 10
256.07823
 20
518.218557
 30
0.0
 11
255.547618
 21
578.216211
 31
0.0
  0
LINE
  5
1D0
330
1AE
100
AcDbEntity
  8
0
  6
Continuous
 62
     0
370
    30
100
AcDbLine
 10
266.088886
 20
573.596341
 30
0.0
 11
265.831157
 21
573.594061
 31
0.0
  0
LINE
  5
1D1
330
1AE
100
AcDbEntity
  8
0
  6
Continuous
 62
     0
370
    30
100
AcDbLine
 10
266.221539
 20
558.596927
 30
0.0
 11
266.088886
 21
573.596341
 31
0.0
  0
LINE
  5
1D2
330
1AE
100
AcDbEntity
  8
0
  6
Continuous
 62
     0
370
     0
100
AcDbLine
 10
263.867223
 20
696.156432
 30
0.0
 11
263.867224
 21
728.217384
 31
0.0
  0
LINE
  5
1D3
330
1AE
100
AcDbEntity
  8
0
  6
Continuous
 62
     0
370
     0
100
AcDbLine
 10
263.867224
 20
728.217384
 30
0.0
 11
263.867223
 21
760.278337
 31
0.0
  0
LINE
  5
1D4
330
1AE
100
AcDbEntity
  8
0
  6
Continuous
 62
     0
370
     0
100
AcDbLine
 10
263.370952
 20
760.717384
 30
0.0
 11
263.370954
 21
728.217384
 31
0.0
  0
LINE
  5
1D5
330
1AE
100
AcDbEntity
  8
0
  6
Continuous
 62
     0
370
     0
100
AcDbLine
 10
263.370954
 20
728.217384
 30
0.0
 11
263.370952
 21
695.717384
 31
0.0
  0
LINE
  5
1D6
330
1AE
100
AcDbEntity
  8
0
  6
Continuous
 62
     0
370
     0
100
AcDbLine
 10
265.709746
 20
720.307195
 30
0.0
 11
265.709759
 21
728.217384
 31
0.0
  0
LINE
  5
1D7
330
1AE
100
AcDbEntity
  8
0
  6
Continuous
 62
     0
370
     0
100
AcDbLine
 10
265.709759
 20
728.217384
 30
0.0
 11
265.709746
 21
736.127573
 31
0.0
  0
LINE
  5
1D8
330
1AE
100
AcDbEntity
  8
0
  6
Continuous
 62
     0
370
    30
100
AcDbLine
 10
255.812924
 20
760.717384
 30
0.0
 11
255.812924
 21
728.217384
 31
0.0
  0
LINE
  5
1D9
330
1AE
100
AcDbEntity
  8
0
  6
Continuous
 62
     0
370
    30
100
AcDbLine
 10
255.812924
 20
728.217384
 30
0.0
 11
255.812924
 21
695.717384
 31
0.0
  0
LWPOLYLINE
  5
1DA
330
1AE
100
AcDbEntity
  8
0
  6
Continuous
 62
     0
370
     0
100
AcDbPolyline
 90
       12
 70
     0
 43
0.0
 10
257.691925
 20
695.717407
 10
257.757202
 20
695.720581
 10
257.949066
 20
695.729187
 10
258.250397
 20
695.740417
 10
258.638519
 20
695.750793
 10
259.080536
 20
695.757019
 10
259.541321
 20
695.757019
 10
259.983551
 20
695.750854
 10
260.37265
 20
695.74054
 10
260.674591
 20
695.729309
 10
260.86615
 20
695.720642
 10
260.933929
 20
695.717407
  0
LINE
  5
1DB
330
1AE
100
AcDbEntity
  8
0
  6
Continuous
 62
     0
370
     0
100
AcDbLine
 10
268.708401
 20
733.217384
 30
0.0
 11
268.708401
 21
728.217384
 31
0.0
  0
LINE
  5
1DC
330
1AE
100
AcDbEntity
  8
0
  6
Continuous
 62
     0
370
     0
100
AcDbLine
 10
268.708401
 20
728.217384
 30
0.0
 11
268.708401
 21
723.217384
 31
0.0
  0
LINE
  5
1DD
330
1AE
100
AcDbEntity
  8
0
  6
Continuous
 62
     0
370
    30
100
AcDbLine
 10
271.092924
 20
723.217384
 30
0.0
 11
271.092924
 21
728.217384
 31
0.0
  0
LINE
  5
1DE
330
1AE
100
AcDbEntity
  8
0
  6
Continuous
 62
     0
370
    30
100
AcDbLine
 10
271.092924
 20
728.217384
 30
0.0
 11
271.092924
 21
733.217384
 31
0.0
  0
LWPOLYLINE
  5
1DF
330
1AE
100
AcDbEntity
  8
0
  6
Continuous
 62
     0
370
     0
100
AcDbPolyline
 90
        8
 70
     0
 43
0.0
 10
300.222534
 20
723.918396
 10
300.493835
 20
724.065063
 10
300.716736
 20
724.326904
 10
300.885223
 20
724.660583
 10
301.001465
 20
725.035461
 10
301.069733
 20
725.433472
 10
301.092926
 20
725.846008
 10
301.092926
 20
725.852173
  0
LWPOLYLINE
  5
1E0
330
1AE
100
AcDbEntity
  8
0
  6
Continuous
 62
     0
370
     0
100
AcDbPolyline
 90
        7
 70
     0
 43
0.0
 10
301.092926
 20
725.852173
 10
301.092926
 20
725.849121
 10
301.062897
 20
725.615845
 10
300.972839
 20
725.390747
 10
300.817474
 20
725.183594
 10
300.591431
 20
725.011841
 10
300.222534
 20
724.891418
  0
LWPOLYLINE
  5
1E1
330
1AE
100
AcDbEntity
  8
0
  6
Continuous
 62
     0
370
     0
100
AcDbPolyline
 90
        5
 70
     0
 43
0.0
 10
300.222534
 20
724.891418
 10
300.186707
 20
724.809692
 10
300.173584
 20
724.60321
 10
300.185242
 20
724.299011
 10
300.222534
 20
723.918396
  0
LINE
  5
1E2
330
1AE
100
AcDbEntity
  8
0
  6
Continuous
 62
     0
370
    30
100
AcDbLine
 10
276.092924
 20
723.079515
 30
0.0
 11
276.092924
 21
722.199526
 31
0.0
  0
LWPOLYLINE
  5
1E3
330
1AE
100
AcDbEntity
  8
0
  6
Continuous
 62
     0
370
     0
100
AcDbPolyline
 90
        6
 70
     0
 43
0.0
 10
276.092926
 20
722.199524
 10
280.750122
 20
722.364014
 10
285.401154
 20
722.595703
 10
290.042755
 20
722.904968
 10
294.670868
 20
723.304626
 10
300.222534
 20
723.918396
  0
LWPOLYLINE
  5
1E4
330
1AE
100
AcDbEntity
  8
0
  6
Continuous
 62
     0
370
     0
100
AcDbPolyline
 90
        6
 70
     0
 43
0.0
 10
300.222534
 20
724.891418
 10
295.646667
 20
724.35553
 10
291.0495
 20
723.91626
 10
286.437714
 20
723.567993
 10
281.815887
 20
723.303284
 10
276.092926
 20
723.079529
  0
LWPOLYLINE
  5
1E5
330
1AE
100
AcDbEntity
  8
0
  6
Continuous
 62
     0
370
     0
100
AcDbPolyline
 90
        2
 70
     0
 43
0.0
 10
300.200562
 20
724.970459
 10
300.222534
 20
724.891418
  0
ARC
  5
1E6
330
1AE
100
AcDbEntity
  8
0
  6
Continuous
 62
     0
370
     0
100
AcDbCircle
 10
274.816867
 20
3799.950483
 30
0.0
 40
3075.090028905429
100
AcDbArc
 50
270.023776
 51
270.456203
  0
LINE
  5
1E7
330
1AE
100
AcDbEntity
  8
0
  6
Continuous
 62
     0
370
    30
100
AcDbLine
 10
276.092924
 20
723.079515
 30
0.0
 11
276.092925
 21
724.860719
 31
0.0
  0
LINE
  5
1E8
330
1AE
100
AcDbEntity
  8
0
  6
Continuous
 62
     0
370
    30
100
AcDbLine
 10
301.092924
 20
725.852159
 30
0.0
 11
301.092924
 21
725.964644
 31
0.0
  0
LWPOLYLINE
  5
1E9
330
1AE
100
AcDbEntity
  8
0
  6
Continuous
 62
     0
370
     0
100
AcDbPolyline
 90
        3
 70
     0
 43
0.0
 10
300.222534
 20
723.918396
 10
300.20871
 20
721.123535
 10
300.10144
 20
706.865234
  0
ARC
  5
1EA
330
1AE
100
AcDbEntity
  8
0
  6
Continuous
 62
     0
370
     0
100
AcDbCircle
 10
300.347955
 20
664.523837
 30
0.0
 40
42.3421333269328
100
AcDbArc
 50
88.991884
 51
90.333557
  0
LINE
  5
1EB
330
1AE
100
AcDbEntity
  8
0
  6
Continuous
 62
     0
370
    30
100
AcDbLine
 10
301.092924
 20
706.859416
 30
0.0
 11
301.092924
 21
725.852159
 31
0.0
  0
LINE
  5
1EC
330
1AE
100
AcDbEntity
  8
0
  6
Continuous
 62
     0
370
    30
100
AcDbLine
 10
276.092924
 20
734.235242
 30
0.0
 11
276.092924
 21
733.355254
 31
0.0
  0
LWPOLYLINE
  5
1ED
330
1AE
100
AcDbEntity
  8
0
  6
Continuous
 62
     0
370
     0
100
AcDbPolyline
 90
        6
 70
     0
 43
0.0
 10
276.092926
 20
733.355225
 10
280.722717
 20
733.182739
 10
285.346436
 20
732.936584
 10
289.960907
 20
732.608826
 10
294.562103
 20
732.191528
 10
300.222534
 20
731.543335
  0
LWPOLYLINE
  5
1EE
330
1AE
100
AcDbEntity
  8
0
  6
Continuous
 62
     0
370
     0
100
AcDbPolyline
 90
        5
 70
     0
 43
0.0
 10
300.222534
 20
731.543335
 10
300.186676
 20
731.624023
 10
300.173584
 20
731.829834
 10
300.184967
 20
732.132446
 10
300.222534
 20
732.516357
  0
LWPOLYLINE
  5
1EF
330
1AE
100
AcDbEntity
  8
0
  6
Continuous
 62
     0
370
     0
100
AcDbPolyline
 90
        6
 70
     0
 43
0.0
 10
300.222534
 20
732.516357
 10
295.619507
 20
733.036072
 10
290.994934
 20
733.455383
 10
286.355713
 20
733.782288
 10
281.706329
 20
734.028809
 10
276.092926
 20
734.235229
  0
LWPOLYLINE
  5
1F0
330
1AE
100
AcDbEntity
  8
0
  6
Continuous
 62
     0
370
     0
100
AcDbPolyline
 90
        7
 70
     0
 43
0.0
 10
300.222534
 20
731.543335
 10
300.530792
 20
731.454041
 10
300.773041
 20
731.29364
 10
300.943939
 20
731.092407
 10
301.048004
 20
730.870544
 10
301.092926
 20
730.585632
 10
301.092926
 20
730.582581
  0
LWPOLYLINE
  5
1F1
330
1AE
100
AcDbEntity
  8
0
  6
Continuous
 62
     0
370
     0
100
AcDbPolyline
 90
        8
 70
     0
 43
0.0
 10
301.092926
 20
730.582581
 10
301.092926
 20
730.588745
 10
301.07016
 20
730.997314
 10
301.00238
 20
731.395508
 10
300.886597
 20
731.77063
 10
300.718658
 20
732.104919
 10
300.496277
 20
732.367615
 10
300.222534
 20
732.516357
  0
LWPOLYLINE
  5
1F2
330
1AE
100
AcDbEntity
  8
0
  6
Continuous
 62
     0
370
     0
100
AcDbPolyline
 90
        2
 70
     0
 43
0.0
 10
300.222534
 20
731.543335
 10
300.200562
 20
731.464294
  0
LINE
  5
1F3
330
1AE
100
AcDbEntity
  8
0
  6
Continuous
 62
     0
370
    30
100
AcDbLine
 10
301.092924
 20
730.470124
 30
0.0
 11
301.092924
 21
730.582609
 31
0.0
  0
LINE
  5
1F4
330
1AE
100
AcDbEntity
  8
0
  6
Continuous
 62
     0
370
    30
100
AcDbLine
 10
276.092925
 20
731.57405
 30
0.0
 11
276.092924
 21
733.355254
 31
0.0
  0
ARC
  5
1F5
330
1AE
100
AcDbEntity
  8
0
  6
Continuous
 62
     0
370
     0
100
AcDbCircle
 10
274.817025
 20
-2343.477955
 30
0.0
 40
3075.052269243352
100
AcDbArc
 50
89.543795
 51
89.976227
  0
LINE
  5
1F6
330
1AE
100
AcDbEntity
  8
0
  6
Continuous
 62
     0
370
    30
100
AcDbLine
 10
276.092924
 20
706.554282
 30
0.0
 11
276.092924
 21
705.667384
 31
0.0
  0
LINE
  5
1F7
330
1AE
100
AcDbEntity
  8
0
  6
Continuous
 62
     0
370
    30
100
AcDbLine
 10
276.092924
 20
705.667384
 30
0.0
 11
300.100924
 21
705.859448
 31
0.0
  0
LWPOLYLINE
  5
1F8
330
1AE
100
AcDbEntity
  8
0
  6
Continuous
 62
     0
370
     0
100
AcDbPolyline
 90
        5
 70
     0
 43
0.0
 10
300.100922
 20
705.859436
 10
300.103607
 20
705.935608
 10
300.104645
 20
706.152405
 10
300.103912
 20
706.476685
 10
300.10144
 20
706.865234
  0
ARC
  5
1F9
330
1AE
100
AcDbEntity
  8
0
  6
Continuous
 62
     0
370
     0
100
AcDbCircle
 10
228.852222
 20
5280.727975
 30
0.0
 40
4574.417630475244
100
AcDbArc
 50
270.591713
 51
270.892451
  0
ARC
  5
1FA
330
1AE
100
AcDbEntity
  8
0
  6
Continuous
 62
     0
370
    30
100
AcDbCircle
 10
300.092924
 20
706.859416
 30
0.0
 40
1.0
100
AcDbArc
 50
270.458356
 51
0.0
  0
LINE
  5
1FB
330
1AE
100
AcDbEntity
  8
0
  6
Continuous
 62
     0
370
    30
100
AcDbLine
 10
276.092924
 20
722.199526
 30
0.0
 11
276.092924
 21
706.554282
 31
0.0
  0
LINE
  5
1FC
330
1AE
100
AcDbEntity
  8
0
  6
Continuous
 62
     0
370
    30
100
AcDbLine
 10
276.092925
 20
725.854292
 30
0.0
 11
276.092925
 21
724.860719
 31
0.0
  0
LINE
  5
1FD
330
1AE
100
AcDbEntity
  8
0
  6
Continuous
 62
     0
370
    30
100
AcDbLine
 10
276.092925
 20
730.580476
 30
0.0
 11
276.092925
 21
725.854292
 31
0.0
  0
LINE
  5
1FE
330
1AE
100
AcDbEntity
  8
0
  6
Continuous
 62
     0
370
    30
100
AcDbLine
 10
276.092925
 20
731.57405
 30
0.0
 11
276.092925
 21
730.580476
 31
0.0
  0
LINE
  5
1FF
330
1AE
100
AcDbEntity
  8
0
  6
Continuous
 62
     0
370
    30
100
AcDbLine
 10
276.092924
 20
749.880486
 30
0.0
 11
276.092924
 21
734.235242
 31
0.0
  0
LINE
  5
200
330
1AE
100
AcDbEntity
  8
0
  6
Continuous
 62
     0
370
    30
100
AcDbLine
 10
276.092924
 20
750.767384
 30
0.0
 11
276.092924
 21
749.880486
 31
0.0
  0
LINE
  5
201
330
1AE
100
AcDbEntity
  8
0
  6
Continuous
 62
     0
370
    30
100
AcDbLine
 10
301.092924
 20
730.582609
 30
0.0
 11
301.092924
 21
749.575352
 31
0.0
  0
LINE
  5
202
330
1AE
100
AcDbEntity
  8
0
  6
Continuous
 62
     0
370
    30
100
AcDbLine
 10
301.092925
 20
725.964644
 30
0.0
 11
301.092925
 21
730.470124
 31
0.0
  0
ARC
  5
203
330
1AE
100
AcDbEntity
  8
0
  6
Continuous
 62
     0
370
     0
100
AcDbCircle
 10
273.489039
 20
-2447.547419
 30
0.0
 40
3178.128961615317
100
AcDbArc
 50
89.520231
 51
89.953057
  0
LWPOLYLINE
  5
204
330
1AE
100
AcDbEntity
  8
0
  6
Continuous
 62
     0
370
     0
100
AcDbPolyline
 90
        5
 70
     0
 43
0.0
 10
300.100922
 20
730.470154
 10
300.103607
 20
730.852539
 10
300.104645
 20
731.176697
 10
300.103912
 20
731.393555
 10
300.10144
 20
731.470093
  0
LINE
  5
205
330
1AE
100
AcDbEntity
  8
0
  6
Continuous
 62
     0
370
     0
100
AcDbLine
 10
301.092925
 20
730.470124
 30
0.0
 11
300.100925
 21
730.470124
 31
0.0
  0
LINE
  5
206
330
1AE
100
AcDbEntity
  8
0
  6
Continuous
 62
     0
370
     0
100
AcDbLine
 10
300.100925
 20
730.470124
 30
0.0
 11
300.100925
 21
725.964644
 31
0.0
  0
LINE
  5
207
330
1AE
100
AcDbEntity
  8
0
  6
Continuous
 62
     0
370
     0
100
AcDbLine
 10
300.100925
 20
725.964644
 30
0.0
 11
301.092925
 21
725.964644
 31
0.0
  0
LWPOLYLINE
  5
208
330
1AE
100
AcDbEntity
  8
0
  6
Continuous
 62
     0
370
     0
100
AcDbPolyline
 90
        5
 70
     0
 43
0.0
 10
300.10144
 20
724.964722
 10
300.103882
 20
725.038513
 10
300.104645
 20
725.253052
 10
300.103638
 20
725.575684
 10
300.100922
 20
725.964661
  0
ARC
  5
209
330
1AE
100
AcDbEntity
  8
0
  6
Continuous
 62
     0
370
     0
100
AcDbCircle
 10
273.489039
 20
3903.982187
 30
0.0
 40
3178.128961583453
100
AcDbArc
 50
270.046943
 51
270.479769
  0
ARC
  5
20A
330
1AE
100
AcDbEntity
  8
0
  6
Continuous
 62
     0
370
    30
100
AcDbCircle
 10
300.092924
 20
749.575352
 30
0.0
 40
1.0
100
AcDbArc
 50
0.000002
 51
89.541644
  0
ARC
  5
20B
330
1AE
100
AcDbEntity
  8
0
  6
Continuous
 62
     0
370
     0
100
AcDbCircle
 10
228.852221
 20
-3824.293309
 30
0.0
 40
4574.417732585816
100
AcDbArc
 50
89.107549
 51
89.408287
  0
LWPOLYLINE
  5
20C
330
1AE
100
AcDbEntity
  8
0
  6
Continuous
 62
     0
370
     0
100
AcDbPolyline
 90
        5
 70
     0
 43
0.0
 10
300.10144
 20
749.569519
 10
300.103882
 20
749.952515
 10
300.104645
 20
750.278137
 10
300.103638
 20
750.496826
 10
300.100922
 20
750.575317
  0
LINE
  5
20D
330
1AE
100
AcDbEntity
  8
0
  6
Continuous
 62
     0
370
    30
100
AcDbLine
 10
300.100924
 20
750.57532
 30
0.0
 11
276.092924
 21
750.767384
 31
0.0
  0
ARC
  5
20E
330
1AE
100
AcDbEntity
  8
0
  6
Continuous
 62
     0
370
     0
100
AcDbCircle
 10
300.348333
 20
791.846526
 30
0.0
 40
42.27773052450367
100
AcDbArc
 50
269.665422
 51
271.009139
  0
LWPOLYLINE
  5
20F
330
1AE
100
AcDbEntity
  8
0
  6
Continuous
 62
     0
370
     0
100
AcDbPolyline
 90
        3
 70
     0
 43
0.0
 10
300.10144
 20
749.569519
 10
300.122803
 20
746.774536
 10
300.222534
 20
732.516357
  0
LINE
  5
210
330
1AE
100
AcDbEntity
  8
0
  6
Continuous
 62
     0
370
    30
100
AcDbLine
 10
276.092924
 20
723.317384
 30
0.0
 11
271.092924
 21
723.317384
 31
0.0
  0
LINE
  5
211
330
1AE
100
AcDbEntity
  8
0
  6
Continuous
 62
     0
370
    30
100
AcDbLine
 10
276.092924
 20
733.117384
 30
0.0
 11
271.092924
 21
733.117384
 31
0.0
  0
ARC
  5
212
330
1AE
100
AcDbEntity
  8
0
  6
Continuous
 62
     0
370
    30
100
AcDbCircle
 10
300.092808
 20
725.964761
 30
0.0
 40
1.00011752533609
100
AcDbArc
 50
270.498097
 51
359.958696
  0
LINE
  5
213
330
1AE
100
AcDbEntity
  8
0
  6
Continuous
 62
     0
370
    30
100
AcDbLine
 10
299.300897
 20
724.957931
 30
0.0
 11
300.101501
 21
724.964681
 31
0.0
  0
ARC
  5
214
330
1AE
100
AcDbEntity
  8
0
  6
Continuous
 62
     0
370
    30
100
AcDbCircle
 10
300.092808
 20
730.470008
 30
0.0
 40
1.000117525331448
100
AcDbArc
 50
0.041304
 51
89.501903
  0
LINE
  5
215
330
1AE
100
AcDbEntity
  8
0
  6
Continuous
 62
     0
370
    30
100
AcDbLine
 10
300.101501
 20
731.470087
 30
0.0
 11
299.300899
 21
731.476838
 31
0.0
  0
LWPOLYLINE
  5
216
330
1AE
100
AcDbEntity
  8
0
  6
Continuous
 62
     0
370
    30
100
AcDbPolyline
 90
        7
 70
     0
 43
0.0
 10
297.533661
 20
731.501282
 10
297.595367
 20
731.499817
 10
297.769196
 20
731.496277
 10
298.029785
 20
731.491699
 10
298.350983
 20
731.487
 10
298.71286
 20
731.482544
 10
299.156494
 20
731.478027
  0
LINE
  5
217
330
1AE
100
AcDbEntity
  8
0
  6
Continuous
 62
     0
370
    30
100
AcDbLine
 10
297.950266
 20
731.487679
 30
0.0
 11
297.533674
 21
731.501301
 31
0.0
  0
LINE
  5
218
330
1AE
100
AcDbEntity
  8
0
  6
Continuous
 62
     0
370
    30
100
AcDbLine
 10
297.533571
 20
724.933465
 30
0.0
 11
297.9502
 21
724.947089
 31
0.0
  0
LWPOLYLINE
  5
219
330
1AE
100
AcDbEntity
  8
0
  6
Continuous
 62
     0
370
    30
100
AcDbPolyline
 90
        8
 70
     0
 43
0.0
 10
299.289978
 20
724.957825
 10
298.927032
 20
724.954529
 10
298.582825
 20
724.950745
 10
298.264832
 20
724.946594
 10
297.983582
 20
724.942322
 10
297.755096
 20
724.938232
 10
297.599213
 20
724.934998
 10
297.533569
 20
724.933472
  0
LINE
  5
21A
330
1AE
100
AcDbEntity
  8
0
  6
Continuous
 62
     0
370
    30
100
AcDbLine
 10
257.691924
 20
695.717384
 30
0.0
 11
260.933924
 21
695.717384
 31
0.0
  0
ARC
  5
21B
330
1AE
100
AcDbEntity
  8
0
  6
Continuous
 62
     0
370
    30
100
AcDbCircle
 10
268.708401
 20
720.217384
 30
0.0
 40
3.000000042508508
100
AcDbArc
 50
90.0
 51
178.263297
  0
ARC
  5
21C
330
1AE
100
AcDbEntity
  8
0
  6
Continuous
 62
     0
370
    30
100
AcDbCircle
 10
268.708401
 20
736.217384
 30
0.0
 40
3.000000042539078
100
AcDbArc
 50
181.736704
 51
270.0
  0
LINE
  5
21D
330
1AE
100
AcDbEntity
  8
0
  6
Continuous
 62
     0
370
    30
100
AcDbLine
 10
271.092924
 20
723.217384
 30
0.0
 11
268.708401
 21
723.217384
 31
0.0
  0
LINE
  5
21E
330
1AE
100
AcDbEntity
  8
0
  6
Continuous
 62
     0
370
    30
100
AcDbLine
 10
271.092924
 20
733.217384
 30
0.0
 11
268.708401
 21
733.217384
 31
0.0
  0
LINE
  5
21F
330
1AE
100
AcDbEntity
  8
0
  6
Continuous
 62
     0
370
    30
100
AcDbLine
 10
263.370952
 20
695.717384
 30
0.0
 11
260.933924
 21
695.717384
 31
0.0
  0
LINE
  5
220
330
1AE
100
AcDbEntity
  8
0
  6
Continuous
 62
     0
370
    30
100
AcDbLine
 10
257.691924
 20
695.717384
 30
0.0
 11
255.812924
 21
695.717384
 31
0.0
  0
LINE
  5
221
330
1AE
100
AcDbEntity
  8
0
  6
Continuous
 62
     0
370
    30
100
AcDbLine
 10
263.370952
 20
760.717384
 30
0.0
 11
255.812924
 21
760.717384
 31
0.0
  0
LWPOLYLINE
  5
222
330
1AE
100
AcDbEntity
  8
0
  6
Continuous
 62
     0
370
    30
100
AcDbPolyline
 90
       46
 70
     0
 43
0.0
 10
263.867218
 20
760.278259
 10
263.932312
 20
759.743958
 10
263.996277
 20
759.209473
 10
264.059174
 20
758.674866
 10
264.120972
 20
758.140137
 10
264.181671
 20
757.605286
 10
264.241272
 20
757.070312
 10
264.299774
 20
756.535217
 10
264.357178
 20
755.999939
 10
264.413483
 20
755.464661
 10
264.468719
 20
754.929199
 10
264.522827
 20
754.393616
 10
264.575867
 20
753.857971
 10
264.627777
 20
753.322205
 10
264.678619
 20
752.786316
 10
264.728363
 20
752.250305
 10
264.777008
 20
751.714233
 10
264.824554
 20
751.17804
 10
264.871002
 20
750.641785
 10
264.916351
 20
750.105408
 10
264.960602
 20
749.568909
 10
265.003723
 20
749.032349
 10
265.045776
 20
748.495728
 10
265.086761
 20
747.958984
 10
265.126678
 20
747.42218
 10
265.165466
 20
746.885254
 10
265.203156
 20
746.348267
 10
265.239716
 20
745.811218
 10
265.275085
 20
745.27417
 10
265.309265
 20
744.737
 10
265.342438
 20
744.199768
 10
265.374786
 20
743.662415
 10
265.406403
 20
743.124817
 10
265.436646
 20
742.58728
 10
265.464539
 20
742.050049
 10
265.490082
 20
741.513184
 10
265.516388
 20
740.975647
 10
265.546997
 20
740.436401
 10
265.579315
 20
739.89624
 10
265.600708
 20
739.35907
 10
265.599152
 20
738.828613
 10
265.594757
 20
738.298645
 10
265.63736
 20
737.753784
 10
265.760559
 20
737.183655
 10
265.849365
 20
736.623718
 10
265.709747
 20
736.127502
  0
ARC
  5
223
330
1AE
100
AcDbEntity
  8
0
  6
Continuous
 62
     0
370
    30
100
AcDbCircle
 10
263.370873
 20
696.217474
 30
0.0
 40
0.5000896921785831
100
AcDbArc
 50
270.009087
 51
352.988868
  0
ARC
  5
224
330
1AE
100
AcDbEntity
  8
0
  6
Continuous
 62
     0
370
    30
100
AcDbCircle
 10
263.370873
 20
760.217295
 30
0.0
 40
0.5000896921876781
100
AcDbArc
 50
7.011132
 51
89.990913
  0
LINE
  5
225
330
1AE
100
AcDbEntity
  8
0
  6
Continuous
 62
     0
370
     0
100
AcDbLine
 10
263.867223
 20
796.156432
 30
0.0
 11
263.867224
 21
828.217384
 31
0.0
  0
LINE
  5
226
330
1AE
100
AcDbEntity
  8
0
  6
Continuous
 62
     0
370
     0
100
AcDbLine
 10
263.867224
 20
828.217384
 30
0.0
 11
263.867223
 21
860.278337
 31
0.0
  0
LINE
  5
227
330
1AE
100
AcDbEntity
  8
0
  6
Continuous
 62
     0
370
     0
100
AcDbLine
 10
263.370952
 20
860.717384
 30
0.0
 11
263.370954
 21
828.217384
 31
0.0
  0
LINE
  5
228
330
1AE
100
AcDbEntity
  8
0
  6
Continuous
 62
     0
370
     0
100
AcDbLine
 10
263.370954
 20
828.217384
 30
0.0
 11
263.370952
 21
795.717384
 31
0.0
  0
LINE
  5
229
330
1AE
100
AcDbEntity
  8
0
  6
Continuous
 62
     0
370
     0
100
AcDbLine
 10
265.709746
 20
820.307195
 30
0.0
 11
265.709759
 21
828.217384
 31
0.0
  0
LINE
  5
22A
330
1AE
100
AcDbEntity
  8
0
  6
Continuous
 62
     0
370
     0
100
AcDbLine
 10
265.709759
 20
828.217384
 30
0.0
 11
265.709746
 21
836.127573
 31
0.0
  0
LINE
  5
22B
330
1AE
100
AcDbEntity
  8
0
  6
Continuous
 62
     0
370
    30
100
AcDbLine
 10
255.812924
 20
860.717384
 30
0.0
 11
255.812924
 21
828.217384
 31
0.0
  0
LINE
  5
22C
330
1AE
100
AcDbEntity
  8
0
  6
Continuous
 62
     0
370
    30
100
AcDbLine
 10
255.812924
 20
828.217384
 30
0.0
 11
255.812924
 21
795.717384
 31
0.0
  0
LWPOLYLINE
  5
22D
330
1AE
100
AcDbEntity
  8
0
  6
Continuous
 62
     0
370
     0
100
AcDbPolyline
 90
       12
 70
     0
 43
0.0
 10
257.691925
 20
795.717407
 10
257.757202
 20
795.720581
 10
257.949066
 20
795.729187
 10
258.250397
 20
795.740417
 10
258.638519
 20
795.750793
 10
259.080536
 20
795.757019
 10
259.541321
 20
795.757019
 10
259.983551
 20
795.750854
 10
260.37265
 20
795.74054
 10
260.674591
 20
795.729309
 10
260.86615
 20
795.720642
 10
260.933929
 20
795.717407
  0
LINE
  5
22E
330
1AE
100
AcDbEntity
  8
0
  6
Continuous
 62
     0
370
     0
100
AcDbLine
 10
268.708401
 20
833.217384
 30
0.0
 11
268.708401
 21
828.217384
 31
0.0
  0
LINE
  5
22F
330
1AE
100
AcDbEntity
  8
0
  6
Continuous
 62
     0
370
     0
100
AcDbLine
 10
268.708401
 20
828.217384
 30
0.0
 11
268.708401
 21
823.217384
 31
0.0
  0
LINE
  5
230
330
1AE
100
AcDbEntity
  8
0
  6
Continuous
 62
     0
370
    30
100
AcDbLine
 10
271.092924
 20
823.217384
 30
0.0
 11
271.092924
 21
828.217384
 31
0.0
  0
LINE
  5
231
330
1AE
100
AcDbEntity
  8
0
  6
Continuous
 62
     0
370
    30
100
AcDbLine
 10
271.092924
 20
828.217384
 30
0.0
 11
271.092924
 21
833.217384
 31
0.0
  0
LWPOLYLINE
  5
232
330
1AE
100
AcDbEntity
  8
0
  6
Continuous
 62
     0
370
     0
100
AcDbPolyline
 90
        8
 70
     0
 43
0.0
 10
300.222534
 20
823.918396
 10
300.493835
 20
824.065063
 10
300.716736
 20
824.326904
 10
300.885223
 20
824.660583
 10
301.001465
 20
825.035461
 10
301.069733
 20
825.433472
 10
301.092926
 20
825.846008
 10
301.092926
 20
825.852173
  0
LWPOLYLINE
  5
233
330
1AE
100
AcDbEntity
  8
0
  6
Continuous
 62
     0
370
     0
100
AcDbPolyline
 90
        7
 70
     0
 43
0.0
 10
301.092926
 20
825.852173
 10
301.092926
 20
825.849121
 10
301.062897
 20
825.615845
 10
300.972839
 20
825.390747
 10
300.817474
 20
825.183594
 10
300.591431
 20
825.011841
 10
300.222534
 20
824.891418
  0
LWPOLYLINE
  5
234
330
1AE
100
AcDbEntity
  8
0
  6
Continuous
 62
     0
370
     0
100
AcDbPolyline
 90
        5
 70
     0
 43
0.0
 10
300.222534
 20
824.891418
 10
300.186707
 20
824.809692
 10
300.173584
 20
824.60321
 10
300.185242
 20
824.299011
 10
300.222534
 20
823.918396
  0
LINE
  5
235
330
1AE
100
AcDbEntity
  8
0
  6
Continuous
 62
     0
370
    30
100
AcDbLine
 10
276.092924
 20
823.079515
 30
0.0
 11
276.092924
 21
822.199526
 31
0.0
  0
LWPOLYLINE
  5
236
330
1AE
100
AcDbEntity
  8
0
  6
Continuous
 62
     0
370
     0
100
AcDbPolyline
 90
        6
 70
     0
 43
0.0
 10
276.092926
 20
822.199524
 10
280.750122
 20
822.364014
 10
285.401154
 20
822.595703
 10
290.042755
 20
822.904968
 10
294.670868
 20
823.304626
 10
300.222534
 20
823.918396
  0
LWPOLYLINE
  5
237
330
1AE
100
AcDbEntity
  8
0
  6
Continuous
 62
     0
370
     0
100
AcDbPolyline
 90
        6
 70
     0
 43
0.0
 10
300.222534
 20
824.891418
 10
295.646667
 20
824.35553
 10
291.0495
 20
823.91626
 10
286.437714
 20
823.567993
 10
281.815887
 20
823.303284
 10
276.092926
 20
823.079529
  0
LWPOLYLINE
  5
238
330
1AE
100
AcDbEntity
  8
0
  6
Continuous
 62
     0
370
     0
100
AcDbPolyline
 90
        2
 70
     0
 43
0.0
 10
300.200562
 20
824.970459
 10
300.222534
 20
824.891418
  0
ARC
  5
239
330
1AE
100
AcDbEntity
  8
0
  6
Continuous
 62
     0
370
     0
100
AcDbCircle
 10
274.816867
 20
3899.950483
 30
0.0
 40
3075.090028895337
100
AcDbArc
 50
270.023776
 51
270.456203
  0
LINE
  5
23A
330
1AE
100
AcDbEntity
  8
0
  6
Continuous
 62
     0
370
    30
100
AcDbLine
 10
276.092924
 20
823.079515
 30
0.0
 11
276.092925
 21
824.860719
 31
0.0
  0
LINE
  5
23B
330
1AE
100
AcDbEntity
  8
0
  6
Continuous
 62
     0
370
    30
100
AcDbLine
 10
301.092924
 20
825.852159
 30
0.0
 11
301.092924
 21
825.964644
 31
0.0
  0
LWPOLYLINE
  5
23C
330
1AE
100
AcDbEntity
  8
0
  6
Continuous
 62
     0
370
     0
100
AcDbPolyline
 90
        3
 70
     0
 43
0.0
 10
300.222534
 20
823.918396
 10
300.20871
 20
821.123535
 10
300.10144
 20
806.865234
  0
ARC
  5
23D
330
1AE
100
AcDbEntity
  8
0
  6
Continuous
 62
     0
370
     0
100
AcDbCircle
 10
300.347955
 20
764.523837
 30
0.0
 40
42.34213332650648
100
AcDbArc
 50
88.991884
 51
90.333557
  0
LINE
  5
23E
330
1AE
100
AcDbEntity
  8
0
  6
Continuous
 62
     0
370
    30
100
AcDbLine
 10
301.092924
 20
806.859416
 30
0.0
 11
301.092924
 21
825.852159
 31
0.0
  0
LINE
  5
23F
330
1AE
100
AcDbEntity
  8
0
  6
Continuous
 62
     0
370
    30
100
AcDbLine
 10
276.092924
 20
834.235242
 30
0.0
 11
276.092924
 21
833.355254
 31
0.0
  0
LWPOLYLINE
  5
240
330
1AE
100
AcDbEntity
  8
0
  6
Continuous
 62
     0
370
     0
100
AcDbPolyline
 90
        6
 70
     0
 43
0.0
 10
276.092926
 20
833.355225
 10
280.722717
 20
833.182739
 10
285.346436
 20
832.936584
 10
289.960907
 20
832.608826
 10
294.562103
 20
832.191528
 10
300.222534
 20
831.543335
  0
LWPOLYLINE
  5
241
330
1AE
100
AcDbEntity
  8
0
  6
Continuous
 62
     0
370
     0
100
AcDbPolyline
 90
        5
 70
     0
 43
0.0
 10
300.222534
 20
831.543335
 10
300.186676
 20
831.624023
 10
300.173584
 20
831.829834
 10
300.184967
 20
832.132446
 10
300.222534
 20
832.516357
  0
LWPOLYLINE
  5
242
330
1AE
100
AcDbEntity
  8
0
  6
Continuous
 62
     0
370
     0
100
AcDbPolyline
 90
        6
 70
     0
 43
0.0
 10
300.222534
 20
832.516357
 10
295.619507
 20
833.036072
 10
290.994934
 20
833.455383
 10
286.355713
 20
833.782288
 10
281.706329
 20
834.028809
 10
276.092926
 20
834.235229
  0
LWPOLYLINE
  5
243
330
1AE
100
AcDbEntity
  8
0
  6
Continuous
 62
     0
370
     0
100
AcDbPolyline
 90
        7
 70
     0
 43
0.0
 10
300.222534
 20
831.543335
 10
300.530792
 20
831.454041
 10
300.773041
 20
831.29364
 10
300.943939
 20
831.092407
 10
301.048004
 20
830.870544
 10
301.092926
 20
830.585632
 10
301.092926
 20
830.582581
  0
LWPOLYLINE
  5
244
330
1AE
100
AcDbEntity
  8
0
  6
Continuous
 62
     0
370
     0
100
AcDbPolyline
 90
        8
 70
     0
 43
0.0
 10
301.092926
 20
830.582581
 10
301.092926
 20
830.588745
 10
301.07016
 20
830.997314
 10
301.00238
 20
831.395508
 10
300.886597
 20
831.77063
 10
300.718658
 20
832.104919
 10
300.496277
 20
832.367615
 10
300.222534
 20
832.516357
  0
LWPOLYLINE
  5
245
330
1AE
100
AcDbEntity
  8
0
  6
Continuous
 62
     0
370
     0
100
AcDbPolyline
 90
        2
 70
     0
 43
0.0
 10
300.222534
 20
831.543335
 10
300.200562
 20
831.464294
  0
LINE
  5
246
330
1AE
100
AcDbEntity
  8
0
  6
Continuous
 62
     0
370
    30
100
AcDbLine
 10
301.092924
 20
830.470124
 30
0.0
 11
301.092924
 21
830.582609
 31
0.0
  0
LINE
  5
247
330
1AE
100
AcDbEntity
  8
0
  6
Continuous
 62
     0
370
    30
100
AcDbLine
 10
276.092925
 20
831.57405
 30
0.0
 11
276.092924
 21
833.355254
 31
0.0
  0
ARC
  5
248
330
1AE
100
AcDbEntity
  8
0
  6
Continuous
 62
     0
370
     0
100
AcDbCircle
 10
274.817025
 20
-2243.477955
 30
0.0
 40
3075.052269243015
100
AcDbArc
 50
89.543795
 51
89.976227
  0
LINE
  5
249
330
1AE
100
AcDbEntity
  8
0
  6
Continuous
 62
     0
370
    30
100
AcDbLine
 10
276.092924
 20
806.554282
 30
0.0
 11
276.092924
 21
805.667384
 31
0.0
  0
LINE
  5
24A
330
1AE
100
AcDbEntity
  8
0
  6
Continuous
 62
     0
370
    30
100
AcDbLine
 10
276.092924
 20
805.667384
 30
0.0
 11
300.100924
 21
805.859448
 31
0.0
  0
LWPOLYLINE
  5
24B
330
1AE
100
AcDbEntity
  8
0
  6
Continuous
 62
     0
370
     0
100
AcDbPolyline
 90
        5
 70
     0
 43
0.0
 10
300.100922
 20
805.859436
 10
300.103607
 20
805.935608
 10
300.104645
 20
806.152405
 10
300.103912
 20
806.476685
 10
300.10144
 20
806.865234
  0
ARC
  5
24C
330
1AE
100
AcDbEntity
  8
0
  6
Continuous
 62
     0
370
     0
100
AcDbCircle
 10
228.852222
 20
5380.727975
 30
0.0
 40
4574.417630475248
100
AcDbArc
 50
270.591713
 51
270.892451
  0
ARC
  5
24D
330
1AE
100
AcDbEntity
  8
0
  6
Continuous
 62
     0
370
    30
100
AcDbCircle
 10
300.092924
 20
806.859416
 30
0.0
 40
1.0
100
AcDbArc
 50
270.458356
 51
0.0
  0
LINE
  5
24E
330
1AE
100
AcDbEntity
  8
0
  6
Continuous
 62
     0
370
    30
100
AcDbLine
 10
276.092924
 20
822.199526
 30
0.0
 11
276.092924
 21
806.554282
 31
0.0
  0
LINE
  5
24F
330
1AE
100
AcDbEntity
  8
0
  6
Continuous
 62
     0
370
    30
100
AcDbLine
 10
276.092925
 20
825.854292
 30
0.0
 11
276.092925
 21
824.860719
 31
0.0
  0
LINE
  5
250
330
1AE
100
AcDbEntity
  8
0
  6
Continuous
 62
     0
370
    30
100
AcDbLine
 10
276.092925
 20
830.580476
 30
0.0
 11
276.092925
 21
825.854292
 31
0.0
  0
LINE
  5
251
330
1AE
100
AcDbEntity
  8
0
  6
Continuous
 62
     0
370
    30
100
AcDbLine
 10
276.092925
 20
831.57405
 30
0.0
 11
276.092925
 21
830.580476
 31
0.0
  0
LINE
  5
252
330
1AE
100
AcDbEntity
  8
0
  6
Continuous
 62
     0
370
    30
100
AcDbLine
 10
276.092924
 20
849.880486
 30
0.0
 11
276.092924
 21
834.235242
 31
0.0
  0
LINE
  5
253
330
1AE
100
AcDbEntity
  8
0
  6
Continuous
 62
     0
370
    30
100
AcDbLine
 10
276.092924
 20
850.767384
 30
0.0
 11
276.092924
 21
849.880486
 31
0.0
  0
LINE
  5
254
330
1AE
100
AcDbEntity
  8
0
  6
Continuous
 62
     0
370
    30
100
AcDbLine
 10
301.092924
 20
830.582609
 30
0.0
 11
301.092924
 21
849.575352
 31
0.0
  0
LINE
  5
255
330
1AE
100
AcDbEntity
  8
0
  6
Continuous
 62
     0
370
    30
100
AcDbLine
 10
301.092925
 20
825.964644
 30
0.0
 11
301.092925
 21
830.470124
 31
0.0
  0
ARC
  5
256
330
1AE
100
AcDbEntity
  8
0
  6
Continuous
 62
     0
370
     0
100
AcDbCircle
 10
273.489039
 20
-2347.547419
 30
0.0
 40
3178.128961613517
100
AcDbArc
 50
89.520231
 51
89.953057
  0
LWPOLYLINE
  5
257
330
1AE
100
AcDbEntity
  8
0
  6
Continuous
 62
     0
370
     0
100
AcDbPolyline
 90
        5
 70
     0
 43
0.0
 10
300.100922
 20
830.470154
 10
300.103607
 20
830.852539
 10
300.104645
 20
831.176697
 10
300.103912
 20
831.393555
 10
300.10144
 20
831.470093
  0
LINE
  5
258
330
1AE
100
AcDbEntity
  8
0
  6
Continuous
 62
     0
370
     0
100
AcDbLine
 10
301.092925
 20
830.470124
 30
0.0
 11
300.100925
 21
830.470124
 31
0.0
  0
LINE
  5
259
330
1AE
100
AcDbEntity
  8
0
  6
Continuous
 62
     0
370
     0
100
AcDbLine
 10
300.100925
 20
830.470124
 30
0.0
 11
300.100925
 21
825.964644
 31
0.0
  0
LINE
  5
25A
330
1AE
100
AcDbEntity
  8
0
  6
Continuous
 62
     0
370
     0
100
AcDbLine
 10
300.100925
 20
825.964644
 30
0.0
 11
301.092925
 21
825.964644
 31
0.0
  0
LWPOLYLINE
  5
25B
330
1AE
100
AcDbEntity
  8
0
  6
Continuous
 62
     0
370
     0
100
AcDbPolyline
 90
        5
 70
     0
 43
0.0
 10
300.10144
 20
824.964722
 10
300.103882
 20
825.038513
 10
300.104645
 20
825.253052
 10
300.103638
 20
825.575684
 10
300.100922
 20
825.964661
  0
ARC
  5
25C
330
1AE
100
AcDbEntity
  8
0
  6
Continuous
 62
     0
370
     0
100
AcDbCircle
 10
273.489039
 20
4003.982187
 30
0.0
 40
3178.12896158752
100
AcDbArc
 50
270.046943
 51
270.479769
  0
ARC
  5
25D
330
1AE
100
AcDbEntity
  8
0
  6
Continuous
 62
     0
370
    30
100
AcDbCircle
 10
300.092924
 20
849.575352
 30
0.0
 40
1.0
100
AcDbArc
 50
0.000002
 51
89.541644
  0
ARC
  5
25E
330
1AE
100
AcDbEntity
  8
0
  6
Continuous
 62
     0
370
     0
100
AcDbCircle
 10
228.852221
 20
-3724.293309
 30
0.0
 40
4574.417732590104
100
AcDbArc
 50
89.107549
 51
89.408287
  0
LWPOLYLINE
  5
25F
330
1AE
100
AcDbEntity
  8
0
  6
Continuous
 62
     0
370
     0
100
AcDbPolyline
 90
        5
 70
     0
 43
0.0
 10
300.10144
 20
849.569519
 10
300.103882
 20
849.952515
 10
300.104645
 20
850.278137
 10
300.103638
 20
850.496826
 10
300.100922
 20
850.575317
  0
LINE
  5
260
330
1AE
100
AcDbEntity
  8
0
  6
Continuous
 62
     0
370
    30
100
AcDbLine
 10
300.100924
 20
850.57532
 30
0.0
 11
276.092924
 21
850.767384
 31
0.0
  0
ARC
  5
261
330
1AE
100
AcDbEntity
  8
0
  6
Continuous
 62
     0
370
     0
100
AcDbCircle
 10
300.348333
 20
891.846526
 30
0.0
 40
42.27773052450621
100
AcDbArc
 50
269.665422
 51
271.009139
  0
LWPOLYLINE
  5
262
330
1AE
100
AcDbEntity
  8
0
  6
Continuous
 62
     0
370
     0
100
AcDbPolyline
 90
        3
 70
     0
 43
0.0
 10
300.10144
 20
849.569519
 10
300.122803
 20
846.774536
 10
300.222534
 20
832.516357
  0
LINE
  5
263
330
1AE
100
AcDbEntity
  8
0
  6
Continuous
 62
     0
370
    30
100
AcDbLine
 10
276.092924
 20
823.317384
 30
0.0
 11
271.092924
 21
823.317384
 31
0.0
  0
LINE
  5
264
330
1AE
100
AcDbEntity
  8
0
  6
Continuous
 62
     0
370
    30
100
AcDbLine
 10
276.092924
 20
833.117384
 30
0.0
 11
271.092924
 21
833.117384
 31
0.0
  0
ARC
  5
265
330
1AE
100
AcDbEntity
  8
0
  6
Continuous
 62
     0
370
    30
100
AcDbCircle
 10
300.092808
 20
825.964761
 30
0.0
 40
1.000117525334824
100
AcDbArc
 50
270.498097
 51
359.958696
  0
LINE
  5
266
330
1AE
100
AcDbEntity
  8
0
  6
Continuous
 62
     0
370
    30
100
AcDbLine
 10
299.300897
 20
824.957931
 30
0.0
 11
300.101501
 21
824.964681
 31
0.0
  0
ARC
  5
267
330
1AE
100
AcDbEntity
  8
0
  6
Continuous
 62
     0
370
    30
100
AcDbCircle
 10
300.092808
 20
830.470008
 30
0.0
 40
1.000117525329778
100
AcDbArc
 50
0.041304
 51
89.501903
  0
LINE
  5
268
330
1AE
100
AcDbEntity
  8
0
  6
Continuous
 62
     0
370
    30
100
AcDbLine
 10
300.101501
 20
831.470087
 30
0.0
 11
299.300899
 21
831.476838
 31
0.0
  0
LWPOLYLINE
  5
269
330
1AE
100
AcDbEntity
  8
0
  6
Continuous
 62
     0
370
    30
100
AcDbPolyline
 90
        7
 70
     0
 43
0.0
 10
297.533661
 20
831.501282
 10
297.595367
 20
831.499817
 10
297.769196
 20
831.496277
 10
298.029785
 20
831.491699
 10
298.350983
 20
831.487
 10
298.71286
 20
831.482544
 10
299.156494
 20
831.478027
  0
LINE
  5
26A
330
1AE
100
AcDbEntity
  8
0
  6
Continuous
 62
     0
370
    30
100
AcDbLine
 10
297.950266
 20
831.487679
 30
0.0
 11
297.533674
 21
831.501301
 31
0.0
  0
LWPOLYLINE
  5
26B
330
1AE
100
AcDbEntity
  8
0
  6
Continuous
 62
     0
370
    30
100
AcDbPolyline
 90
        4
 70
     0
 43
0.0
 10
297.533569
 20
824.933472
 10
297.58017
 20
824.934753
 10
297.705292
 20
824.93866
 10
297.950195
 20
824.947083
  0
LWPOLYLINE
  5
26C
330
1AE
100
AcDbEntity
  8
0
  6
Continuous
 62
     0
370
    30
100
AcDbPolyline
 90
        8
 70
     0
 43
0.0
 10
299.289978
 20
824.957825
 10
298.927032
 20
824.954529
 10
298.582825
 20
824.950745
 10
298.264832
 20
824.946594
 10
297.983582
 20
824.942322
 10
297.755096
 20
824.938232
 10
297.599213
 20
824.934998
 10
297.533569
 20
824.933472
  0
LINE
  5
26D
330
1AE
100
AcDbEntity
  8
0
  6
Continuous
 62
     0
370
    30
100
AcDbLine
 10
257.691924
 20
795.717384
 30
0.0
 11
260.933924
 21
795.717384
 31
0.0
  0
ARC
  5
26E
330
1AE
100
AcDbEntity
  8
0
  6
Continuous
 62
     0
370
    30
100
AcDbCircle
 10
268.708401
 20
820.217384
 30
0.0
 40
3.000000042508756
100
AcDbArc
 50
90.0
 51
178.263297
  0
ARC
  5
26F
330
1AE
100
AcDbEntity
  8
0
  6
Continuous
 62
     0
370
    30
100
AcDbCircle
 10
268.708401
 20
836.217384
 30
0.0
 40
3.000000042537957
100
AcDbArc
 50
181.736704
 51
270.0
  0
LINE
  5
270
330
1AE
100
AcDbEntity
  8
0
  6
Continuous
 62
     0
370
    30
100
AcDbLine
 10
271.092924
 20
823.217384
 30
0.0
 11
268.708401
 21
823.217384
 31
0.0
  0
LINE
  5
271
330
1AE
100
AcDbEntity
  8
0
  6
Continuous
 62
     0
370
    30
100
AcDbLine
 10
271.092924
 20
833.217384
 30
0.0
 11
268.708401
 21
833.217384
 31
0.0
  0
LINE
  5
272
330
1AE
100
AcDbEntity
  8
0
  6
Continuous
 62
     0
370
    30
100
AcDbLine
 10
263.370952
 20
795.717384
 30
0.0
 11
260.933924
 21
795.717384
 31
0.0
  0
LINE
  5
273
330
1AE
100
AcDbEntity
  8
0
  6
Continuous
 62
     0
370
    30
100
AcDbLine
 10
257.691924
 20
795.717384
 30
0.0
 11
255.812924
 21
795.717384
 31
0.0
  0
LINE
  5
274
330
1AE
100
AcDbEntity
  8
0
  6
Continuous
 62
     0
370
    30
100
AcDbLine
 10
263.370952
 20
860.717384
 30
0.0
 11
255.812924
 21
860.717384
 31
0.0
  0
LWPOLYLINE
  5
275
330
1AE
100
AcDbEntity
  8
0
  6
Continuous
 62
     0
370
    30
100
AcDbPolyline
 90
       46
 70
     0
 43
0.0
 10
263.867218
 20
860.278259
 10
263.932312
 20
859.743958
 10
263.996277
 20
859.209473
 10
264.059174
 20
858.674866
 10
264.120972
 20
858.140137
 10
264.181671
 20
857.605286
 10
264.241272
 20
857.070312
 10
264.299774
 20
856.535217
 10
264.357178
 20
855.999939
 10
264.413483
 20
855.464661
 10
264.468719
 20
854.929199
 10
264.522827
 20
854.393616
 10
264.575867
 20
853.857971
 10
264.627777
 20
853.322205
 10
264.678619
 20
852.786316
 10
264.728363
 20
852.250305
 10
264.777008
 20
851.714233
 10
264.824554
 20
851.17804
 10
264.871002
 20
850.641785
 10
264.916351
 20
850.105408
 10
264.960602
 20
849.568909
 10
265.003723
 20
849.032349
 10
265.045776
 20
848.495728
 10
265.086761
 20
847.958984
 10
265.126678
 20
847.42218
 10
265.165466
 20
846.885254
 10
265.203156
 20
846.348267
 10
265.239716
 20
845.811218
 10
265.275085
 20
845.27417
 10
265.309265
 20
844.737
 10
265.342438
 20
844.199768
 10
265.374786
 20
843.662415
 10
265.406403
 20
843.124817
 10
265.436646
 20
842.58728
 10
265.464539
 20
842.050049
 10
265.490082
 20
841.513184
 10
265.516388
 20
840.975647
 10
265.546997
 20
840.436401
 10
265.579315
 20
839.89624
 10
265.600708
 20
839.35907
 10
265.599152
 20
838.828613
 10
265.594757
 20
838.298645
 10
265.63736
 20
837.753784
 10
265.760559
 20
837.183655
 10
265.849365
 20
836.623718
 10
265.709747
 20
836.127502
  0
ARC
  5
276
330
1AE
100
AcDbEntity
  8
0
  6
Continuous
 62
     0
370
    30
100
AcDbCircle
 10
263.370873
 20
796.217474
 30
0.0
 40
0.500089692179958
100
AcDbArc
 50
270.009087
 51
352.988868
  0
ARC
  5
277
330
1AE
100
AcDbEntity
  8
0
  6
Continuous
 62
     0
370
    30
100
AcDbCircle
 10
263.370873
 20
860.217295
 30
0.0
 40
0.50008969214446
100
AcDbArc
 50
7.011132
 51
89.990913
  0
ENDBLK
  5
279
330
1AE
100
AcDbEntity
  8
0
100
AcDbBlockEnd
  0
BLOCK
  5
37C
330
27B
100
AcDbEntity
  8
0
100
AcDbBlockBegin
  2
d
 70
     0
 10
51.67609
 20
123.944485
 30
0.0
  3
d
  1

  0
ELLIPSE
  5
27C
330
27B
100
AcDbEntity
  8
0
  6
Continuous
 62
     0
370
    30
100
AcDbEllipse
 10
282.914199
 20
209.316258
 30
0.0
 11
11.30685426018487
 21
-16.09092977788082
 31
0.0
210
0.0
220
0.0
230
1.0
 40
0.503122
 41
6.2806110886569
 42
8.470942952160758
  0
ELLIPSE
  5
27D
330
27B
100
AcDbEntity
  8
0
  6
Continuous
 62
     0
370
    30
100
AcDbEllipse
 10
282.914199
 20
209.316258
 30
0.0
 11
11.30685426018487
 21
-16.09092977788082
 31
0.0
210
0.0
220
0.0
230
1.0
 40
0.503122
 41
2.187757644981174
 42
3.144166992626626
  0
ELLIPSE
  5
27E
330
27B
100
AcDbEntity
  8
0
  6
Continuous
 62
     0
370
    30
100
AcDbEllipse
 10
290.212711
 20
214.444813
 30
0.0
 11
34.49581048394693
 21
-49.0914317418068
 31
0.0
210
0.0
220
0.0
230
1.0
 40
0.503122
 41
6.280611088656961
 42
8.470942952160822
  0
ELLIPSE
  5
27F
330
27B
100
AcDbEntity
  8
0
  6
Continuous
 62
     0
370
    30
100
AcDbEllipse
 10
290.212711
 20
214.444813
 30
0.0
 11
34.49581048394693
 21
-49.0914317418068
 31
0.0
210
0.0
220
0.0
230
1.0
 40
0.503122
 41
2.187757644981236
 42
3.14416699262669
  0
ELLIPSE
  5
280
330
27B
100
AcDbEntity
  8
0
  6
Continuous
 62
     0
370
     0
100
AcDbEllipse
 10
283.143345
 20
209.477275
 30
0.0
 11
34.18292284375929
 21
-48.64615731526493
 31
0.0
210
0.0
220
0.0
230
0.9999999999999998
 40
0.503122
 41
5.046964922065226
 42
5.329350298571
  0
ELLIPSE
  5
281
330
27B
100
AcDbEntity
  8
0
  6
Continuous
 62
     0
370
     0
100
AcDbEllipse
 10
283.143345
 20
209.477275
 30
0.0
 11
34.18292284375929
 21
-48.64615731526493
 31
0.0
210
0.0
220
0.0
230
0.9999999999999998
 40
0.503122
 41
2.187757644981207
 42
4.3778131592184
  0
ELLIPSE
  5
282
330
27B
100
AcDbEntity
  8
0
  6
Continuous
 62
     0
370
     0
100
AcDbEllipse
 10
283.143345
 20
209.477275
 30
0.0
 11
34.18292284375929
 21
-48.64615731526493
 31
0.0
210
0.0
220
0.0
230
0.9999999999999998
 40
0.503122
 41
5.329350298571
 42
8.470942952160794
  0
ELLIPSE
  5
283
330
27B
100
AcDbEntity
  8
0
  6
Continuous
 62
     0
370
     0
100
AcDbEllipse
 10
283.495328
 20
209.724609
 30
0.0
 11
34.47165905876819
 21
-49.05706153788567
 31
0.0
210
0.0
220
0.0
230
0.9999999999999999
 40
0.503122
 41
6.268169346850645
 42
8.470942952160804
  0
ELLIPSE
  5
284
330
27B
100
AcDbEntity
  8
0
  6
Continuous
 62
     0
370
     0
100
AcDbEllipse
 10
283.495328
 20
209.724609
 30
0.0
 11
34.47165905876819
 21
-49.05706153788567
 31
0.0
210
0.0
220
0.0
230
0.9999999999999999
 40
0.503122
 41
2.187757644981218
 42
3.155053554912752
  0
ELLIPSE
  5
285
330
27B
100
AcDbEntity
  8
0
  6
Continuous
 62
     0
370
     0
100
AcDbEllipse
 10
256.293729
 20
190.610454
 30
0.0
 11
10.92367331991517
 21
-15.54562005156895
 31
0.0
210
0.0
220
0.0
230
1.0
 40
0.503122
 41
2.187757644981216
 42
5.32935029857101
  0
ELLIPSE
  5
286
330
27B
100
AcDbEntity
  8
0
  6
Continuous
 62
     0
370
     0
100
AcDbEllipse
 10
256.293729
 20
190.610454
 30
0.0
 11
10.92367331991517
 21
-15.54562005156895
 31
0.0
210
0.0
220
0.0
230
1.0
 40
0.503122
 41
5.32935029857101
 42
8.470942952160803
  0
LWPOLYLINE
  5
287
330
27B
100
AcDbEntity
  8
0
  6
Continuous
 62
     0
370
    30
100
AcDbPolyline
 90
       13
 70
     0
 43
0.0
 10
261.243469
 20
207.898773
 10
261.850159
 20
207.535736
 10
262.541321
 20
207.243118
 10
263.289673
 20
207.035416
 10
264.066864
 20
206.925186
 10
264.844208
 20
206.922516
 10
265.593079
 20
207.034073
 10
266.285126
 20
207.261826
 10
266.893036
 20
207.601181
 10
267.392395
 20
208.040253
 10
267.763519
 20
208.560028
 10
267.992645
 20
209.136215
 10
268.071808
 20
209.75383
  0
ELLIPSE
  5
288
330
27B
100
AcDbEntity
  8
0
  6
Continuous
 62
     0
370
     0
100
AcDbEllipse
 10
256.645712
 20
190.857788
 30
0.0
 11
11.21240953492196
 21
-15.95652427418673
 31
0.0
210
0.0
220
0.0
230
0.9999999999999999
 40
0.503122
 41
6.274129449750338
 42
8.47094295216084
  0
ELLIPSE
  5
289
330
27B
100
AcDbEntity
  8
0
  6
Continuous
 62
     0
370
     0
100
AcDbEllipse
 10
256.645712
 20
190.857788
 30
0.0
 11
11.21240953492196
 21
-15.95652427418673
 31
0.0
210
0.0
220
0.0
230
0.9999999999999999
 40
0.503122
 41
2.187757644981254
 42
3.148539264948434
  0
ARC
  5
28A
330
27B
100
AcDbEntity
  8
0
  6
Continuous
 62
     0
370
    30
100
AcDbCircle
 10
263.219296
 20
210.751523
 30
0.0
 40
3.470164265497446
100
AcDbArc
 50
219.512873
 51
235.293452
  0
LWPOLYLINE
  5
28B
330
27B
100
AcDbEntity
  8
0
  6
Continuous
 62
     0
370
    30
100
AcDbPolyline
 90
        4
 70
     0
 43
0.0
 10
260.071991
 20
209.754028
 10
260.113556
 20
209.388214
 10
260.237762
 20
209.026917
 10
260.542114
 20
208.543625
  0
ELLIPSE
  5
28C
330
27B
100
AcDbEntity
  8
0
  6
Continuous
 62
     0
370
     0
100
AcDbEllipse
 10
264.071904
 20
214.848784
 30
0.0
 11
4.0
 21
0.0
 31
0.0
210
0.0
220
0.0
230
-1.0
 40
0.707107
 41
2.651828698699818
 42
3.158681405645726
  0
ELLIPSE
  5
28D
330
27B
100
AcDbEntity
  8
0
  6
Continuous
 62
     0
370
     0
100
AcDbEllipse
 10
264.071904
 20
214.848784
 30
0.0
 11
4.0
 21
0.0
 31
0.0
210
0.0
220
0.0
230
-1.0
 40
0.707107
 41
6.260148506565435
 42
8.935014005879404
  0
ELLIPSE
  5
28E
330
27B
100
AcDbEntity
  8
0
  6
Continuous
 62
     0
370
     0
100
AcDbEllipse
 10
264.071904
 20
215.202337
 30
0.0
 11
3.5
 21
0.0
 31
0.0
210
0.0
220
0.0
230
-1.0
 40
0.707107
 41
5.793421352289611
 42
8.935014005879403
  0
ELLIPSE
  5
28F
330
27B
100
AcDbEntity
  8
0
  6
Continuous
 62
     0
370
     0
100
AcDbEllipse
 10
264.071904
 20
215.202337
 30
0.0
 11
3.5
 21
0.0
 31
0.0
210
0.0
220
0.0
230
-1.0
 40
0.707107
 41
2.651828698699818
 42
5.793421352289611
  0
LWPOLYLINE
  5
290
330
27B
100
AcDbEntity
  8
0
  6
Continuous
 62
     0
370
    30
100
AcDbPolyline
 90
       18
 70
     0
 43
0.0
 10
260.07196
 20
214.848663
 10
260.14386
 20
215.415115
 10
260.355743
 20
215.956223
 10
260.693512
 20
216.449814
 10
261.142273
 20
216.882294
 10
261.685455
 20
217.24231
 10
262.304688
 20
217.521011
 10
262.980225
 20
217.711945
 10
263.690582
 20
217.810089
 10
264.413177
 20
217.812836
 10
265.124878
 20
217.720032
 10
265.802826
 20
217.534119
 10
266.425659
 20
217.259857
 10
266.973572
 20
216.9039
 10
267.428467
 20
216.475586
 10
267.772766
 20
215.985001
 10
267.991516
 20
215.446304
 10
268.071747
 20
214.850204
  0
LINE
  5
291
330
27B
100
AcDbEntity
  8
0
  6
Continuous
 62
     0
370
    30
100
AcDbLine
 10
260.071904
 20
214.848784
 30
0.0
 11
260.071904
 21
209.753215
 31
0.0
  0
LINE
  5
292
330
27B
100
AcDbEntity
  8
0
  6
Continuous
 62
     0
370
    30
100
AcDbLine
 10
268.071904
 20
214.848784
 30
0.0
 11
268.071904
 21
209.753428
 31
0.0
  0
LWPOLYLINE
  5
293
330
27B
100
AcDbEntity
  8
0
  6
Continuous
 62
     0
370
    30
100
AcDbPolyline
 90
       26
 70
     0
 43
0.0
 10
248.738449
 20
209.162216
 10
247.574112
 20
211.723923
 10
246.496613
 20
214.280609
 10
245.508545
 20
216.826126
 10
244.612305
 20
219.354355
 10
243.810226
 20
221.859146
 10
243.104233
 20
224.334549
 10
242.495911
 20
226.774643
 10
241.986786
 20
229.17363
 10
241.578339
 20
231.525711
 10
241.271591
 20
233.825302
 10
241.067184
 20
236.067062
 10
240.965714
 20
238.245697
 10
240.967758
 20
240.356003
 10
241.073532
 20
242.393036
 10
241.282959
 20
244.352127
 10
241.595673
 20
246.228745
 10
242.01123
 20
248.018372
 10
242.529114
 20
249.716507
 10
243.148514
 20
251.318863
 10
243.86824
 20
252.821457
 10
244.686996
 20
254.220337
 10
245.603271
 20
255.511719
 10
246.614838
 20
256.691772
 10
247.718918
 20
257.756592
 10
248.957428
 20
258.73468
  0
LWPOLYLINE
  5
294
330
27B
100
AcDbEntity
  8
0
  6
Continuous
 62
     0
370
    30
100
AcDbPolyline
 90
       26
 70
     0
 43
0.0
 10
317.904724
 20
160.6241
 10
316.613861
 20
159.817413
 10
315.240997
 20
159.13446
 10
313.790833
 20
158.577408
 10
312.268036
 20
158.147797
 10
310.676971
 20
157.846527
 10
309.021698
 20
157.673462
 10
307.306396
 20
157.62851
 10
305.535217
 20
157.71167
 10
303.712463
 20
157.922318
 10
301.842499
 20
158.259262
 10
299.929749
 20
158.721344
 10
297.978577
 20
159.307358
 10
295.9935
 20
160.015915
 10
293.979065
 20
160.845001
 10
291.939972
 20
161.792542
 10
289.88089
 20
162.856323
 10
287.806671
 20
164.033585
 10
285.72229
 20
165.32132
 10
283.63269
 20
166.716537
 10
281.542755
 20
168.216095
 10
279.45752
 20
169.816116
 10
277.381958
 20
171.512543
 10
275.321075
 20
173.301361
 10
273.279846
 20
175.178467
 10
271.187286
 20
177.215179
  0
LWPOLYLINE
  5
295
330
27B
100
AcDbEntity
  8
0
  6
Continuous
 62
     0
370
    30
100
AcDbPolyline
 90
       37
 70
     0
 43
0.0
 10
267.83786
 20
174.887131
 10
267.046967
 20
174.432358
 10
266.176117
 20
174.109909
 10
265.237427
 20
173.922531
 10
264.239838
 20
173.869186
 10
263.191193
 20
173.947662
 10
262.099152
 20
174.155457
 10
260.971039
 20
174.489395
 10
259.814056
 20
174.94603
 10
258.63559
 20
175.521515
 10
257.443451
 20
176.211349
 10
256.245911
 20
177.010239
 10
255.051498
 20
177.911957
 10
253.868698
 20
178.910034
 10
252.706024
 20
179.99704
 10
251.572037
 20
181.164612
 10
250.475204
 20
182.404282
 10
249.423615
 20
183.706665
 10
248.425079
 20
185.061859
 10
247.487259
 20
186.459869
 10
246.617035
 20
187.890121
 10
245.820969
 20
189.341858
 10
245.105286
 20
190.804276
 10
244.475006
 20
192.266617
 10
243.934921
 20
193.718094
 10
243.489456
 20
195.147995
 10
243.141876
 20
196.546036
 10
242.895126
 20
197.902039
 10
242.751221
 20
199.206757
 10
242.711578
 20
200.451477
 10
242.777618
 20
201.627563
 10
242.950211
 20
202.726898
 10
243.229797
 20
203.741714
 10
243.616165
 20
204.664032
 10
244.108505
 20
205.485596
 10
244.704971
 20
206.197754
 10
245.412247
 20
206.799408
  0
LINE
  5
296
330
27B
100
AcDbEntity
  8
0
  6
Continuous
 62
     0
370
    30
100
AcDbLine
 10
294.200176
 20
193.210738
 30
0.0
 11
267.837419
 21
174.886794
 31
0.0
  0
LINE
  5
297
330
27B
100
AcDbEntity
  8
0
  6
Continuous
 62
     0
370
    30
100
AcDbLine
 10
271.586541
 20
225.39249
 30
0.0
 11
245.412673
 21
206.799737
 31
0.0
  0
LINE
  5
298
330
27B
100
AcDbEntity
  8
0
  6
Continuous
 62
     0
370
    30
100
AcDbLine
 10
324.644827
 20
165.308867
 30
0.0
 11
317.904761
 21
160.624053
 31
0.0
  0
LINE
  5
299
330
27B
100
AcDbEntity
  8
0
  6
Continuous
 62
     0
370
    30
100
AcDbLine
 10
255.653432
 20
263.491403
 30
0.0
 11
248.960244
 21
258.73686
 31
0.0
  0
LWPOLYLINE
  5
29A
330
27B
100
AcDbEntity
  8
0
  6
Continuous
 62
     0
370
     0
100
AcDbPolyline
 90
        7
 70
     0
 43
0.0
 10
263.919189
 20
321.579742
 10
263.265961
 20
323.616119
 10
262.740479
 20
325.580322
 10
262.340668
 20
327.459534
 10
262.062469
 20
329.243164
 10
261.900208
 20
330.923157
 10
261.846954
 20
332.51416
  0
LWPOLYLINE
  5
29B
330
27B
100
AcDbEntity
  8
0
  6
Continuous
 62
     0
370
     0
100
AcDbPolyline
 90
       24
 70
     0
 43
0.0
 10
307.187988
 20
300.453186
 10
307.14743
 20
299.126373
 10
307.022095
 20
297.833069
 10
306.807037
 20
296.584045
 10
306.497986
 20
295.390472
 10
306.091614
 20
294.263641
 10
305.585754
 20
293.214783
 10
304.979401
 20
292.25473
 10
304.27301
 20
291.393677
 10
303.468414
 20
290.64093
 10
302.568939
 20
290.004547
 10
301.579376
 20
289.49115
 10
300.50589
 20
289.105743
 10
299.355896
 20
288.851501
 10
298.137939
 20
288.729767
 10
296.86145
 20
288.73996
 10
295.536438
 20
288.879608
 10
294.173401
 20
289.144562
 10
292.782898
 20
289.529053
 10
291.375397
 20
290.026031
 10
289.96106
 20
290.627228
 10
288.549469
 20
291.323547
 10
287.149536
 20
292.105316
 10
285.739624
 20
292.981934
  0
LWPOLYLINE
  5
29C
330
27B
100
AcDbEntity
  8
0
  6
Continuous
 62
     0
370
     0
100
AcDbPolyline
 90
       48
 70
     0
 43
0.0
 10
261.846954
 20
332.51416
 10
261.889008
 20
333.864532
 10
262.018951
 20
335.179993
 10
262.242126
 20
336.449158
 10
262.562866
 20
337.660217
 10
262.98468
 20
338.8013
 10
263.509705
 20
339.860535
 10
264.138885
 20
340.826569
 10
264.871582
 20
341.688751
 10
265.705627
 20
342.437408
 10
266.637299
 20
343.064301
 10
267.661285
 20
343.562653
 10
268.770813
 20
343.927612
 10
269.957764
 20
344.156158
 10
271.212952
 20
344.247375
 10
272.526245
 20
344.202362
 10
273.886902
 20
344.0242
 10
275.283813
 20
343.717743
 10
276.705872
 20
343.28949
 10
278.14209
 20
342.747375
 10
279.58194
 20
342.100372
 10
281.015503
 20
341.358337
 10
282.433716
 20
340.531647
 10
283.8284
 20
339.630951
 10
285.200836
 20
338.660675
 10
286.595398
 20
337.589417
 10
288.01355
 20
336.410889
 10
289.447083
 20
335.125977
 10
290.886902
 20
333.737152
 10
292.323151
 20
332.248566
 10
293.7453
 20
330.666077
 10
295.142365
 20
328.997314
 10
296.503174
 20
327.251556
 10
297.816681
 20
325.439514
 10
299.072144
 20
323.573395
 10
300.259399
 20
321.666382
 10
301.369263
 20
319.732422
 10
302.393585
 20
317.78595
 10
303.325653
 20
315.841461
 10
304.160126
 20
313.913147
 10
304.89325
 20
312.014648
 10
305.522827
 20
310.15863
 10
306.048309
 20
308.356598
 10
306.47052
 20
306.618744
 10
306.791687
 20
304.953735
 10
307.015228
 20
303.368652
 10
307.145569
 20
301.869019
 10
307.187988
 20
300.453186
  0
LWPOLYLINE
  5
29D
330
27B
100
AcDbEntity
  8
0
  6
Continuous
 62
     0
370
     0
100
AcDbPolyline
 90
       39
 70
     0
 43
0.0
 10
307.849335
 20
300.481812
 10
307.807495
 20
301.897888
 10
307.678101
 20
303.403076
 10
307.456024
 20
304.993439
 10
307.136871
 20
306.663574
 10
306.717194
 20
308.406586
 10
306.194763
 20
310.213928
 10
305.568634
 20
312.075684
 10
304.839355
 20
313.98053
 10
304.008942
 20
315.916046
 10
303.080933
 20
317.868866
 10
302.060486
 20
319.824951
 10
300.954132
 20
321.77005
 10
299.769745
 20
323.689911
 10
298.516327
 20
325.570679
 10
297.203735
 20
327.39917
 10
295.84256
 20
329.1633
 10
294.443665
 20
330.852203
 10
293.018066
 20
332.456482
 10
291.576691
 20
333.968414
 10
290.129944
 20
335.381866
 10
288.687775
 20
336.692474
 10
287.259247
 20
337.897461
 10
285.852661
 20
338.995697
 10
284.472473
 20
339.989319
 10
283.077423
 20
340.909271
 10
281.657257
 20
341.757935
 10
280.219818
 20
342.52475
 10
278.773834
 20
343.199402
 10
277.328949
 20
343.772034
 10
275.895325
 20
344.23349
 10
274.483765
 20
344.575684
 10
273.105255
 20
344.791779
 10
271.770721
 20
344.876495
 10
270.490936
 20
344.826233
 10
269.276093
 20
344.639343
 10
268.13562
 20
344.316101
 10
267.07785
 20
343.858856
 10
266.104492
 20
343.267944
  0
LWPOLYLINE
  5
29E
330
27B
100
AcDbEntity
  8
0
  6
Continuous
 62
     0
370
     0
100
AcDbPolyline
 90
       11
 70
     0
 43
0.0
 10
303.632263
 20
290.195679
 10
304.449432
 20
290.856476
 10
305.179718
 20
291.618988
 10
305.820831
 20
292.475861
 10
306.371613
 20
293.418976
 10
306.832092
 20
294.439453
 10
307.203339
 20
295.528046
 10
307.487396
 20
296.67514
 10
307.687195
 20
297.871185
 10
307.806335
 20
299.10675
 10
307.849335
 20
300.481812
  0
LWPOLYLINE
  5
29F
330
27B
100
AcDbEntity
  8
0
  6
Continuous
 62
     0
370
     0
100
AcDbPolyline
 90
       12
 70
     0
 43
0.0
 10
288.807648
 20
311.607513
 10
288.756439
 20
310.883209
 10
288.598541
 20
310.244965
 10
288.342834
 20
309.706543
 10
287.994873
 20
309.275848
 10
287.55545
 20
308.964142
 10
287.03299
 20
308.777557
 10
286.442291
 20
308.713165
 10
285.792358
 20
308.77533
 10
285.093506
 20
308.965515
 10
284.359924
 20
309.278351
 10
283.599152
 20
309.710602
  0
LWPOLYLINE
  5
2A0
330
27B
100
AcDbEntity
  8
0
  6
Continuous
 62
     0
370
     0
100
AcDbPolyline
 90
       20
 70
     0
 43
0.0
 10
278.470367
 20
321.882324
 10
278.915588
 20
322.18158
 10
279.441742
 20
322.356995
 10
280.034729
 20
322.411407
 10
280.685852
 20
322.340027
 10
281.384399
 20
322.141937
 10
282.116425
 20
321.822723
 10
282.868439
 20
321.389618
 10
283.62677
 20
320.848846
 10
284.377563
 20
320.21048
 10
285.107239
 20
319.487518
 10
285.802246
 20
318.691925
 10
286.448547
 20
317.838074
 10
287.036072
 20
316.942078
 10
287.555939
 20
316.020935
 10
287.993469
 20
315.092041
 10
288.340393
 20
314.173126
 10
288.595917
 20
313.276855
 10
288.754608
 20
312.41861
 10
288.807648
 20
311.607513
  0
ELLIPSE
  5
2A1
330
27B
100
AcDbEntity
  8
0
  6
Continuous
 62
     0
370
    30
100
AcDbEllipse
 10
290.212711
 20
320.510826
 30
0.0
 11
18.76388416884513
 21
-26.53613858303735
 31
0.0
210
0.0
220
0.0
230
1.0
 40
0.5
 41
0.6154796770017041
 42
3.141592713657523
  0
ELLIPSE
  5
2A2
330
27B
100
AcDbEntity
  8
0
  6
Continuous
 62
     0
370
    30
100
AcDbEllipse
 10
290.212711
 20
320.510826
 30
0.0
 11
18.76388416884513
 21
-26.53613858303735
 31
0.0
210
0.0
220
0.0
230
1.0
 40
0.5
 41
0.0000000600677312
 42
0.6154796770017041
  0
ELLIPSE
  5
2A3
330
27B
100
AcDbEntity
  8
0
  6
Continuous
 62
     0
370
     0
100
AcDbEllipse
 10
281.094232
 20
314.063088
 30
0.0
 11
2.886751410591557
 21
-4.082482858928822
 31
0.0
210
0.0
220
0.0
230
0.9999999999999998
 40
0.5
 41
0.6154796770017059
 42
2.877896215889717
  0
ELLIPSE
  5
2A4
330
27B
100
AcDbEntity
  8
0
  6
Continuous
 62
     0
370
     0
100
AcDbEllipse
 10
281.094232
 20
314.063088
 30
0.0
 11
2.886751410591557
 21
-4.082482858928822
 31
0.0
210
0.0
220
0.0
230
0.9999999999999998
 40
0.5
 41
0.0000000600677357
 42
0.6154796770017059
  0
ELLIPSE
  5
2A5
330
27B
100
AcDbEntity
  8
0
  6
Continuous
 62
     0
370
    30
100
AcDbEllipse
 10
279.40812
 20
312.870826
 30
0.0
 11
-2.886751410591557
 21
4.082482858928822
 31
0.0
210
0.0
220
0.0
230
-0.9999999999999998
 40
0.5
 41
2.526112976588089
 42
3.00895430284299
  0
ELLIPSE
  5
2A6
330
27B
100
AcDbEntity
  8
0
  6
Continuous
 62
     0
370
    30
100
AcDbEllipse
 10
279.40812
 20
312.870826
 30
0.0
 11
-2.886751410591557
 21
4.082482858928822
 31
0.0
210
0.0
220
0.0
230
-0.9999999999999998
 40
0.5
 41
0.8455245281646496
 42
2.526112976588089
  0
ELLIPSE
  5
2A7
330
27B
100
AcDbEntity
  8
0
  6
Continuous
 62
     0
370
    30
100
AcDbEllipse
 10
279.40812
 20
312.870826
 30
0.0
 11
2.829016382379725
 21
-4.000833201750248
 31
0.0
210
0.0
220
0.0
230
0.9999999999999998
 40
0.5
 41
0.6154796844853836
 42
2.295995281757009
  0
ELLIPSE
  5
2A8
330
27B
100
AcDbEntity
  8
0
  6
Continuous
 62
     0
370
    30
100
AcDbEllipse
 10
279.40812
 20
312.870826
 30
0.0
 11
2.829016382379725
 21
-4.000833201750248
 31
0.0
210
0.0
220
0.0
230
0.9999999999999998
 40
0.5
 41
0.1247227698238618
 42
0.6154796844853712
  0
LWPOLYLINE
  5
2A9
330
27B
100
AcDbEntity
  8
0
  6
Continuous
 62
     0
370
     0
100
AcDbPolyline
 90
        7
 70
     0
 43
0.0
 10
261.16217
 20
299.682892
 10
260.88623
 20
299.450897
 10
260.606384
 20
299.186951
 10
260.347107
 20
298.920624
 10
260.118591
 20
298.667236
 10
259.869537
 20
298.363495
 10
259.867371
 20
298.360687
  0
LWPOLYLINE
  5
2AA
330
27B
100
AcDbEntity
  8
0
  6
Continuous
 62
     0
370
     0
100
AcDbPolyline
 90
        7
 70
     0
 43
0.0
 10
259.867371
 20
298.360687
 10
259.871735
 20
298.359772
 10
260.236938
 20
298.303711
 10
260.634491
 20
298.28244
 10
261.052795
 20
298.302063
 10
261.468109
 20
298.371613
 10
261.85022
 20
298.508331
  0
LWPOLYLINE
  5
2AB
330
27B
100
AcDbEntity
  8
0
  6
Continuous
 62
     0
370
     0
100
AcDbPolyline
 90
        5
 70
     0
 43
0.0
 10
261.85022
 20
298.508331
 10
261.630188
 20
298.751678
 10
261.427948
 20
299.043671
 10
261.26947
 20
299.347076
 10
261.16217
 20
299.682892
  0
LWPOLYLINE
  5
2AC
330
27B
100
AcDbEntity
  8
0
  6
Continuous
 62
     0
370
    30
100
AcDbPolyline
 90
        5
 70
     0
 43
0.0
 10
280.127869
 20
310.994934
 10
279.924957
 20
311.193085
 10
279.746124
 20
311.431793
 10
279.609009
 20
311.688568
 10
279.505615
 20
312.057159
  0
LWPOLYLINE
  5
2AD
330
27B
100
AcDbEntity
  8
0
  6
Continuous
 62
     0
370
     0
100
AcDbPolyline
 90
        5
 70
     0
 43
0.0
 10
279.505615
 20
312.057159
 10
275.486237
 20
309.285187
 10
271.399231
 20
306.503265
 10
267.239075
 20
303.707428
 10
261.16217
 20
299.682892
  0
LWPOLYLINE
  5
2AE
330
27B
100
AcDbEntity
  8
0
  6
Continuous
 62
     0
370
     0
100
AcDbPolyline
 90
        5
 70
     0
 43
0.0
 10
261.85022
 20
298.508331
 10
266.11496
 20
301.3638
 10
270.302277
 20
304.207123
 10
274.415253
 20
307.032898
 10
280.127869
 20
310.994934
  0
LWPOLYLINE
  5
2AF
330
27B
100
AcDbEntity
  8
0
  6
Continuous
 62
     0
370
     0
100
AcDbPolyline
 90
        5
 70
     0
 43
0.0
 10
273.994232
 20
289.990479
 10
271.11792
 20
291.945312
 10
268.240417
 20
293.940125
 10
265.365112
 20
295.983826
 10
261.85022
 20
298.508331
  0
LWPOLYLINE
  5
2B0
330
27B
100
AcDbEntity
  8
0
  6
Continuous
 62
     0
370
     0
100
AcDbPolyline
 90
        2
 70
     0
 43
0.0
 10
291.190704
 20
301.912781
 10
273.994232
 20
289.990479
  0
LINE
  5
2B1
330
27B
100
AcDbEntity
  8
0
  6
Continuous
 62
     0
370
    30
100
AcDbLine
 10
280.127854
 20
310.994919
 30
0.0
 11
291.190712
 21
301.912796
 31
0.0
  0
LWPOLYLINE
  5
2B2
330
27B
100
AcDbEntity
  8
0
  6
Continuous
 62
     0
370
     0
100
AcDbPolyline
 90
        5
 70
     0
 43
0.0
 10
259.867371
 20
298.360687
 10
263.141693
 20
295.985718
 10
266.415985
 20
293.611389
 10
269.690735
 20
291.278778
 10
273.297272
 20
288.78476
  0
LWPOLYLINE
  5
2B3
330
27B
100
AcDbEntity
  8
0
  6
Continuous
 62
     0
370
     0
100
AcDbPolyline
 90
        5
 70
     0
 43
0.0
 10
273.297272
 20
288.78476
 10
273.345276
 20
289.080719
 10
273.485504
 20
289.405151
 10
273.698303
 20
289.712769
 10
273.994232
 20
289.990479
  0
LWPOLYLINE
  5
2B4
330
27B
100
AcDbEntity
  8
0
  6
Continuous
 62
     0
370
     0
100
AcDbPolyline
 90
        5
 70
     0
 43
0.0
 10
261.16217
 20
299.682892
 10
261.121399
 20
302.688293
 10
261.096649
 20
305.690186
 10
261.118469
 20
308.663025
 10
261.195984
 20
311.83844
  0
LWPOLYLINE
  5
2B5
330
27B
100
AcDbEntity
  8
0
  6
Continuous
 62
     0
370
     0
100
AcDbPolyline
 90
        5
 70
     0
 43
0.0
 10
261.195984
 20
311.83844
 10
260.884338
 20
311.691742
 10
260.518097
 20
311.636993
 10
260.148621
 20
311.681763
 10
259.787842
 20
311.846832
  0
LWPOLYLINE
  5
2B6
330
27B
100
AcDbEntity
  8
0
  6
Continuous
 62
     0
370
     0
100
AcDbPolyline
 90
        6
 70
     0
 43
0.0
 10
259.787842
 20
311.846832
 10
259.74585
 20
309.334808
 10
259.730194
 20
306.803894
 10
259.760223
 20
304.240784
 10
259.807953
 20
301.665405
 10
259.867371
 20
298.360687
  0
ARC
  5
2B7
330
27B
100
AcDbEntity
  8
0
  6
Continuous
 62
     0
370
     0
100
AcDbCircle
 10
261.723837
 20
293.534444
 30
0.0
 40
0.5658605234200303
100
AcDbArc
 50
147.764172
 51
173.021072
  0
LINE
  5
2B8
330
27B
100
AcDbEntity
  8
0
  6
Continuous
 62
     0
370
     0
100
AcDbLine
 10
261.162169
 20
293.603199
 30
0.0
 11
261.42011
 21
293.715974
 31
0.0
  0
LWPOLYLINE
  5
2B9
330
27B
100
AcDbEntity
  8
0
  6
Continuous
 62
     0
370
     0
100
AcDbPolyline
 90
        4
 70
     0
 43
0.0
 10
260.803711
 20
294.141083
 10
260.403412
 20
294.45813
 10
259.871735
 20
295.010529
 10
259.867371
 20
295.015747
  0
LWPOLYLINE
  5
2BA
330
27B
100
AcDbEntity
  8
0
  6
Continuous
 62
     0
370
     0
100
AcDbPolyline
 90
        9
 70
     0
 43
0.0
 10
259.867371
 20
295.015747
 10
259.869537
 20
295.009888
 10
260.00116
 20
294.690735
 10
260.153046
 20
294.392609
 10
260.323151
 20
294.123932
 10
260.510986
 20
293.892639
 10
260.712677
 20
293.713989
 10
260.922302
 20
293.606598
 10
261.16217
 20
293.60321
  0
LWPOLYLINE
  5
2BB
330
27B
100
AcDbEntity
  8
0
  6
Continuous
 62
     0
370
     0
100
AcDbPolyline
 90
        6
 70
     0
 43
0.0
 10
259.867371
 20
295.015747
 10
259.82254
 20
292.509735
 10
259.772888
 20
290.007233
 10
259.735657
 20
287.495728
 10
259.734894
 20
284.958191
 10
259.787842
 20
281.64209
  0
LWPOLYLINE
  5
2BC
330
27B
100
AcDbEntity
  8
0
  6
Continuous
 62
     0
370
     0
100
AcDbPolyline
 90
        5
 70
     0
 43
0.0
 10
259.787842
 20
281.64209
 10
260.097351
 20
281.494812
 10
260.462524
 20
281.438232
 10
260.832245
 20
281.480164
 10
261.195984
 20
281.641968
  0
LWPOLYLINE
  5
2BD
330
27B
100
AcDbEntity
  8
0
  6
Continuous
 62
     0
370
     0
100
AcDbPolyline
 90
        5
 70
     0
 43
0.0
 10
261.195984
 20
281.641968
 10
261.123871
 20
284.610168
 10
261.096039
 20
287.546234
 10
261.118347
 20
290.44986
 10
261.16217
 20
293.60321
  0
LWPOLYLINE
  5
2BE
330
27B
100
AcDbEntity
  8
0
  6
Continuous
 62
     0
370
     0
100
AcDbPolyline
 90
        5
 70
     0
 43
0.0
 10
273.994232
 20
285.390503
 10
273.727448
 20
285.256287
 10
273.501892
 20
285.247406
 10
273.351013
 20
285.365051
 10
273.297272
 20
285.598907
  0
LWPOLYLINE
  5
2BF
330
27B
100
AcDbEntity
  8
0
  6
Continuous
 62
     0
370
     0
100
AcDbPolyline
 90
        5
 70
     0
 43
0.0
 10
273.297272
 20
285.598907
 10
270.031616
 20
287.960876
 10
266.765625
 20
290.261475
 10
263.500061
 20
292.513916
 10
259.867371
 20
295.015747
  0
LWPOLYLINE
  5
2C0
330
27B
100
AcDbEntity
  8
0
  6
Continuous
 62
     0
370
     0
100
AcDbPolyline
 90
        5
 70
     0
 43
0.0
 10
256.244446
 20
296.89743
 10
256.271088
 20
296.993622
 10
256.346161
 20
297.130554
 10
256.520294
 20
297.378143
 10
256.522461
 20
297.380981
  0
LWPOLYLINE
  5
2C1
330
27B
100
AcDbEntity
  8
0
  6
Continuous
 62
     0
370
     0
100
AcDbPolyline
 90
        4
 70
     0
 43
0.0
 10
256.522461
 20
297.380981
 10
256.518097
 20
297.381897
 10
256.191803
 20
297.472137
 10
255.858505
 20
297.637665
  0
LWPOLYLINE
  5
2C2
330
27B
100
AcDbEntity
  8
0
  6
Continuous
 62
     0
370
     0
100
AcDbPolyline
 90
        5
 70
     0
 43
0.0
 10
256.522461
 20
297.380981
 10
253.248154
 20
299.75592
 10
249.973831
 20
302.130249
 10
246.699081
 20
304.46286
 10
243.09256
 20
306.956879
  0
LWPOLYLINE
  5
2C3
330
27B
100
AcDbEntity
  8
0
  6
Continuous
 62
     0
370
     0
100
AcDbPolyline
 90
        3
 70
     0
 43
0.0
 10
243.09256
 20
306.956879
 10
243.110245
 20
306.815063
 10
243.225571
 20
306.638092
  0
LWPOLYLINE
  5
2C4
330
27B
100
AcDbEntity
  8
0
  6
Continuous
 62
     0
370
     0
100
AcDbPolyline
 90
        3
 70
     0
 43
0.0
 10
256.309204
 20
284.401337
 10
256.38205
 20
284.131378
 10
256.60199
 20
283.894836
  0
LWPOLYLINE
  5
2C5
330
27B
100
AcDbEntity
  8
0
  6
Continuous
 62
     0
370
     0
100
AcDbPolyline
 90
        6
 70
     0
 43
0.0
 10
256.60199
 20
283.894836
 10
256.643982
 20
286.40686
 10
256.659637
 20
288.937744
 10
256.629608
 20
291.500885
 10
256.581879
 20
294.076233
 10
256.522461
 20
297.380981
  0
LINE
  5
2C6
330
27B
100
AcDbEntity
  8
0
  6
Continuous
 62
     0
370
     0
100
AcDbLine
 10
256.266188
 20
303.327171
 30
0.0
 11
255.770525
 21
302.807311
 31
0.0
  0
LWPOLYLINE
  5
2C7
330
27B
100
AcDbEntity
  8
0
  6
Continuous
 62
     0
370
     0
100
AcDbPolyline
 90
        3
 70
     0
 43
0.0
 10
255.770523
 20
302.807312
 10
255.990387
 20
302.717377
 10
256.25354
 20
302.694916
  0
LWPOLYLINE
  5
2C8
330
27B
100
AcDbEntity
  8
0
  6
Continuous
 62
     0
370
     0
100
AcDbPolyline
 90
        9
 70
     0
 43
0.0
 10
255.770523
 20
302.807312
 10
255.688065
 20
302.594238
 10
255.690369
 20
302.323273
 10
255.761795
 20
302.021301
 10
255.887512
 20
301.705261
 10
256.054779
 20
301.388031
 10
256.256134
 20
301.074799
 10
256.518097
 20
300.73114
 10
256.522461
 20
300.725891
  0
LWPOLYLINE
  5
2C9
330
27B
100
AcDbEntity
  8
0
  6
Continuous
 62
     0
370
     0
100
AcDbPolyline
 90
        5
 70
     0
 43
0.0
 10
256.522461
 20
300.725891
 10
256.520294
 20
300.731781
 10
256.392029
 20
301.136444
 10
256.299835
 20
301.553833
 10
256.244873
 20
302.213318
  0
LWPOLYLINE
  5
2CA
330
27B
100
AcDbEntity
  8
0
  6
Continuous
 62
     0
370
     0
100
AcDbPolyline
 90
        5
 70
     0
 43
0.0
 10
255.770523
 20
302.807312
 10
252.941803
 20
304.774323
 10
250.118057
 20
306.754089
 10
247.29657
 20
308.773163
 10
243.79776
 20
311.342621
  0
LWPOLYLINE
  5
2CB
330
27B
100
AcDbEntity
  8
0
  6
Continuous
 62
     0
370
     0
100
AcDbPolyline
 90
        5
 70
     0
 43
0.0
 10
243.79776
 20
311.342621
 10
243.538055
 20
311.107727
 10
243.314972
 20
310.807739
 10
243.159683
 20
310.484711
 10
243.09256
 20
310.142731
  0
LWPOLYLINE
  5
2CC
330
27B
100
AcDbEntity
  8
0
  6
Continuous
 62
     0
370
     0
100
AcDbPolyline
 90
        5
 70
     0
 43
0.0
 10
243.09256
 20
310.142731
 10
246.3582
 20
307.780792
 10
249.624191
 20
305.480164
 10
252.889786
 20
303.227753
 10
256.522461
 20
300.725891
  0
LINE
  5
2CD
330
27B
100
AcDbEntity
  8
0
  6
Continuous
 62
     0
370
    30
100
AcDbLine
 10
260.554459
 20
323.575898
 30
0.0
 11
264.644584
 21
321.149402
 31
0.0
  0
ARC
  5
2CE
330
27B
100
AcDbEntity
  8
0
  6
Continuous
 62
     0
370
     0
100
AcDbCircle
 10
1452.094806
 20
-1326.146748
 30
0.0
 40
2035.031500273379
100
AcDbArc
 50
125.839342
 51
126.423472
  0
ELLIPSE
  5
2CF
330
27B
100
AcDbEntity
  8
0
  6
Continuous
 62
     0
370
     0
100
AcDbEllipse
 10
257.309095
 20
284.394832
 30
0.0
 11
0.5773502780447142
 21
0.8164965746662333
 31
0.0
210
0.0
220
0.0
230
1.0
 40
0.5
 41
2.526112974094433
 42
3.141596860131645
  0
ELLIPSE
  5
2D0
330
27B
100
AcDbEntity
  8
0
  6
Continuous
 62
     0
370
     0
100
AcDbEllipse
 10
260.494951
 20
282.142092
 30
0.0
 11
-0.5773502780447142
 21
-0.8164965746662333
 31
0.0
210
0.0
220
0.0
230
-1.0
 40
0.5
 41
5.335868489220848
 42
6.898664956726613
  0
LINE
  5
2D1
330
27B
100
AcDbEntity
  8
0
  6
Continuous
 62
     0
370
     0
100
AcDbLine
 10
259.787844
 20
281.642092
 30
0.0
 11
256.601989
 21
283.894832
 31
0.0
  0
ARC
  5
2D2
330
27B
100
AcDbEntity
  8
0
  6
Continuous
 62
     0
370
     0
100
AcDbCircle
 10
-758.537964
 20
1781.447139
 30
0.0
 40
1813.635257276678
100
AcDbArc
 50
304.212213
 51
304.551798
  0
LWPOLYLINE
  5
2D3
330
27B
100
AcDbEntity
  8
0
  6
Continuous
 62
     0
370
     0
100
AcDbPolyline
 90
        3
 70
     0
 43
0.0
 10
261.195984
 20
281.641968
 10
261.177124
 20
281.492432
 10
261.060822
 20
281.317596
  0
LWPOLYLINE
  5
2D4
330
27B
100
AcDbEntity
  8
0
  6
Continuous
 62
     0
370
    30
100
AcDbPolyline
 90
        4
 70
     0
 43
0.0
 10
260.554474
 20
323.575897
 10
260.395782
 20
323.651154
 10
260.249634
 20
323.682098
 10
260.04953
 20
323.627716
  0
LWPOLYLINE
  5
2D5
330
27B
100
AcDbEntity
  8
0
  6
Continuous
 62
     0
370
    30
100
AcDbPolyline
 90
        4
 70
     0
 43
0.0
 10
274.20163
 20
327.49762
 10
274.004547
 20
327.608978
 10
273.822937
 20
327.655457
 10
273.62027
 20
327.604126
  0
LINE
  5
2D6
330
27B
100
AcDbEntity
  8
0
  6
Continuous
 62
     0
370
    30
100
AcDbLine
 10
277.543544
 20
325.134537
 30
0.0
 11
274.201627
 21
327.49763
 31
0.0
  0
LWPOLYLINE
  5
2D7
330
27B
100
AcDbEntity
  8
0
  6
Continuous
 62
     0
370
    30
100
AcDbPolyline
 90
        5
 70
     0
 43
0.0
 10
278.246094
 20
324.01062
 10
278.180878
 20
324.283051
 10
278.044891
 20
324.571564
 10
277.853119
 20
324.844238
 10
277.543549
 20
325.134552
  0
LINE
  5
2D8
330
27B
100
AcDbEntity
  8
0
  6
Continuous
 62
     0
370
    30
100
AcDbLine
 10
279.505608
 20
312.05716
 30
0.0
 11
278.246107
 21
324.010619
 31
0.0
  0
LWPOLYLINE
  5
2D9
330
27B
100
AcDbEntity
  8
0
  6
Continuous
 62
     0
370
    30
100
AcDbPolyline
 90
        5
 70
     0
 43
0.0
 10
291.817841
 20
300.766785
 10
291.777496
 20
301.030792
 10
291.66098
 20
301.321808
 10
291.481506
 20
301.60672
 10
291.190704
 20
301.912781
  0
LINE
  5
2DA
330
27B
100
AcDbEntity
  8
0
  6
Continuous
 62
     0
370
    30
100
AcDbLine
 10
291.817844
 20
297.424867
 30
0.0
 11
291.817844
 21
300.766784
 31
0.0
  0
LWPOLYLINE
  5
2DB
330
27B
100
AcDbEntity
  8
0
  6
Continuous
 62
     0
370
    30
100
AcDbPolyline
 90
        3
 70
     0
 43
0.0
 10
291.680328
 20
297.103119
 10
291.762024
 20
297.188995
 10
291.817841
 20
297.424866
  0
LINE
  5
2DC
330
27B
100
AcDbEntity
  8
0
  6
Continuous
 62
     0
370
     0
100
AcDbLine
 10
273.29728
 20
288.784769
 30
0.0
 11
273.29728
 21
285.598914
 31
0.0
  0
LINE
  5
2DD
330
27B
100
AcDbEntity
  8
0
  6
Continuous
 62
     0
370
     0
100
AcDbLine
 10
256.601988
 20
314.099559
 30
0.0
 11
259.787844
 21
311.846819
 31
0.0
  0
LWPOLYLINE
  5
2DE
330
27B
100
AcDbEntity
  8
0
  6
Continuous
 62
     0
370
     0
100
AcDbPolyline
 90
        6
 70
     0
 43
0.0
 10
256.522461
 20
300.725891
 10
256.562531
 20
302.998108
 10
256.614471
 20
305.600861
 10
256.6539
 20
308.212616
 10
256.654266
 20
310.852448
 10
256.60199
 20
314.099548
  0
LINE
  5
2DF
330
27B
100
AcDbEntity
  8
0
  6
Continuous
 62
     0
370
     0
100
AcDbLine
 10
243.092552
 20
306.956882
 30
0.0
 11
243.092552
 21
310.142738
 31
0.0
  0
LWPOLYLINE
  5
2E0
330
27B
100
AcDbEntity
  8
0
  6
Continuous
 62
     0
370
     0
100
AcDbPolyline
 90
        4
 70
     0
 43
0.0
 10
243.211395
 20
311.451263
 10
243.347229
 20
311.501099
 10
243.519196
 20
311.482391
 10
243.79776
 20
311.342621
  0
ELLIPSE
  5
2E1
330
27B
100
AcDbEntity
  8
0
  6
Continuous
 62
     0
370
     0
100
AcDbEllipse
 10
243.799659
 20
310.642738
 30
0.0
 11
1.0
 21
7.483676167617846E-9
 31
0.0
210
0.0
220
0.0
230
-1.0
 40
0.707107
 41
2.356194495485008
 42
3.141592674491471
  0
ELLIPSE
  5
2E2
330
27B
100
AcDbEntity
  8
0
  6
Continuous
 62
     0
370
     0
100
AcDbEllipse
 10
243.799659
 20
307.456882
 30
0.0
 11
-1.0
 21
-7.483676167617846E-9
 31
0.0
210
0.0
220
0.0
230
1.0
 40
0.707107
 41
6.283185192551831
 42
7.068583435336094
  0
ARC
  5
2E3
330
27B
100
AcDbEntity
  8
0
  6
Continuous
 62
     0
370
     0
100
AcDbCircle
 10
-1436.097379
 20
2725.407266
 30
0.0
 40
2949.215893321601
100
AcDbArc
 50
305.118335
 51
305.524405
  0
LWPOLYLINE
  5
2E4
330
27B
100
AcDbEntity
  8
0
  6
Continuous
 62
     0
370
     0
100
AcDbPolyline
 90
        5
 70
     0
 43
0.0
 10
260.489288
 20
313.049896
 10
260.750183
 20
312.812134
 10
260.974457
 20
312.507782
 10
261.130157
 20
312.18042
 10
261.195984
 20
311.83844
  0
LWPOLYLINE
  5
2E5
330
27B
100
AcDbEntity
  8
0
  6
Continuous
 62
     0
370
     0
100
AcDbPolyline
 90
        3
 70
     0
 43
0.0
 10
261.195984
 20
311.83844
 10
262.036835
 20
312.435822
 10
278.246094
 20
324.01062
  0
ELLIPSE
  5
2E6
330
27B
100
AcDbEntity
  8
0
  6
Continuous
 62
     0
370
     0
100
AcDbEllipse
 10
260.494951
 20
312.346819
 30
0.0
 11
-0.5773502780447142
 21
-0.8164965746662333
 31
0.0
210
0.0
220
0.0
230
-1.0
 40
0.5
 41
0.615479679497091
 42
2.178276176951252
  0
LINE
  5
2E7
330
27B
100
AcDbEntity
  8
0
  6
Continuous
 62
     0
370
     0
100
AcDbLine
 10
260.489294
 20
313.049903
 30
0.0
 11
257.303438
 21
315.302644
 31
0.0
  0
ELLIPSE
  5
2E8
330
27B
100
AcDbEntity
  8
0
  6
Continuous
 62
     0
370
     0
100
AcDbEllipse
 10
257.309095
 20
314.599559
 30
0.0
 11
0.5773502780447142
 21
0.8164965746662333
 31
0.0
210
0.0
220
0.0
230
1.0
 40
0.5
 41
0.9633164766385409
 42
2.526112942777178
  0
LWPOLYLINE
  5
2E9
330
27B
100
AcDbEntity
  8
0
  6
Continuous
 62
     0
370
     0
100
AcDbPolyline
 90
        4
 70
     0
 43
0.0
 10
256.720856
 20
315.408234
 10
256.856537
 20
315.457825
 10
257.027893
 20
315.439636
 10
257.303436
 20
315.302643
  0
ARC
  5
2EA
330
27B
100
AcDbEntity
  8
0
  6
Continuous
 62
     0
370
     0
100
AcDbCircle
 10
1976.12027
 20
-2048.599898
 30
0.0
 40
2922.732715902641
100
AcDbArc
 50
125.61275
 51
126.021269
  0
LWPOLYLINE
  5
2EB
330
27B
100
AcDbEntity
  8
0
  6
Continuous
 62
     0
370
     0
100
AcDbPolyline
 90
        4
 70
     0
 43
0.0
 10
256.309113
 20
314.59375
 10
256.332214
 20
314.446228
 10
256.39679
 20
314.308533
 10
256.60199
 20
314.099548
  0
ARC
  5
2EC
330
27B
100
AcDbEntity
  8
0
  6
Continuous
 62
     0
370
     0
100
AcDbCircle
 10
-2049.63365
 20
3666.047985
 30
0.0
 40
4102.440348082255
100
AcDbArc
 50
304.511722
 51
304.802264
  0
LWPOLYLINE
  5
2ED
330
27B
100
AcDbEntity
  8
0
  6
Continuous
 62
     0
370
     0
100
AcDbPolyline
 90
        3
 70
     0
 43
0.0
 10
274.705811
 20
285.59494
 10
274.687012
 20
285.450165
 10
274.57077
 20
285.274933
  0
ELLIPSE
  5
2EE
330
27B
100
AcDbEntity
  8
0
  6
Continuous
 62
     0
370
     0
100
AcDbEllipse
 10
274.004387
 20
286.098914
 30
0.0
 11
-1.0
 21
-7.483676985903157E-9
 31
0.0
210
0.0
220
0.0
230
1.0
 40
0.707107
 41
0.7853981581047629
 42
2.348194655560742
  0
LINE
  5
2EF
330
27B
100
AcDbEntity
  8
0
  6
Continuous
 62
     0
370
     0
100
AcDbLine
 10
274.705815
 20
285.59493
 30
0.0
 11
274.705815
 21
288.780785
 31
0.0
  0
ELLIPSE
  5
2F0
330
27B
100
AcDbEntity
  8
0
  6
Continuous
 62
     0
370
     0
100
AcDbEllipse
 10
274.004387
 20
289.284769
 30
0.0
 11
1.0
 21
7.483676985903157E-9
 31
0.0
210
0.0
220
0.0
230
-1.0
 40
0.707107
 41
0.7933979980290509
 42
2.356194464167495
  0
LWPOLYLINE
  5
2F1
330
27B
100
AcDbEntity
  8
0
  6
Continuous
 62
     0
370
     0
100
AcDbPolyline
 90
        5
 70
     0
 43
0.0
 10
273.994232
 20
289.990479
 10
274.255646
 20
289.754089
 10
274.481049
 20
289.45047
 10
274.638184
 20
289.123077
 10
274.705811
 20
288.780792
  0
ARC
  5
2F2
330
27B
100
AcDbEntity
  8
0
  6
Continuous
 62
     0
370
     0
100
AcDbCircle
 10
2667.232962
 20
-3108.745962
 30
0.0
 40
4155.403006843562
100
AcDbArc
 50
124.865013
 51
125.15308
  0
ARC
  5
2F3
330
27B
100
AcDbEntity
  8
0
  6
Continuous
 62
     0
370
    30
100
AcDbCircle
 10
274.004387
 20
286.09895
 30
0.0
 40
1.000030076028034
100
AcDbArc
 50
234.514469
 51
304.502402
  0
ARC
  5
2F4
330
27B
100
AcDbEntity
  8
0
  6
Continuous
 62
     0
370
    30
100
AcDbCircle
 10
-2062.243324
 20
3683.786163
 30
0.0
 40
4124.388281366368
100
AcDbArc
 50
304.512391
 51
304.801444
  0
LWPOLYLINE
  5
2F5
330
27B
100
AcDbEntity
  8
0
  6
Continuous
 62
     0
370
    30
100
AcDbPolyline
 90
        5
 70
     0
 43
0.0
 10
256.309265
 20
314.584106
 10
256.358582
 20
311.562317
 10
256.359711
 20
308.590454
 10
256.312744
 20
305.644958
 10
256.24469
 20
302.213318
  0
ARC
  5
2F6
330
27B
100
AcDbEntity
  8
0
  6
Continuous
 62
     0
370
    30
100
AcDbCircle
 10
257.309055
 20
314.599579
 30
0.0
 40
0.9999602477994474
100
AcDbArc
 50
126.031382
 51
180.334214
  0
ARC
  5
2F7
330
27B
100
AcDbEntity
  8
0
  6
Continuous
 62
     0
370
    30
100
AcDbCircle
 10
1981.959932
 20
-2057.392423
 30
0.0
 40
2933.706338847227
100
AcDbArc
 50
125.613427
 51
126.020513
  0
ARC
  5
2F8
330
27B
100
AcDbEntity
  8
0
  6
Continuous
 62
     0
370
    30
100
AcDbCircle
 10
243.799768
 20
307.456939
 30
0.0
 40
1.000109044369921
100
AcDbArc
 50
180.003245
 51
234.956047
  0
ARC
  5
2F9
330
27B
100
AcDbEntity
  8
0
  6
Continuous
 62
     0
370
    30
100
AcDbCircle
 10
243.799645
 20
310.642745
 30
0.0
 40
0.999985665079552
100
AcDbArc
 50
126.022666
 51
180.000421
  0
LINE
  5
2FA
330
27B
100
AcDbEntity
  8
0
  6
Continuous
 62
     0
370
    30
100
AcDbLine
 10
242.799659
 20
310.642738
 30
0.0
 11
242.799659
 21
307.456882
 31
0.0
  0
ARC
  5
2FB
330
27B
100
AcDbEntity
  8
0
  6
Continuous
 62
     0
370
    30
100
AcDbCircle
 10
2700.440729
 20
-3068.778922
 30
0.0
 40
4178.986960693304
100
AcDbArc
 50
125.729959
 51
126.014956
  0
ARC
  5
2FC
330
27B
100
AcDbEntity
  8
0
  6
Continuous
 62
     0
370
    30
100
AcDbCircle
 10
260.494951
 20
282.142097
 30
0.0
 40
1.000003891466208
100
AcDbArc
 50
234.735763
 51
304.494661
  0
ARC
  5
2FD
330
27B
100
AcDbEntity
  8
0
  6
Continuous
 62
     0
370
    30
100
AcDbCircle
 10
-1287.337456
 20
2534.344434
 30
0.0
 40
2733.800864479257
100
AcDbArc
 50
304.498901
 51
304.731466
  0
ARC
  5
2FE
330
27B
100
AcDbEntity
  8
0
  6
Continuous
 62
     0
370
    30
100
AcDbCircle
 10
257.309208
 20
284.39489
 30
0.0
 40
1.000112246692137
100
AcDbArc
 50
179.667541
 51
234.732378
  0
LINE
  5
2FF
330
27B
100
AcDbEntity
  8
0
  6
Continuous
 62
     0
370
    30
100
AcDbLine
 10
256.731745
 20
283.578336
 30
0.0
 11
259.917601
 21
281.325595
 31
0.0
  0
LINE
  5
300
330
27B
100
AcDbEntity
  8
0
  6
Continuous
 62
     0
370
    30
100
AcDbLine
 10
256.244817
 20
302.210713
 30
0.0
 11
256.244864
 21
302.213346
 31
0.0
  0
LWPOLYLINE
  5
301
330
27B
100
AcDbEntity
  8
0
  6
Continuous
 62
     0
370
    30
100
AcDbPolyline
 90
        6
 70
     0
 43
0.0
 10
256.309204
 20
284.401306
 10
256.348053
 20
286.747101
 10
256.368103
 20
289.088409
 10
256.345062
 20
291.465149
 10
256.302917
 20
293.859131
 10
256.244293
 20
296.89743
  0
LWPOLYLINE
  5
302
330
27B
100
AcDbEntity
  8
0
  6
Continuous
 62
     0
370
    30
100
AcDbPolyline
 90
        5
 70
     0
 43
0.0
 10
243.225571
 20
306.638092
 10
246.276596
 20
304.530823
 10
249.323639
 20
302.375336
 10
252.372604
 20
300.169983
 10
255.858566
 20
297.63739
  0
ARC
  5
303
330
27B
100
AcDbEntity
  8
0
  6
Continuous
 62
     0
370
    30
100
AcDbCircle
 10
255.309654
 20
296.880785
 30
0.0
 40
0.9349292200383745
100
AcDbArc
 50
1.035102
 51
54.051782
  0
LWPOLYLINE
  5
304
330
27B
100
AcDbEntity
  8
0
  6
Continuous
 62
     0
370
    30
100
AcDbPolyline
 90
        5
 70
     0
 43
0.0
 10
273.42395
 20
285.284607
 10
270.458099
 20
287.430756
 10
267.496338
 20
289.527069
 10
264.532776
 20
291.576355
 10
260.803009
 20
294.141357
  0
LWPOLYLINE
  5
305
330
27B
100
AcDbEntity
  8
0
  6
Continuous
 62
     0
370
    30
100
AcDbPolyline
 90
        4
 70
     0
 43
0.0
 10
283.980988
 20
309.980591
 10
284.145477
 20
310.074615
 10
284.286957
 20
310.123169
 10
284.360931
 20
310.134857
  0
LINE
  5
306
330
27B
100
AcDbEntity
  8
0
  6
Continuous
 62
     0
370
    30
100
AcDbLine
 10
282.574669
 20
308.98619
 30
0.0
 11
283.980984
 21
309.980605
 31
0.0
  0
LINE
  5
307
330
27B
100
AcDbEntity
  8
0
  6
Continuous
 62
     0
370
    30
100
AcDbLine
 10
303.632263
 20
290.195674
 30
0.0
 11
308.976596
 21
293.974688
 31
0.0
  0
LINE
  5
308
330
27B
100
AcDbEntity
  8
0
  6
Continuous
 62
     0
370
    30
100
AcDbLine
 10
266.104493
 20
343.26795
 30
0.0
 11
271.448826
 21
347.046964
 31
0.0
  0
LWPOLYLINE
  5
309
330
27B
100
AcDbEntity
  8
0
  6
Continuous
 62
     0
370
    30
100
AcDbPolyline
 90
       15
 70
     0
 43
0.0
 10
285.683014
 20
292.942749
 10
287.161682
 20
292.016357
 10
288.631226
 20
291.192108
 10
290.085938
 20
290.473358
 10
291.520203
 20
289.863098
 10
292.928528
 20
289.364014
 10
294.305542
 20
288.978546
 10
295.646118
 20
288.708527
 10
296.945129
 20
288.555756
 10
298.197571
 20
288.521759
 10
299.398285
 20
288.607758
 10
300.541809
 20
288.814209
 10
301.622498
 20
289.141113
 10
302.634583
 20
289.588257
 10
303.632263
 20
290.195679
  0
LWPOLYLINE
  5
30A
330
27B
100
AcDbEntity
  8
0
  6
Continuous
 62
     0
370
    30
100
AcDbPolyline
 90
       17
 70
     0
 43
0.0
 10
266.104492
 20
343.267944
 10
265.244843
 20
342.572144
 10
264.472809
 20
341.763458
 10
263.793121
 20
340.847382
 10
263.208099
 20
339.829468
 10
262.719727
 20
338.71521
 10
262.329407
 20
337.510162
 10
262.037689
 20
336.219666
 10
261.844818
 20
334.849243
 10
261.750946
 20
333.404358
 10
261.75589
 20
331.890808
 10
261.859161
 20
330.314606
 10
262.060059
 20
328.682068
 10
262.357544
 20
326.999664
 10
262.750092
 20
325.274323
 10
263.235901
 20
323.513153
 10
263.848236
 20
321.621826
  0
LWPOLYLINE
  5
30B
330
27B
100
AcDbEntity
  8
0
  6
Continuous
 62
     0
370
     0
100
AcDbPolyline
 90
        7
 70
     0
 43
0.0
 10
263.919189
 20
392.290405
 10
263.265961
 20
394.326782
 10
262.740479
 20
396.290985
 10
262.340668
 20
398.170197
 10
262.062469
 20
399.953857
 10
261.900208
 20
401.63382
 10
261.846954
 20
403.224823
  0
LWPOLYLINE
  5
30C
330
27B
100
AcDbEntity
  8
0
  6
Continuous
 62
     0
370
     0
100
AcDbPolyline
 90
       24
 70
     0
 43
0.0
 10
307.187988
 20
371.163879
 10
307.14743
 20
369.837067
 10
307.022095
 20
368.543762
 10
306.807037
 20
367.294739
 10
306.497986
 20
366.101166
 10
306.091614
 20
364.974335
 10
305.585754
 20
363.925446
 10
304.979401
 20
362.965393
 10
304.27301
 20
362.10434
 10
303.468414
 20
361.351593
 10
302.568939
 20
360.71521
 10
301.579376
 20
360.201813
 10
300.50589
 20
359.816406
 10
299.355896
 20
359.562195
 10
298.137939
 20
359.44046
 10
296.86145
 20
359.450623
 10
295.536438
 20
359.590271
 10
294.173401
 20
359.855225
 10
292.782898
 20
360.239746
 10
291.375397
 20
360.736694
 10
289.96106
 20
361.337891
 10
288.549469
 20
362.03421
 10
287.149536
 20
362.815979
 10
285.739624
 20
363.692627
  0
LWPOLYLINE
  5
30D
330
27B
100
AcDbEntity
  8
0
  6
Continuous
 62
     0
370
     0
100
AcDbPolyline
 90
       48
 70
     0
 43
0.0
 10
261.846954
 20
403.224823
 10
261.889008
 20
404.575195
 10
262.018951
 20
405.890686
 10
262.242126
 20
407.159821
 10
262.562866
 20
408.370911
 10
262.98468
 20
409.511963
 10
263.509705
 20
410.571198
 10
264.138885
 20
411.537262
 10
264.871582
 20
412.399414
 10
265.705627
 20
413.148102
 10
266.637299
 20
413.774963
 10
267.661285
 20
414.273346
 10
268.770813
 20
414.638275
 10
269.957764
 20
414.866821
 10
271.212952
 20
414.958038
 10
272.526245
 20
414.913055
 10
273.886902
 20
414.734863
 10
275.283813
 20
414.428406
 10
276.705872
 20
414.000153
 10
278.14209
 20
413.458038
 10
279.58194
 20
412.811035
 10
281.015503
 20
412.069031
 10
282.433716
 20
411.24234
 10
283.8284
 20
410.341614
 10
285.200836
 20
409.371338
 10
286.595398
 20
408.30011
 10
288.01355
 20
407.121582
 10
289.447083
 20
405.836639
 10
290.886902
 20
404.447815
 10
292.323151
 20
402.959229
 10
293.7453
 20
401.37677
 10
295.142365
 20
399.708008
 10
296.503174
 20
397.962219
 10
297.816681
 20
396.150208
 10
299.072144
 20
394.284088
 10
300.259399
 20
392.377045
 10
301.369263
 20
390.443085
 10
302.393585
 20
388.496613
 10
303.325653
 20
386.552124
 10
304.160126
 20
384.62381
 10
304.89325
 20
382.725311
 10
305.522827
 20
380.869293
 10
306.048309
 20
379.067291
 10
306.47052
 20
377.329437
 10
306.791687
 20
375.664429
 10
307.015228
 20
374.079346
 10
307.145569
 20
372.579712
 10
307.187988
 20
371.163879
  0
LWPOLYLINE
  5
30E
330
27B
100
AcDbEntity
  8
0
  6
Continuous
 62
     0
370
     0
100
AcDbPolyline
 90
       39
 70
     0
 43
0.0
 10
307.849335
 20
371.192474
 10
307.807495
 20
372.608582
 10
307.678101
 20
374.113739
 10
307.456024
 20
375.704102
 10
307.136871
 20
377.374268
 10
306.717194
 20
379.117249
 10
306.194763
 20
380.924622
 10
305.568634
 20
382.786346
 10
304.839355
 20
384.691223
 10
304.008942
 20
386.62674
 10
303.080933
 20
388.579529
 10
302.060486
 20
390.535614
 10
300.954132
 20
392.480743
 10
299.769745
 20
394.400604
 10
298.516327
 20
396.281342
 10
297.203735
 20
398.109863
 10
295.84256
 20
399.873962
 10
294.443665
 20
401.562866
 10
293.018066
 20
403.167175
 10
291.576691
 20
404.679077
 10
290.129944
 20
406.092529
 10
288.687775
 20
407.403137
 10
287.259247
 20
408.608154
 10
285.852661
 20
409.70639
 10
284.472473
 20
410.700012
 10
283.077423
 20
411.619965
 10
281.657257
 20
412.468597
 10
280.219818
 20
413.235413
 10
278.773834
 20
413.910065
 10
277.328949
 20
414.482697
 10
275.895325
 20
414.944183
 10
274.483765
 20
415.286377
 10
273.105255
 20
415.502472
 10
271.770721
 20
415.587158
 10
270.490936
 20
415.536896
 10
269.276093
 20
415.350006
 10
268.13562
 20
415.026794
 10
267.07785
 20
414.569519
 10
266.104492
 20
413.978607
  0
LWPOLYLINE
  5
30F
330
27B
100
AcDbEntity
  8
0
  6
Continuous
 62
     0
370
     0
100
AcDbPolyline
 90
       11
 70
     0
 43
0.0
 10
303.632263
 20
360.906342
 10
304.449432
 20
361.567169
 10
305.179718
 20
362.329651
 10
305.820831
 20
363.186554
 10
306.371613
 20
364.129669
 10
306.832092
 20
365.150146
 10
307.203339
 20
366.238708
 10
307.487396
 20
367.385803
 10
307.687195
 20
368.581879
 10
307.806335
 20
369.817413
 10
307.849335
 20
371.192474
  0
LWPOLYLINE
  5
310
330
27B
100
AcDbEntity
  8
0
  6
Continuous
 62
     0
370
     0
100
AcDbPolyline
 90
       12
 70
     0
 43
0.0
 10
288.807648
 20
382.318207
 10
288.756439
 20
381.593903
 10
288.598541
 20
380.955627
 10
288.342834
 20
380.417206
 10
287.994873
 20
379.986542
 10
287.55545
 20
379.674835
 10
287.03299
 20
379.48822
 10
286.442291
 20
379.423859
 10
285.792358
 20
379.485992
 10
285.093506
 20
379.676178
 10
284.359924
 20
379.989044
 10
283.599152
 20
380.421265
  0
LWPOLYLINE
  5
311
330
27B
100
AcDbEntity
  8
0
  6
Continuous
 62
     0
370
     0
100
AcDbPolyline
 90
       20
 70
     0
 43
0.0
 10
278.470367
 20
392.593018
 10
278.915588
 20
392.892242
 10
279.441742
 20
393.067657
 10
280.034729
 20
393.122101
 10
280.685852
 20
393.05072
 10
281.384399
 20
392.852631
 10
282.116425
 20
392.533417
 10
282.868439
 20
392.100281
 10
283.62677
 20
391.55954
 10
284.377563
 20
390.921143
 10
285.107239
 20
390.198212
 10
285.802246
 20
389.402588
 10
286.448547
 20
388.548737
 10
287.036072
 20
387.65274
 10
287.555939
 20
386.731598
 10
287.993469
 20
385.802704
 10
288.340393
 20
384.883789
 10
288.595917
 20
383.987549
 10
288.754608
 20
383.129272
 10
288.807648
 20
382.318207
  0
ELLIPSE
  5
312
330
27B
100
AcDbEntity
  8
0
  6
Continuous
 62
     0
370
    30
100
AcDbEllipse
 10
290.212711
 20
391.221502
 30
0.0
 11
18.76388416884513
 21
-26.53613858303735
 31
0.0
210
0.0
220
0.0
230
1.0
 40
0.5
 41
0.6154796770017033
 42
3.141592713657524
  0
ELLIPSE
  5
313
330
27B
100
AcDbEntity
  8
0
  6
Continuous
 62
     0
370
    30
100
AcDbEllipse
 10
290.212711
 20
391.221502
 30
0.0
 11
18.76388416884513
 21
-26.53613858303735
 31
0.0
210
0.0
220
0.0
230
1.0
 40
0.5
 41
0.0000000600677277
 42
0.6154796770017033
  0
ELLIPSE
  5
314
330
27B
100
AcDbEntity
  8
0
  6
Continuous
 62
     0
370
     0
100
AcDbEllipse
 10
281.094232
 20
384.773763
 30
0.0
 11
2.886751410591557
 21
-4.082482858928822
 31
0.0
210
0.0
220
0.0
230
0.9999999999999998
 40
0.5
 41
0.6154796770017024
 42
2.877896215889715
  0
ELLIPSE
  5
315
330
27B
100
AcDbEntity
  8
0
  6
Continuous
 62
     0
370
     0
100
AcDbEllipse
 10
281.094232
 20
384.773763
 30
0.0
 11
2.886751410591557
 21
-4.082482858928822
 31
0.0
210
0.0
220
0.0
230
0.9999999999999998
 40
0.5
 41
0.0000000559093678
 42
0.6154796770017024
  0
ELLIPSE
  5
316
330
27B
100
AcDbEntity
  8
0
  6
Continuous
 62
     0
370
    30
100
AcDbEllipse
 10
279.40812
 20
383.581502
 30
0.0
 11
-2.886751410591557
 21
4.082482858928822
 31
0.0
210
0.0
220
0.0
230
-0.9999999999999998
 40
0.5
 41
2.526112976588093
 42
3.008954302842993
  0
ELLIPSE
  5
317
330
27B
100
AcDbEntity
  8
0
  6
Continuous
 62
     0
370
    30
100
AcDbEllipse
 10
279.40812
 20
383.581502
 30
0.0
 11
-2.886751410591557
 21
4.082482858928822
 31
0.0
210
0.0
220
0.0
230
-0.9999999999999998
 40
0.5
 41
0.8455245281646502
 42
2.526112976588093
  0
ELLIPSE
  5
318
330
27B
100
AcDbEntity
  8
0
  6
Continuous
 62
     0
370
    30
100
AcDbEllipse
 10
279.40812
 20
383.581502
 30
0.0
 11
2.829016382379725
 21
-4.000833201750248
 31
0.0
210
0.0
220
0.0
230
0.9999999999999998
 40
0.5
 41
0.615479684485388
 42
2.295995281757004
  0
ELLIPSE
  5
319
330
27B
100
AcDbEntity
  8
0
  6
Continuous
 62
     0
370
    30
100
AcDbEllipse
 10
279.40812
 20
383.581502
 30
0.0
 11
2.829016382379725
 21
-4.000833201750248
 31
0.0
210
0.0
220
0.0
230
0.9999999999999998
 40
0.5
 41
0.1247227698238582
 42
0.6154796844853774
  0
LWPOLYLINE
  5
31A
330
27B
100
AcDbEntity
  8
0
  6
Continuous
 62
     0
370
     0
100
AcDbPolyline
 90
        7
 70
     0
 43
0.0
 10
261.16217
 20
370.393555
 10
260.88623
 20
370.161591
 10
260.606384
 20
369.897614
 10
260.347107
 20
369.631317
 10
260.118591
 20
369.37793
 10
259.869537
 20
369.074188
 10
259.867371
 20
369.07135
  0
LWPOLYLINE
  5
31B
330
27B
100
AcDbEntity
  8
0
  6
Continuous
 62
     0
370
     0
100
AcDbPolyline
 90
        7
 70
     0
 43
0.0
 10
259.867371
 20
369.07135
 10
259.871735
 20
369.070435
 10
260.236938
 20
369.014404
 10
260.634491
 20
368.993103
 10
261.052795
 20
369.012726
 10
261.468109
 20
369.082275
 10
261.85022
 20
369.218994
  0
LWPOLYLINE
  5
31C
330
27B
100
AcDbEntity
  8
0
  6
Continuous
 62
     0
370
     0
100
AcDbPolyline
 90
        5
 70
     0
 43
0.0
 10
261.85022
 20
369.218994
 10
261.630188
 20
369.462372
 10
261.427948
 20
369.754364
 10
261.26947
 20
370.05777
 10
261.16217
 20
370.393555
  0
LWPOLYLINE
  5
31D
330
27B
100
AcDbEntity
  8
0
  6
Continuous
 62
     0
370
    30
100
AcDbPolyline
 90
        5
 70
     0
 43
0.0
 10
280.127869
 20
381.705597
 10
279.924957
 20
381.903748
 10
279.746124
 20
382.142456
 10
279.609009
 20
382.399261
 10
279.505615
 20
382.767822
  0
LWPOLYLINE
  5
31E
330
27B
100
AcDbEntity
  8
0
  6
Continuous
 62
     0
370
     0
100
AcDbPolyline
 90
        5
 70
     0
 43
0.0
 10
279.505615
 20
382.767822
 10
275.486237
 20
379.99588
 10
271.399231
 20
377.213928
 10
267.239075
 20
374.418091
 10
261.16217
 20
370.393555
  0
LWPOLYLINE
  5
31F
330
27B
100
AcDbEntity
  8
0
  6
Continuous
 62
     0
370
     0
100
AcDbPolyline
 90
        5
 70
     0
 43
0.0
 10
261.85022
 20
369.218994
 10
266.11496
 20
372.074463
 10
270.302277
 20
374.917786
 10
274.415253
 20
377.743561
 10
280.127869
 20
381.705597
  0
LWPOLYLINE
  5
320
330
27B
100
AcDbEntity
  8
0
  6
Continuous
 62
     0
370
     0
100
AcDbPolyline
 90
        5
 70
     0
 43
0.0
 10
273.994232
 20
360.701172
 10
271.11792
 20
362.655975
 10
268.240417
 20
364.650787
 10
265.365112
 20
366.694519
 10
261.85022
 20
369.218994
  0
LWPOLYLINE
  5
321
330
27B
100
AcDbEntity
  8
0
  6
Continuous
 62
     0
370
     0
100
AcDbPolyline
 90
        2
 70
     0
 43
0.0
 10
291.190704
 20
372.623474
 10
273.994232
 20
360.701172
  0
LINE
  5
322
330
27B
100
AcDbEntity
  8
0
  6
Continuous
 62
     0
370
    30
100
AcDbLine
 10
280.127854
 20
381.705595
 30
0.0
 11
291.190712
 21
372.623471
 31
0.0
  0
LWPOLYLINE
  5
323
330
27B
100
AcDbEntity
  8
0
  6
Continuous
 62
     0
370
     0
100
AcDbPolyline
 90
        5
 70
     0
 43
0.0
 10
259.867371
 20
369.07135
 10
263.141693
 20
366.696411
 10
266.415985
 20
364.322083
 10
269.690735
 20
361.989441
 10
273.297272
 20
359.495453
  0
LWPOLYLINE
  5
324
330
27B
100
AcDbEntity
  8
0
  6
Continuous
 62
     0
370
     0
100
AcDbPolyline
 90
        5
 70
     0
 43
0.0
 10
273.297272
 20
359.495453
 10
273.345276
 20
359.791412
 10
273.485504
 20
360.115845
 10
273.698303
 20
360.423431
 10
273.994232
 20
360.701172
  0
LWPOLYLINE
  5
325
330
27B
100
AcDbEntity
  8
0
  6
Continuous
 62
     0
370
     0
100
AcDbPolyline
 90
        5
 70
     0
 43
0.0
 10
261.16217
 20
370.393555
 10
261.121399
 20
373.398987
 10
261.096649
 20
376.400879
 10
261.118469
 20
379.373718
 10
261.195984
 20
382.549133
  0
LWPOLYLINE
  5
326
330
27B
100
AcDbEntity
  8
0
  6
Continuous
 62
     0
370
     0
100
AcDbPolyline
 90
        5
 70
     0
 43
0.0
 10
261.195984
 20
382.549133
 10
260.884338
 20
382.402405
 10
260.518097
 20
382.347687
 10
260.148621
 20
382.392456
 10
259.787842
 20
382.557495
  0
LWPOLYLINE
  5
327
330
27B
100
AcDbEntity
  8
0
  6
Continuous
 62
     0
370
     0
100
AcDbPolyline
 90
        6
 70
     0
 43
0.0
 10
259.787842
 20
382.557495
 10
259.74585
 20
380.045471
 10
259.730194
 20
377.514587
 10
259.760223
 20
374.951447
 10
259.807953
 20
372.376099
 10
259.867371
 20
369.07135
  0
ARC
  5
328
330
27B
100
AcDbEntity
  8
0
  6
Continuous
 62
     0
370
     0
100
AcDbCircle
 10
261.723837
 20
364.24512
 30
0.0
 40
0.5658605234414785
100
AcDbArc
 50
147.764172
 51
173.021072
  0
LINE
  5
329
330
27B
100
AcDbEntity
  8
0
  6
Continuous
 62
     0
370
     0
100
AcDbLine
 10
261.162169
 20
364.313874
 30
0.0
 11
261.42011
 21
364.426649
 31
0.0
  0
LWPOLYLINE
  5
32A
330
27B
100
AcDbEntity
  8
0
  6
Continuous
 62
     0
370
     0
100
AcDbPolyline
 90
        4
 70
     0
 43
0.0
 10
260.803711
 20
364.851746
 10
260.403412
 20
365.168793
 10
259.871735
 20
365.721191
 10
259.867371
 20
365.72641
  0
LWPOLYLINE
  5
32B
330
27B
100
AcDbEntity
  8
0
  6
Continuous
 62
     0
370
     0
100
AcDbPolyline
 90
        9
 70
     0
 43
0.0
 10
259.867371
 20
365.72641
 10
259.869537
 20
365.720551
 10
260.00116
 20
365.401398
 10
260.153046
 20
365.103302
 10
260.323151
 20
364.834595
 10
260.510986
 20
364.603333
 10
260.712677
 20
364.424652
 10
260.922302
 20
364.317291
 10
261.16217
 20
364.313873
  0
LWPOLYLINE
  5
32C
330
27B
100
AcDbEntity
  8
0
  6
Continuous
 62
     0
370
     0
100
AcDbPolyline
 90
        6
 70
     0
 43
0.0
 10
259.867371
 20
365.72641
 10
259.82254
 20
363.220428
 10
259.772888
 20
360.717926
 10
259.735657
 20
358.20639
 10
259.734894
 20
355.668854
 10
259.787842
 20
352.352753
  0
LWPOLYLINE
  5
32D
330
27B
100
AcDbEntity
  8
0
  6
Continuous
 62
     0
370
     0
100
AcDbPolyline
 90
        5
 70
     0
 43
0.0
 10
259.787842
 20
352.352753
 10
260.097351
 20
352.205505
 10
260.462524
 20
352.148895
 10
260.832245
 20
352.190857
 10
261.195984
 20
352.352661
  0
LWPOLYLINE
  5
32E
330
27B
100
AcDbEntity
  8
0
  6
Continuous
 62
     0
370
     0
100
AcDbPolyline
 90
        5
 70
     0
 43
0.0
 10
261.195984
 20
352.352661
 10
261.123871
 20
355.320831
 10
261.096039
 20
358.256897
 10
261.118347
 20
361.160522
 10
261.16217
 20
364.313873
  0
LWPOLYLINE
  5
32F
330
27B
100
AcDbEntity
  8
0
  6
Continuous
 62
     0
370
     0
100
AcDbPolyline
 90
        5
 70
     0
 43
0.0
 10
273.994232
 20
356.101166
 10
273.727448
 20
355.966949
 10
273.501892
 20
355.958069
 10
273.351013
 20
356.075714
 10
273.297272
 20
356.309601
  0
LWPOLYLINE
  5
330
330
27B
100
AcDbEntity
  8
0
  6
Continuous
 62
     0
370
     0
100
AcDbPolyline
 90
        5
 70
     0
 43
0.0
 10
273.297272
 20
356.309601
 10
270.031616
 20
358.671539
 10
266.765625
 20
360.972168
 10
263.500061
 20
363.224579
 10
259.867371
 20
365.72641
  0
LWPOLYLINE
  5
331
330
27B
100
AcDbEntity
  8
0
  6
Continuous
 62
     0
370
     0
100
AcDbPolyline
 90
        5
 70
     0
 43
0.0
 10
256.244446
 20
367.608124
 10
256.271088
 20
367.704285
 10
256.346161
 20
367.841248
 10
256.520294
 20
368.088837
 10
256.522461
 20
368.091644
  0
LWPOLYLINE
  5
332
330
27B
100
AcDbEntity
  8
0
  6
Continuous
 62
     0
370
     0
100
AcDbPolyline
 90
        4
 70
     0
 43
0.0
 10
256.522461
 20
368.091644
 10
256.518097
 20
368.09256
 10
256.191803
 20
368.1828
 10
255.858505
 20
368.348328
  0
LWPOLYLINE
  5
333
330
27B
100
AcDbEntity
  8
0
  6
Continuous
 62
     0
370
     0
100
AcDbPolyline
 90
        5
 70
     0
 43
0.0
 10
256.522461
 20
368.091644
 10
253.248154
 20
370.466614
 10
249.973831
 20
372.840942
 10
246.699081
 20
375.173553
 10
243.09256
 20
377.667572
  0
LWPOLYLINE
  5
334
330
27B
100
AcDbEntity
  8
0
  6
Continuous
 62
     0
370
     0
100
AcDbPolyline
 90
        3
 70
     0
 43
0.0
 10
243.09256
 20
377.667572
 10
243.110245
 20
377.525726
 10
243.225571
 20
377.348755
  0
LWPOLYLINE
  5
335
330
27B
100
AcDbEntity
  8
0
  6
Continuous
 62
     0
370
     0
100
AcDbPolyline
 90
        3
 70
     0
 43
0.0
 10
256.309204
 20
355.11203
 10
256.38205
 20
354.842041
 10
256.60199
 20
354.605499
  0
LWPOLYLINE
  5
336
330
27B
100
AcDbEntity
  8
0
  6
Continuous
 62
     0
370
     0
100
AcDbPolyline
 90
        6
 70
     0
 43
0.0
 10
256.60199
 20
354.605499
 10
256.643982
 20
357.117523
 10
256.659637
 20
359.648438
 10
256.629608
 20
362.211548
 10
256.581879
 20
364.786926
 10
256.522461
 20
368.091644
  0
LINE
  5
337
330
27B
100
AcDbEntity
  8
0
  6
Continuous
 62
     0
370
     0
100
AcDbLine
 10
256.266188
 20
374.037847
 30
0.0
 11
255.770525
 21
373.517986
 31
0.0
  0
LWPOLYLINE
  5
338
330
27B
100
AcDbEntity
  8
0
  6
Continuous
 62
     0
370
     0
100
AcDbPolyline
 90
        3
 70
     0
 43
0.0
 10
255.770523
 20
373.517975
 10
255.990387
 20
373.42804
 10
256.25354
 20
373.405609
  0
LWPOLYLINE
  5
339
330
27B
100
AcDbEntity
  8
0
  6
Continuous
 62
     0
370
     0
100
AcDbPolyline
 90
        9
 70
     0
 43
0.0
 10
255.770523
 20
373.517975
 10
255.688065
 20
373.304901
 10
255.690369
 20
373.033936
 10
255.761795
 20
372.731964
 10
255.887512
 20
372.415924
 10
256.054779
 20
372.098694
 10
256.256134
 20
371.785461
 10
256.518097
 20
371.441803
 10
256.522461
 20
371.436584
  0
LWPOLYLINE
  5
33A
330
27B
100
AcDbEntity
  8
0
  6
Continuous
 62
     0
370
     0
100
AcDbPolyline
 90
        5
 70
     0
 43
0.0
 10
256.522461
 20
371.436584
 10
256.520294
 20
371.442444
 10
256.392029
 20
371.847137
 10
256.299835
 20
372.264496
 10
256.244873
 20
372.924011
  0
LWPOLYLINE
  5
33B
330
27B
100
AcDbEntity
  8
0
  6
Continuous
 62
     0
370
     0
100
AcDbPolyline
 90
        5
 70
     0
 43
0.0
 10
255.770523
 20
373.517975
 10
252.941803
 20
375.485016
 10
250.118057
 20
377.464752
 10
247.29657
 20
379.483856
 10
243.79776
 20
382.053314
  0
LWPOLYLINE
  5
33C
330
27B
100
AcDbEntity
  8
0
  6
Continuous
 62
     0
370
     0
100
AcDbPolyline
 90
        5
 70
     0
 43
0.0
 10
243.79776
 20
382.053314
 10
243.538055
 20
381.81839
 10
243.314972
 20
381.518433
 10
243.159683
 20
381.195374
 10
243.09256
 20
380.853424
  0
LWPOLYLINE
  5
33D
330
27B
100
AcDbEntity
  8
0
  6
Continuous
 62
     0
370
     0
100
AcDbPolyline
 90
        5
 70
     0
 43
0.0
 10
243.09256
 20
380.853424
 10
246.3582
 20
378.491455
 10
249.624191
 20
376.190857
 10
252.889786
 20
373.938416
 10
256.522461
 20
371.436584
  0
LINE
  5
33E
330
27B
100
AcDbEntity
  8
0
  6
Continuous
 62
     0
370
    30
100
AcDbLine
 10
260.554459
 20
394.286574
 30
0.0
 11
264.644584
 21
391.860078
 31
0.0
  0
ARC
  5
33F
330
27B
100
AcDbEntity
  8
0
  6
Continuous
 62
     0
370
     0
100
AcDbCircle
 10
1452.094806
 20
-1255.436072
 30
0.0
 40
2035.031500273956
100
AcDbArc
 50
125.839342
 51
126.423472
  0
ELLIPSE
  5
340
330
27B
100
AcDbEntity
  8
0
  6
Continuous
 62
     0
370
     0
100
AcDbEllipse
 10
257.309095
 20
355.105508
 30
0.0
 11
0.5773502780447142
 21
0.8164965746662333
 31
0.0
210
0.0
220
0.0
230
1.0
 40
0.5
 41
2.526112974094513
 42
3.141596860131881
  0
ELLIPSE
  5
341
330
27B
100
AcDbEntity
  8
0
  6
Continuous
 62
     0
370
     0
100
AcDbEllipse
 10
260.494951
 20
352.852768
 30
0.0
 11
-0.5773502780447142
 21
-0.8164965746662333
 31
0.0
210
0.0
220
0.0
230
-1.0
 40
0.5
 41
5.335868489220877
 42
6.898664956726668
  0
LINE
  5
342
330
27B
100
AcDbEntity
  8
0
  6
Continuous
 62
     0
370
     0
100
AcDbLine
 10
259.787844
 20
352.352768
 30
0.0
 11
256.601989
 21
354.605508
 31
0.0
  0
ARC
  5
343
330
27B
100
AcDbEntity
  8
0
  6
Continuous
 62
     0
370
     0
100
AcDbCircle
 10
-758.537964
 20
1852.157814
 30
0.0
 40
1813.635257277621
100
AcDbArc
 50
304.212213
 51
304.551798
  0
LWPOLYLINE
  5
344
330
27B
100
AcDbEntity
  8
0
  6
Continuous
 62
     0
370
     0
100
AcDbPolyline
 90
        3
 70
     0
 43
0.0
 10
261.195984
 20
352.352661
 10
261.177124
 20
352.203094
 10
261.060822
 20
352.028259
  0
LWPOLYLINE
  5
345
330
27B
100
AcDbEntity
  8
0
  6
Continuous
 62
     0
370
    30
100
AcDbPolyline
 90
        4
 70
     0
 43
0.0
 10
260.554474
 20
394.28656
 10
260.395782
 20
394.361816
 10
260.249634
 20
394.392792
 10
260.04953
 20
394.338409
  0
LWPOLYLINE
  5
346
330
27B
100
AcDbEntity
  8
0
  6
Continuous
 62
     0
370
    30
100
AcDbPolyline
 90
        4
 70
     0
 43
0.0
 10
274.20163
 20
398.208313
 10
274.004547
 20
398.319641
 10
273.822937
 20
398.366119
 10
273.62027
 20
398.314789
  0
LINE
  5
347
330
27B
100
AcDbEntity
  8
0
  6
Continuous
 62
     0
370
    30
100
AcDbLine
 10
277.543544
 20
395.845213
 30
0.0
 11
274.201627
 21
398.208305
 31
0.0
  0
LWPOLYLINE
  5
348
330
27B
100
AcDbEntity
  8
0
  6
Continuous
 62
     0
370
    30
100
AcDbPolyline
 90
        5
 70
     0
 43
0.0
 10
278.246094
 20
394.721283
 10
278.180878
 20
394.993713
 10
278.044891
 20
395.282227
 10
277.853119
 20
395.554932
 10
277.543549
 20
395.845215
  0
LINE
  5
349
330
27B
100
AcDbEntity
  8
0
  6
Continuous
 62
     0
370
    30
100
AcDbLine
 10
279.505608
 20
382.767835
 30
0.0
 11
278.246107
 21
394.721295
 31
0.0
  0
LWPOLYLINE
  5
34A
330
27B
100
AcDbEntity
  8
0
  6
Continuous
 62
     0
370
    30
100
AcDbPolyline
 90
        5
 70
     0
 43
0.0
 10
291.817841
 20
371.477448
 10
291.777496
 20
371.741455
 10
291.66098
 20
372.032471
 10
291.481506
 20
372.317413
 10
291.190704
 20
372.623474
  0
LINE
  5
34B
330
27B
100
AcDbEntity
  8
0
  6
Continuous
 62
     0
370
    30
100
AcDbLine
 10
291.817844
 20
368.135543
 30
0.0
 11
291.817844
 21
371.47746
 31
0.0
  0
LWPOLYLINE
  5
34C
330
27B
100
AcDbEntity
  8
0
  6
Continuous
 62
     0
370
    30
100
AcDbPolyline
 90
        3
 70
     0
 43
0.0
 10
291.680328
 20
367.813782
 10
291.762024
 20
367.899658
 10
291.817841
 20
368.135529
  0
LINE
  5
34D
330
27B
100
AcDbEntity
  8
0
  6
Continuous
 62
     0
370
     0
100
AcDbLine
 10
273.29728
 20
359.495445
 30
0.0
 11
273.29728
 21
356.309589
 31
0.0
  0
LINE
  5
34E
330
27B
100
AcDbEntity
  8
0
  6
Continuous
 62
     0
370
     0
100
AcDbLine
 10
256.601988
 20
384.810235
 30
0.0
 11
259.787844
 21
382.557495
 31
0.0
  0
LWPOLYLINE
  5
34F
330
27B
100
AcDbEntity
  8
0
  6
Continuous
 62
     0
370
     0
100
AcDbPolyline
 90
        6
 70
     0
 43
0.0
 10
256.522461
 20
371.436584
 10
256.562531
 20
373.708771
 10
256.614471
 20
376.311523
 10
256.6539
 20
378.923279
 10
256.654266
 20
381.56311
 10
256.60199
 20
384.810242
  0
LINE
  5
350
330
27B
100
AcDbEntity
  8
0
  6
Continuous
 62
     0
370
     0
100
AcDbLine
 10
243.092552
 20
377.667558
 30
0.0
 11
243.092552
 21
380.853413
 31
0.0
  0
LWPOLYLINE
  5
351
330
27B
100
AcDbEntity
  8
0
  6
Continuous
 62
     0
370
     0
100
AcDbPolyline
 90
        4
 70
     0
 43
0.0
 10
243.211395
 20
382.161926
 10
243.347229
 20
382.211761
 10
243.519196
 20
382.193054
 10
243.79776
 20
382.053314
  0
ELLIPSE
  5
352
330
27B
100
AcDbEntity
  8
0
  6
Continuous
 62
     0
370
     0
100
AcDbEllipse
 10
243.799659
 20
381.353413
 30
0.0
 11
1.0
 21
7.483676167617846E-9
 31
0.0
210
0.0
220
0.0
230
-1.0
 40
0.707107
 41
2.356194495484983
 42
3.141592674491446
  0
ELLIPSE
  5
353
330
27B
100
AcDbEntity
  8
0
  6
Continuous
 62
     0
370
     0
100
AcDbEllipse
 10
243.799659
 20
378.167558
 30
0.0
 11
-1.0
 21
-7.483676167617846E-9
 31
0.0
210
0.0
220
0.0
230
1.0
 40
0.707107
 41
6.283185208481952
 42
7.068583435336084
  0
ARC
  5
354
330
27B
100
AcDbEntity
  8
0
  6
Continuous
 62
     0
370
     0
100
AcDbCircle
 10
-1436.097379
 20
2796.117942
 30
0.0
 40
2949.215893231788
100
AcDbArc
 50
305.118335
 51
305.524405
  0
LWPOLYLINE
  5
355
330
27B
100
AcDbEntity
  8
0
  6
Continuous
 62
     0
370
     0
100
AcDbPolyline
 90
        5
 70
     0
 43
0.0
 10
260.489288
 20
383.76059
 10
260.750183
 20
383.522797
 10
260.974457
 20
383.218475
 10
261.130157
 20
382.891083
 10
261.195984
 20
382.549133
  0
LWPOLYLINE
  5
356
330
27B
100
AcDbEntity
  8
0
  6
Continuous
 62
     0
370
     0
100
AcDbPolyline
 90
        3
 70
     0
 43
0.0
 10
261.195984
 20
382.549133
 10
262.036835
 20
383.146515
 10
278.246094
 20
394.721283
  0
ELLIPSE
  5
357
330
27B
100
AcDbEntity
  8
0
  6
Continuous
 62
     0
370
     0
100
AcDbEllipse
 10
260.494951
 20
383.057495
 30
0.0
 11
-0.5773502780447142
 21
-0.8164965746662333
 31
0.0
210
0.0
220
0.0
230
-1.0
 40
0.5
 41
0.6154796794969881
 42
2.178276176951266
  0
LINE
  5
358
330
27B
100
AcDbEntity
  8
0
  6
Continuous
 62
     0
370
     0
100
AcDbLine
 10
260.489294
 20
383.760579
 30
0.0
 11
257.303438
 21
386.013319
 31
0.0
  0
ELLIPSE
  5
359
330
27B
100
AcDbEntity
  8
0
  6
Continuous
 62
     0
370
     0
100
AcDbEllipse
 10
257.309095
 20
385.310235
 30
0.0
 11
0.5773502780447142
 21
0.8164965746662333
 31
0.0
210
0.0
220
0.0
230
1.0
 40
0.5
 41
0.9633164766385551
 42
2.526112942777144
  0
LWPOLYLINE
  5
35A
330
27B
100
AcDbEntity
  8
0
  6
Continuous
 62
     0
370
     0
100
AcDbPolyline
 90
        4
 70
     0
 43
0.0
 10
256.720856
 20
386.118927
 10
256.856537
 20
386.168488
 10
257.027893
 20
386.15033
 10
257.303436
 20
386.013306
  0
ARC
  5
35B
330
27B
100
AcDbEntity
  8
0
  6
Continuous
 62
     0
370
     0
100
AcDbCircle
 10
1976.12027
 20
-1977.889223
 30
0.0
 40
2922.732715818062
100
AcDbArc
 50
125.61275
 51
126.021269
  0
LWPOLYLINE
  5
35C
330
27B
100
AcDbEntity
  8
0
  6
Continuous
 62
     0
370
     0
100
AcDbPolyline
 90
        4
 70
     0
 43
0.0
 10
256.309113
 20
385.304413
 10
256.332214
 20
385.156891
 10
256.39679
 20
385.019196
 10
256.60199
 20
384.810242
  0
ARC
  5
35D
330
27B
100
AcDbEntity
  8
0
  6
Continuous
 62
     0
370
     0
100
AcDbCircle
 10
-2049.63365
 20
3736.758661
 30
0.0
 40
4102.440348087352
100
AcDbArc
 50
304.511722
 51
304.802264
  0
LWPOLYLINE
  5
35E
330
27B
100
AcDbEntity
  8
0
  6
Continuous
 62
     0
370
     0
100
AcDbPolyline
 90
        3
 70
     0
 43
0.0
 10
274.705811
 20
356.305603
 10
274.687012
 20
356.160858
 10
274.57077
 20
355.985596
  0
ELLIPSE
  5
35F
330
27B
100
AcDbEntity
  8
0
  6
Continuous
 62
     0
370
     0
100
AcDbEllipse
 10
274.004387
 20
356.809589
 30
0.0
 11
-1.0
 21
-7.483676985903157E-9
 31
0.0
210
0.0
220
0.0
230
1.0
 40
0.707107
 41
0.7853981581047558
 42
2.348194655560751
  0
LINE
  5
360
330
27B
100
AcDbEntity
  8
0
  6
Continuous
 62
     0
370
     0
100
AcDbLine
 10
274.705815
 20
356.305605
 30
0.0
 11
274.705815
 21
359.491461
 31
0.0
  0
ELLIPSE
  5
361
330
27B
100
AcDbEntity
  8
0
  6
Continuous
 62
     0
370
     0
100
AcDbEllipse
 10
274.004387
 20
359.995445
 30
0.0
 11
1.0
 21
7.483676985903157E-9
 31
0.0
210
0.0
220
0.0
230
-1.0
 40
0.707107
 41
0.7933979980290791
 42
2.356194464167482
  0
LWPOLYLINE
  5
362
330
27B
100
AcDbEntity
  8
0
  6
Continuous
 62
     0
370
     0
100
AcDbPolyline
 90
        5
 70
     0
 43
0.0
 10
273.994232
 20
360.701172
 10
274.255646
 20
360.464783
 10
274.481049
 20
360.161133
 10
274.638184
 20
359.83374
 10
274.705811
 20
359.491455
  0
ARC
  5
363
330
27B
100
AcDbEntity
  8
0
  6
Continuous
 62
     0
370
     0
100
AcDbCircle
 10
2667.232962
 20
-3038.035286
 30
0.0
 40
4155.403006835309
100
AcDbArc
 50
124.865013
 51
125.15308
  0
ARC
  5
364
330
27B
100
AcDbEntity
  8
0
  6
Continuous
 62
     0
370
    30
100
AcDbCircle
 10
274.004387
 20
356.809626
 30
0.0
 40
1.00003007602226
100
AcDbArc
 50
234.514469
 51
304.502402
  0
ARC
  5
365
330
27B
100
AcDbEntity
  8
0
  6
Continuous
 62
     0
370
    30
100
AcDbCircle
 10
-2062.243325
 20
3754.496839
 30
0.0
 40
4124.388281881973
100
AcDbArc
 50
304.512391
 51
304.801444
  0
LWPOLYLINE
  5
366
330
27B
100
AcDbEntity
  8
0
  6
Continuous
 62
     0
370
    30
100
AcDbPolyline
 90
        5
 70
     0
 43
0.0
 10
256.309265
 20
385.2948
 10
256.358582
 20
382.27301
 10
256.359711
 20
379.301147
 10
256.312744
 20
376.355621
 10
256.24469
 20
372.924011
  0
ARC
  5
367
330
27B
100
AcDbEntity
  8
0
  6
Continuous
 62
     0
370
    30
100
AcDbCircle
 10
257.309055
 20
385.310255
 30
0.0
 40
0.99996024779686
100
AcDbArc
 50
126.031382
 51
180.334214
  0
ARC
  5
368
330
27B
100
AcDbEntity
  8
0
  6
Continuous
 62
     0
370
    30
100
AcDbCircle
 10
1981.959932
 20
-1986.681748
 30
0.0
 40
2933.70633892888
100
AcDbArc
 50
125.613427
 51
126.020513
  0
ARC
  5
369
330
27B
100
AcDbEntity
  8
0
  6
Continuous
 62
     0
370
    30
100
AcDbCircle
 10
243.799768
 20
378.167615
 30
0.0
 40
1.000109044378322
100
AcDbArc
 50
180.003245
 51
234.956047
  0
ARC
  5
36A
330
27B
100
AcDbEntity
  8
0
  6
Continuous
 62
     0
370
    30
100
AcDbCircle
 10
243.799645
 20
381.353421
 30
0.0
 40
0.9999856650668117
100
AcDbArc
 50
126.022666
 51
180.000421
  0
LINE
  5
36B
330
27B
100
AcDbEntity
  8
0
  6
Continuous
 62
     0
370
    30
100
AcDbLine
 10
242.799659
 20
381.353413
 30
0.0
 11
242.799659
 21
378.167558
 31
0.0
  0
ARC
  5
36C
330
27B
100
AcDbEntity
  8
0
  6
Continuous
 62
     0
370
    30
100
AcDbCircle
 10
2700.440728
 20
-2998.068245
 30
0.0
 40
4178.986959363173
100
AcDbArc
 50
125.729959
 51
126.014956
  0
ARC
  5
36D
330
27B
100
AcDbEntity
  8
0
  6
Continuous
 62
     0
370
    30
100
AcDbCircle
 10
260.494951
 20
352.852772
 30
0.0
 40
1.000003891472343
100
AcDbArc
 50
234.735763
 51
304.494661
  0
ARC
  5
36E
330
27B
100
AcDbEntity
  8
0
  6
Continuous
 62
     0
370
    30
100
AcDbCircle
 10
-1287.337456
 20
2605.055111
 30
0.0
 40
2733.800864972639
100
AcDbArc
 50
304.498901
 51
304.731466
  0
ARC
  5
36F
330
27B
100
AcDbEntity
  8
0
  6
Continuous
 62
     0
370
    30
100
AcDbCircle
 10
257.309208
 20
355.105566
 30
0.0
 40
1.000112246707652
100
AcDbArc
 50
179.667541
 51
234.732378
  0
LINE
  5
370
330
27B
100
AcDbEntity
  8
0
  6
Continuous
 62
     0
370
    30
100
AcDbLine
 10
256.731745
 20
354.289011
 30
0.0
 11
259.917601
 21
352.036271
 31
0.0
  0
LINE
  5
371
330
27B
100
AcDbEntity
  8
0
  6
Continuous
 62
     0
370
    30
100
AcDbLine
 10
256.244817
 20
372.921389
 30
0.0
 11
256.244864
 21
372.924022
 31
0.0
  0
LWPOLYLINE
  5
372
330
27B
100
AcDbEntity
  8
0
  6
Continuous
 62
     0
370
    30
100
AcDbPolyline
 90
        6
 70
     0
 43
0.0
 10
256.309204
 20
355.112
 10
256.348053
 20
357.457794
 10
256.368103
 20
359.799072
 10
256.345062
 20
362.175812
 10
256.302917
 20
364.569824
 10
256.244293
 20
367.608093
  0
LWPOLYLINE
  5
373
330
27B
100
AcDbEntity
  8
0
  6
Continuous
 62
     0
370
    30
100
AcDbPolyline
 90
        5
 70
     0
 43
0.0
 10
243.225571
 20
377.348755
 10
246.276596
 20
375.241486
 10
249.323639
 20
373.086029
 10
252.372604
 20
370.880646
 10
255.858566
 20
368.348053
  0
ARC
  5
374
330
27B
100
AcDbEntity
  8
0
  6
Continuous
 62
     0
370
    30
100
AcDbCircle
 10
255.309654
 20
367.591461
 30
0.0
 40
0.9349292200462163
100
AcDbArc
 50
1.035102
 51
54.051782
  0
LWPOLYLINE
  5
375
330
27B
100
AcDbEntity
  8
0
  6
Continuous
 62
     0
370
    30
100
AcDbPolyline
 90
        5
 70
     0
 43
0.0
 10
273.42395
 20
355.9953
 10
270.458099
 20
358.141418
 10
267.496338
 20
360.237762
 10
264.532776
 20
362.287018
 10
260.803009
 20
364.85202
  0
LWPOLYLINE
  5
376
330
27B
100
AcDbEntity
  8
0
  6
Continuous
 62
     0
370
    30
100
AcDbPolyline
 90
        4
 70
     0
 43
0.0
 10
283.980988
 20
380.691284
 10
284.145477
 20
380.785309
 10
284.286957
 20
380.833832
 10
284.360931
 20
380.84552
  0
LINE
  5
377
330
27B
100
AcDbEntity
  8
0
  6
Continuous
 62
     0
370
    30
100
AcDbLine
 10
282.574669
 20
379.696866
 30
0.0
 11
283.980984
 21
380.691281
 31
0.0
  0
LINE
  5
378
330
27B
100
AcDbEntity
  8
0
  6
Continuous
 62
     0
370
    30
100
AcDbLine
 10
303.632263
 20
360.90635
 30
0.0
 11
308.976596
 21
364.685364
 31
0.0
  0
LINE
  5
379
330
27B
100
AcDbEntity
  8
0
  6
Continuous
 62
     0
370
    30
100
AcDbLine
 10
266.104493
 20
413.978626
 30
0.0
 11
271.448826
 21
417.75764
 31
0.0
  0
LWPOLYLINE
  5
37A
330
27B
100
AcDbEntity
  8
0
  6
Continuous
 62
     0
370
    30
100
AcDbPolyline
 90
       15
 70
     0
 43
0.0
 10
285.683014
 20
363.653412
 10
287.161682
 20
362.72702
 10
288.631226
 20
361.902802
 10
290.085938
 20
361.184021
 10
291.520203
 20
360.573761
 10
292.928528
 20
360.074677
 10
294.305542
 20
359.689209
 10
295.646118
 20
359.419189
 10
296.945129
 20
359.266418
 10
298.197571
 20
359.232422
 10
299.398285
 20
359.318451
 10
300.541809
 20
359.524872
 10
301.622498
 20
359.851807
 10
302.634583
 20
360.29892
 10
303.632263
 20
360.906342
  0
LWPOLYLINE
  5
37B
330
27B
100
AcDbEntity
  8
0
  6
Continuous
 62
     0
370
    30
100
AcDbPolyline
 90
       17
 70
     0
 43
0.0
 10
266.104492
 20
413.978638
 10
265.244843
 20
413.282837
 10
264.472809
 20
412.474152
 10
263.793121
 20
411.558075
 10
263.208099
 20
410.540131
 10
262.719727
 20
409.425903
 10
262.329407
 20
408.220825
 10
262.037689
 20
406.930359
 10
261.844818
 20
405.559906
 10
261.750946
 20
404.115021
 10
261.75589
 20
402.601501
 10
261.859161
 20
401.025299
 10
262.060059
 20
399.392731
 10
262.357544
 20
397.710327
 10
262.750092
 20
395.985016
 10
263.235901
 20
394.223846
 10
263.848236
 20
392.33252
  0
ENDBLK
  5
37D
330
27B
100
AcDbEntity
  8
0
100
AcDbBlockEnd
  0
BLOCK
  5
447
330
37F
100
AcDbEntity
  8
0
100
AcDbBlockBegin
  2
e
 70
     0
 10
-34.855927
 20
0.0
 30
0.0
  3
e
  1

  0
LINE
  5
380
330
37F
100
AcDbEntity
  8
0
  6
Continuous
 62
     0
370
    30
100
AcDbLine
 10
-74.68682
 20
597.929161
 30
0.0
 11
-74.68682
 21
582.929161
 31
0.0
  0
LINE
  5
381
330
37F
100
AcDbEntity
  8
0
  6
Continuous
 62
     0
370
    30
100
AcDbLine
 10
-74.728088
 20
573.596379
 30
0.0
 11
-74.68682
 21
582.929161
 31
0.0
  0
LINE
  5
382
330
37F
100
AcDbEntity
  8
0
  6
Continuous
 62
     0
370
    30
100
AcDbLine
 10
-74.860741
 20
558.596965
 30
0.0
 11
-74.68682
 21
597.929161
 31
0.0
  0
LINE
  5
383
330
37F
100
AcDbEntity
  8
0
  6
Continuous
 62
     0
370
    30
100
AcDbLine
 10
-74.68682
 20
582.929161
 30
0.0
 11
-74.42908
 21
582.929161
 31
0.0
  0
LINE
  5
384
330
37F
100
AcDbEntity
  8
0
  6
Continuous
 62
     0
370
    30
100
AcDbLine
 10
-64.18682
 20
638.216249
 30
0.0
 11
-64.18682
 21
578.216249
 31
0.0
  0
LINE
  5
385
330
37F
100
AcDbEntity
  8
0
  6
Continuous
 62
     0
370
    30
100
AcDbLine
 10
-64.717431
 20
518.218596
 30
0.0
 11
-64.18682
 21
638.216249
 31
0.0
  0
LINE
  5
386
330
37F
100
AcDbEntity
  8
0
  6
Continuous
 62
     0
370
     0
100
AcDbLine
 10
-74.712619
 20
518.807011
 30
0.0
 11
-74.18682
 21
637.716249
 31
0.0
  0
LINE
  5
387
330
37F
100
AcDbEntity
  8
0
  6
Continuous
 62
     0
370
    30
100
AcDbLine
 10
-73.68682
 20
638.216249
 30
0.0
 11
-64.18682
 21
638.216249
 31
0.0
  0
LINE
  5
388
330
37F
100
AcDbEntity
  8
0
  6
Continuous
 62
     0
370
     0
100
AcDbLine
 10
-74.21706
 20
518.302609
 30
0.0
 11
-73.68682
 21
638.216249
 31
0.0
  0
LINE
  5
389
330
37F
100
AcDbEntity
  8
0
  6
Continuous
 62
     0
370
     0
100
AcDbLine
 10
-112.337248
 20
597.327099
 30
0.0
 11
-112.336797
 21
597.429161
 31
0.0
  0
LINE
  5
38A
330
37F
100
AcDbEntity
  8
0
  6
Continuous
 62
     0
370
     0
100
AcDbLine
 10
-112.504824
 20
559.429904
 30
0.0
 11
-112.504372
 21
559.531984
 31
0.0
  0
LINE
  5
38B
330
37F
100
AcDbEntity
  8
0
  6
Continuous
 62
     0
370
    30
100
AcDbLine
 10
-97.42081
 20
597.929161
 30
0.0
 11
-74.68682
 21
597.929161
 31
0.0
  0
LWPOLYLINE
  5
38C
330
37F
100
AcDbEntity
  8
0
  6
Continuous
 62
     0
370
    30
100
AcDbPolyline
 90
       17
 70
     0
 43
0.0
 10
-105.420807
 20
597.929138
 10
-105.343666
 20
597.913513
 10
-105.115631
 20
597.868958
 10
-104.746414
 20
597.802307
 10
-104.250526
 20
597.723511
 10
-103.646576
 20
597.644409
 10
-102.956627
 20
597.576965
 10
-102.206306
 20
597.531616
 10
-101.42466
 20
597.515564
 10
-100.642853
 20
597.531433
 10
-99.892075
 20
597.57666
 10
-99.201393
 20
597.643982
 10
-98.596565
 20
597.722961
 10
-98.099449
 20
597.801758
 10
-97.729019
 20
597.868408
 10
-97.499443
 20
597.913208
 10
-97.420807
 20
597.929138
  0
LINE
  5
38D
330
37F
100
AcDbEntity
  8
0
  6
Continuous
 62
     0
370
    30
100
AcDbLine
 10
-111.836797
 20
597.929161
 30
0.0
 11
-105.42081
 21
597.929161
 31
0.0
  0
LINE
  5
38E
330
37F
100
AcDbEntity
  8
0
  6
Continuous
 62
     0
370
     0
100
AcDbLine
 10
-112.009265
 20
558.925502
 30
0.0
 11
-111.836797
 21
597.929161
 31
0.0
  0
ARC
  5
38F
330
37F
100
AcDbEntity
  8
0
  6
Continuous
 62
     0
370
    30
100
AcDbCircle
 10
-111.836797
 20
597.429161
 30
0.0
 40
0.5
100
AcDbArc
 50
90.0
 51
180.0
  0
ARC
  5
390
330
37F
100
AcDbEntity
  8
0
  6
Continuous
 62
     0
370
    30
100
AcDbCircle
 10
-73.68682
 20
637.716249
 30
0.0
 40
0.5
100
AcDbArc
 50
90.0
 51
180.0
  0
LINE
  5
391
330
37F
100
AcDbEntity
  8
0
  6
Continuous
 62
     0
370
     0
100
AcDbLine
 10
-97.42081
 20
604.929533
 30
0.0
 11
-97.59434
 21
604.929533
 31
0.0
  0
LINE
  5
392
330
37F
100
AcDbEntity
  8
0
  6
Continuous
 62
     0
370
     0
100
AcDbLine
 10
-97.59434
 20
604.929533
 30
0.0
 11
-105.42081
 21
604.929533
 31
0.0
  0
LINE
  5
393
330
37F
100
AcDbEntity
  8
0
  6
Continuous
 62
     0
370
    30
100
AcDbLine
 10
-98.072649
 20
605.429533
 30
0.0
 11
-104.92081
 21
605.429533
 31
0.0
  0
LINE
  5
394
330
37F
100
AcDbEntity
  8
0
  6
Continuous
 62
     0
370
    30
100
AcDbLine
 10
-97.92081
 20
605.429533
 30
0.0
 11
-98.072649
 21
605.429533
 31
0.0
  0
ARC
  5
395
330
37F
100
AcDbEntity
  8
0
  6
Continuous
 62
     0
370
    30
100
AcDbCircle
 10
-104.920819
 20
604.929529
 30
0.0
 40
0.500003533445875
100
AcDbArc
 50
90.010106
 51
179.999595
  0
ARC
  5
396
330
37F
100
AcDbEntity
  8
0
  6
Continuous
 62
     0
370
    30
100
AcDbCircle
 10
-97.920945
 20
604.929539
 30
0.0
 40
0.49999399232341
100
AcDbArc
 50
359.999311
 51
89.985859
  0
LINE
  5
397
330
37F
100
AcDbEntity
  8
0
  6
Continuous
 62
     0
370
    30
100
AcDbLine
 10
-97.42081
 20
604.929533
 30
0.0
 11
-97.42081
 21
597.929161
 31
0.0
  0
LINE
  5
398
330
37F
100
AcDbEntity
  8
0
  6
Continuous
 62
     0
370
    30
100
AcDbLine
 10
-105.42081
 20
604.929533
 30
0.0
 11
-105.42081
 21
597.929161
 31
0.0
  0
ARC
  5
399
330
37F
100
AcDbEntity
  8
0
  6
Continuous
 62
     0
370
    30
100
AcDbCircle
 10
-74.212635
 20
518.802592
 30
0.0
 40
0.5000027409869732
100
AcDbArc
 50
179.493611
 51
269.492982
  0
ARC
  5
39A
330
37F
100
AcDbEntity
  8
0
  6
Continuous
 62
     0
370
    30
100
AcDbCircle
 10
-112.00484
 20
559.425486
 30
0.0
 40
0.5000033410513881
100
AcDbArc
 50
179.726677
 51
269.492916
  0
LINE
  5
39B
330
37F
100
AcDbEntity
  8
0
  6
Continuous
 62
     0
370
    30
100
AcDbLine
 10
-112.504838
 20
559.427871
 30
0.0
 11
-112.336792
 21
597.431319
 31
0.0
  0
LINE
  5
39C
330
37F
100
AcDbEntity
  8
0
  6
Continuous
 62
     0
370
    30
100
AcDbLine
 10
-74.860741
 20
558.596965
 30
0.0
 11
-112.009265
 21
558.925502
 31
0.0
  0
LINE
  5
39D
330
37F
100
AcDbEntity
  8
0
  6
Continuous
 62
     0
370
    30
100
AcDbLine
 10
-64.717431
 20
518.218596
 30
0.0
 11
-74.21706
 21
518.302609
 31
0.0
  0
LINE
  5
39E
330
37F
100
AcDbEntity
  8
0
  6
Continuous
 62
     0
370
    30
100
AcDbLine
 10
-64.717431
 20
518.218596
 30
0.0
 11
-64.18682
 21
578.216249
 31
0.0
  0
LINE
  5
39F
330
37F
100
AcDbEntity
  8
0
  6
Continuous
 62
     0
370
    30
100
AcDbLine
 10
-74.728088
 20
573.596379
 30
0.0
 11
-74.470358
 21
573.594099
 31
0.0
  0
LINE
  5
3A0
330
37F
100
AcDbEntity
  8
0
  6
Continuous
 62
     0
370
    30
100
AcDbLine
 10
-74.860741
 20
558.596965
 30
0.0
 11
-74.728088
 21
573.596379
 31
0.0
  0
LINE
  5
3A1
330
37F
100
AcDbEntity
  8
0
  6
Continuous
 62
     0
370
     0
100
AcDbLine
 10
-72.506426
 20
728.217422
 30
0.0
 11
-72.506425
 21
696.15647
 31
0.0
  0
LINE
  5
3A2
330
37F
100
AcDbEntity
  8
0
  6
Continuous
 62
     0
370
     0
100
AcDbLine
 10
-72.506425
 20
760.278375
 30
0.0
 11
-72.506426
 21
728.217422
 31
0.0
  0
LINE
  5
3A3
330
37F
100
AcDbEntity
  8
0
  6
Continuous
 62
     0
370
     0
100
AcDbLine
 10
-72.010155
 20
728.217422
 30
0.0
 11
-72.010154
 21
760.717422
 31
0.0
  0
LINE
  5
3A4
330
37F
100
AcDbEntity
  8
0
  6
Continuous
 62
     0
370
     0
100
AcDbLine
 10
-72.010154
 20
695.717422
 30
0.0
 11
-72.010155
 21
728.217422
 31
0.0
  0
LINE
  5
3A5
330
37F
100
AcDbEntity
  8
0
  6
Continuous
 62
     0
370
     0
100
AcDbLine
 10
-74.34896
 20
728.217422
 30
0.0
 11
-74.348947
 21
720.307233
 31
0.0
  0
LINE
  5
3A6
330
37F
100
AcDbEntity
  8
0
  6
Continuous
 62
     0
370
     0
100
AcDbLine
 10
-74.348947
 20
736.127612
 30
0.0
 11
-74.34896
 21
728.217422
 31
0.0
  0
LINE
  5
3A7
330
37F
100
AcDbEntity
  8
0
  6
Continuous
 62
     0
370
    30
100
AcDbLine
 10
-64.452126
 20
728.217422
 30
0.0
 11
-64.452126
 21
760.717422
 31
0.0
  0
LINE
  5
3A8
330
37F
100
AcDbEntity
  8
0
  6
Continuous
 62
     0
370
    30
100
AcDbLine
 10
-64.452126
 20
695.717422
 30
0.0
 11
-64.452126
 21
728.217422
 31
0.0
  0
LWPOLYLINE
  5
3A9
330
37F
100
AcDbEntity
  8
0
  6
Continuous
 62
     0
370
     0
100
AcDbPolyline
 90
       12
 70
     0
 43
0.0
 10
-69.573128
 20
695.717407
 10
-69.507858
 20
695.720642
 10
-69.315971
 20
695.729248
 10
-69.014664
 20
695.740479
 10
-68.626518
 20
695.750854
 10
-68.184509
 20
695.757019
 10
-67.723724
 20
695.75708
 10
-67.281502
 20
695.750916
 10
-66.892403
 20
695.740601
 10
-66.590469
 20
695.729309
 10
-66.398895
 20
695.720703
 10
-66.331123
 20
695.717407
  0
LINE
  5
3AA
330
37F
100
AcDbEntity
  8
0
  6
Continuous
 62
     0
370
     0
100
AcDbLine
 10
-77.347603
 20
728.217422
 30
0.0
 11
-77.347603
 21
733.217422
 31
0.0
  0
LINE
  5
3AB
330
37F
100
AcDbEntity
  8
0
  6
Continuous
 62
     0
370
     0
100
AcDbLine
 10
-77.347603
 20
723.217422
 30
0.0
 11
-77.347603
 21
728.217422
 31
0.0
  0
LINE
  5
3AC
330
37F
100
AcDbEntity
  8
0
  6
Continuous
 62
     0
370
    30
100
AcDbLine
 10
-79.732126
 20
728.217422
 30
0.0
 11
-79.732126
 21
723.217422
 31
0.0
  0
LINE
  5
3AD
330
37F
100
AcDbEntity
  8
0
  6
Continuous
 62
     0
370
    30
100
AcDbLine
 10
-79.732126
 20
733.217422
 30
0.0
 11
-79.732126
 21
728.217422
 31
0.0
  0
LWPOLYLINE
  5
3AE
330
37F
100
AcDbEntity
  8
0
  6
Continuous
 62
     0
370
     0
100
AcDbPolyline
 90
        8
 70
     0
 43
0.0
 10
-108.861748
 20
732.516418
 10
-109.133469
 20
732.369324
 10
-109.356483
 20
732.107544
 10
-109.525047
 20
731.773193
 10
-109.641144
 20
731.397766
 10
-109.709167
 20
730.999573
 10
-109.732124
 20
730.588806
 10
-109.732124
 20
730.582642
  0
LWPOLYLINE
  5
3AF
330
37F
100
AcDbEntity
  8
0
  6
Continuous
 62
     0
370
     0
100
AcDbPolyline
 90
        7
 70
     0
 43
0.0
 10
-109.732124
 20
730.582642
 10
-109.732124
 20
730.585693
 10
-109.702072
 20
730.819275
 10
-109.611877
 20
731.044556
 10
-109.456459
 20
731.251709
 10
-109.229729
 20
731.423584
 10
-108.861748
 20
731.543396
  0
LWPOLYLINE
  5
3B0
330
37F
100
AcDbEntity
  8
0
  6
Continuous
 62
     0
370
     0
100
AcDbPolyline
 90
        5
 70
     0
 43
0.0
 10
-108.861748
 20
731.543396
 10
-108.825912
 20
731.624207
 10
-108.812798
 20
731.830139
 10
-108.824303
 20
732.132996
 10
-108.861748
 20
732.516418
  0
LINE
  5
3B1
330
37F
100
AcDbEntity
  8
0
  6
Continuous
 62
     0
370
    30
100
AcDbLine
 10
-84.732126
 20
733.355292
 30
0.0
 11
-84.732126
 21
734.235281
 31
0.0
  0
LWPOLYLINE
  5
3B2
330
37F
100
AcDbEntity
  8
0
  6
Continuous
 62
     0
370
     0
100
AcDbPolyline
 90
        6
 70
     0
 43
0.0
 10
-84.732124
 20
734.235291
 10
-89.38932
 20
734.070801
 10
-94.040359
 20
733.839111
 10
-98.681961
 20
733.529846
 10
-103.310081
 20
733.130188
 10
-108.861748
 20
732.516418
  0
LWPOLYLINE
  5
3B3
330
37F
100
AcDbEntity
  8
0
  6
Continuous
 62
     0
370
     0
100
AcDbPolyline
 90
        6
 70
     0
 43
0.0
 10
-108.861748
 20
731.543396
 10
-104.285881
 20
732.079285
 10
-99.68869
 20
732.518555
 10
-95.076927
 20
732.866821
 10
-90.455093
 20
733.131531
 10
-84.732124
 20
733.355286
  0
LWPOLYLINE
  5
3B4
330
37F
100
AcDbEntity
  8
0
  6
Continuous
 62
     0
370
     0
100
AcDbPolyline
 90
        2
 70
     0
 43
0.0
 10
-108.839775
 20
731.464355
 10
-108.861748
 20
731.543396
  0
ARC
  5
3B5
330
37F
100
AcDbEntity
  8
0
  6
Continuous
 62
     0
370
     0
100
AcDbCircle
 10
-83.456068
 20
-2343.515676
 30
0.0
 40
3075.090028903507
100
AcDbArc
 50
90.023776
 51
90.456203
  0
LINE
  5
3B6
330
37F
100
AcDbEntity
  8
0
  6
Continuous
 62
     0
370
    30
100
AcDbLine
 10
-84.732126
 20
733.355292
 30
0.0
 11
-84.732126
 21
731.574088
 31
0.0
  0
LINE
  5
3B7
330
37F
100
AcDbEntity
  8
0
  6
Continuous
 62
     0
370
    30
100
AcDbLine
 10
-109.732126
 20
730.582648
 30
0.0
 11
-109.732126
 21
730.470163
 31
0.0
  0
LWPOLYLINE
  5
3B8
330
37F
100
AcDbEntity
  8
0
  6
Continuous
 62
     0
370
     0
100
AcDbPolyline
 90
        3
 70
     0
 43
0.0
 10
-108.861748
 20
732.516418
 10
-108.847908
 20
735.311279
 10
-108.740654
 20
749.56958
  0
ARC
  5
3B9
330
37F
100
AcDbEntity
  8
0
  6
Continuous
 62
     0
370
     0
100
AcDbCircle
 10
-108.987173
 20
791.908122
 30
0.0
 40
42.33928554415922
100
AcDbArc
 50
268.991838
 51
270.333602
  0
LINE
  5
3BA
330
37F
100
AcDbEntity
  8
0
  6
Continuous
 62
     0
370
    30
100
AcDbLine
 10
-109.732126
 20
749.575391
 30
0.0
 11
-109.732126
 21
730.582648
 31
0.0
  0
LINE
  5
3BB
330
37F
100
AcDbEntity
  8
0
  6
Continuous
 62
     0
370
    30
100
AcDbLine
 10
-84.732126
 20
722.199564
 30
0.0
 11
-84.732126
 21
723.079553
 31
0.0
  0
LWPOLYLINE
  5
3BC
330
37F
100
AcDbEntity
  8
0
  6
Continuous
 62
     0
370
     0
100
AcDbPolyline
 90
        6
 70
     0
 43
0.0
 10
-84.732124
 20
723.079529
 10
-89.361923
 20
723.252075
 10
-93.985649
 20
723.49823
 10
-98.600098
 20
723.825989
 10
-103.201317
 20
724.243286
 10
-108.861748
 20
724.891479
  0
LWPOLYLINE
  5
3BD
330
37F
100
AcDbEntity
  8
0
  6
Continuous
 62
     0
370
     0
100
AcDbPolyline
 90
        5
 70
     0
 43
0.0
 10
-108.861748
 20
724.891479
 10
-108.825882
 20
724.810791
 10
-108.812775
 20
724.60498
 10
-108.824181
 20
724.302368
 10
-108.861748
 20
723.918457
  0
LWPOLYLINE
  5
3BE
330
37F
100
AcDbEntity
  8
0
  6
Continuous
 62
     0
370
     0
100
AcDbPolyline
 90
        6
 70
     0
 43
0.0
 10
-108.861748
 20
723.918457
 10
-104.25872
 20
723.398743
 10
-99.634148
 20
722.979431
 10
-94.994904
 20
722.652527
 10
-90.345535
 20
722.406006
 10
-84.732124
 20
722.199585
  0
LWPOLYLINE
  5
3BF
330
37F
100
AcDbEntity
  8
0
  6
Continuous
 62
     0
370
     0
100
AcDbPolyline
 90
        7
 70
     0
 43
0.0
 10
-108.861748
 20
724.891479
 10
-109.169983
 20
724.980774
 10
-109.412247
 20
725.141174
 10
-109.58313
 20
725.342407
 10
-109.687202
 20
725.56427
 10
-109.732124
 20
725.849121
 10
-109.732124
 20
725.852173
  0
LWPOLYLINE
  5
3C0
330
37F
100
AcDbEntity
  8
0
  6
Continuous
 62
     0
370
     0
100
AcDbPolyline
 90
        8
 70
     0
 43
0.0
 10
-109.732124
 20
725.852173
 10
-109.732124
 20
725.846069
 10
-109.709373
 20
725.4375
 10
-109.641571
 20
725.039307
 10
-109.52581
 20
724.664185
 10
-109.357841
 20
724.329895
 10
-109.135468
 20
724.0672
 10
-108.861748
 20
723.918457
  0
LINE
  5
3C1
330
37F
100
AcDbEntity
  8
0
  6
Continuous
 62
     0
370
    30
100
AcDbLine
 10
-109.732126
 20
725.852197
 30
0.0
 11
-109.732126
 21
706.859454
 31
0.0
  0
ARC
  5
3C2
330
37F
100
AcDbEntity
  8
0
  6
Continuous
 62
     0
370
     0
100
AcDbCircle
 10
-108.987173
 20
664.526832
 30
0.0
 40
42.33917700298829
100
AcDbArc
 50
89.666397
 51
91.008164
  0
LWPOLYLINE
  5
3C3
330
37F
100
AcDbEntity
  8
0
  6
Continuous
 62
     0
370
     0
100
AcDbPolyline
 90
        3
 70
     0
 43
0.0
 10
-108.740654
 20
706.865295
 10
-108.761993
 20
709.660278
 10
-108.861748
 20
723.918457
  0
LWPOLYLINE
  5
3C4
330
37F
100
AcDbEntity
  8
0
  6
Continuous
 62
     0
370
     0
100
AcDbPolyline
 90
        2
 70
     0
 43
0.0
 10
-108.861748
 20
724.891479
 10
-108.839775
 20
724.97052
  0
LINE
  5
3C5
330
37F
100
AcDbEntity
  8
0
  6
Continuous
 62
     0
370
    30
100
AcDbLine
 10
-109.732126
 20
725.964682
 30
0.0
 11
-109.732126
 21
725.852197
 31
0.0
  0
LINE
  5
3C6
330
37F
100
AcDbEntity
  8
0
  6
Continuous
 62
     0
370
    30
100
AcDbLine
 10
-84.732126
 20
724.860757
 30
0.0
 11
-84.732126
 21
723.079553
 31
0.0
  0
ARC
  5
3C7
330
37F
100
AcDbEntity
  8
0
  6
Continuous
 62
     0
370
     0
100
AcDbCircle
 10
-83.456227
 20
3799.912762
 30
0.0
 40
3075.052269271289
100
AcDbArc
 50
269.543795
 51
269.976227
  0
ARC
  5
3C8
330
37F
100
AcDbEntity
  8
0
  6
Continuous
 62
     0
370
    30
100
AcDbCircle
 10
-108.732126
 20
706.859455
 30
0.0
 40
1.0
100
AcDbArc
 50
180.000002
 51
269.541644
  0
LINE
  5
3C9
330
37F
100
AcDbEntity
  8
0
  6
Continuous
 62
     0
370
    30
100
AcDbLine
 10
-84.732126
 20
705.667423
 30
0.0
 11
-84.732126
 21
706.554321
 31
0.0
  0
ARC
  5
3CA
330
37F
100
AcDbEntity
  8
0
  6
Continuous
 62
     0
370
     0
100
AcDbCircle
 10
-37.491423
 20
5280.728116
 30
0.0
 40
4574.417732598044
100
AcDbArc
 50
269.107549
 51
269.408287
  0
LWPOLYLINE
  5
3CB
330
37F
100
AcDbEntity
  8
0
  6
Continuous
 62
     0
370
     0
100
AcDbPolyline
 90
        5
 70
     0
 43
0.0
 10
-108.740654
 20
706.865295
 10
-108.743088
 20
706.4823
 10
-108.743851
 20
706.156677
 10
-108.742828
 20
705.937988
 10
-108.740128
 20
705.859497
  0
LINE
  5
3CC
330
37F
100
AcDbEntity
  8
0
  6
Continuous
 62
     0
370
    30
100
AcDbLine
 10
-108.740125
 20
705.859487
 30
0.0
 11
-84.732126
 21
705.667423
 31
0.0
  0
LINE
  5
3CD
330
37F
100
AcDbEntity
  8
0
  6
Continuous
 62
     0
370
    30
100
AcDbLine
 10
-84.732126
 20
749.880524
 30
0.0
 11
-84.732126
 21
750.767423
 31
0.0
  0
LINE
  5
3CE
330
37F
100
AcDbEntity
  8
0
  6
Continuous
 62
     0
370
    30
100
AcDbLine
 10
-84.732126
 20
734.235281
 30
0.0
 11
-84.732126
 21
749.880524
 31
0.0
  0
LINE
  5
3CF
330
37F
100
AcDbEntity
  8
0
  6
Continuous
 62
     0
370
    30
100
AcDbLine
 10
-84.732127
 20
730.580515
 30
0.0
 11
-84.732126
 21
731.574088
 31
0.0
  0
LINE
  5
3D0
330
37F
100
AcDbEntity
  8
0
  6
Continuous
 62
     0
370
    30
100
AcDbLine
 10
-84.732127
 20
725.854331
 30
0.0
 11
-84.732127
 21
730.580515
 31
0.0
  0
LINE
  5
3D1
330
37F
100
AcDbEntity
  8
0
  6
Continuous
 62
     0
370
    30
100
AcDbLine
 10
-84.732126
 20
724.860757
 30
0.0
 11
-84.732127
 21
725.854331
 31
0.0
  0
LINE
  5
3D2
330
37F
100
AcDbEntity
  8
0
  6
Continuous
 62
     0
370
    30
100
AcDbLine
 10
-84.732126
 20
706.554321
 30
0.0
 11
-84.732126
 21
722.199564
 31
0.0
  0
LINE
  5
3D3
330
37F
100
AcDbEntity
  8
0
  6
Continuous
 62
     0
370
    30
100
AcDbLine
 10
-109.732126
 20
730.470163
 30
0.0
 11
-109.732126
 21
725.964682
 31
0.0
  0
LINE
  5
3D4
330
37F
100
AcDbEntity
  8
0
  6
Continuous
 62
     0
370
    30
100
AcDbLine
 10
-84.732126
 20
750.767423
 30
0.0
 11
-108.740125
 21
750.575359
 31
0.0
  0
LWPOLYLINE
  5
3D5
330
37F
100
AcDbEntity
  8
0
  6
Continuous
 62
     0
370
     0
100
AcDbPolyline
 90
        5
 70
     0
 43
0.0
 10
-108.740128
 20
750.575378
 10
-108.742798
 20
750.499146
 10
-108.743843
 20
750.28241
 10
-108.743111
 20
749.95813
 10
-108.740654
 20
749.56958
  0
ARC
  5
3D6
330
37F
100
AcDbEntity
  8
0
  6
Continuous
 62
     0
370
     0
100
AcDbCircle
 10
-37.491424
 20
-3824.293169
 30
0.0
 40
4574.417630504086
100
AcDbArc
 50
90.591713
 51
90.892451
  0
ARC
  5
3D7
330
37F
100
AcDbEntity
  8
0
  6
Continuous
 62
     0
370
    30
100
AcDbCircle
 10
-108.732126
 20
749.575391
 30
0.0
 40
1.0
100
AcDbArc
 50
90.458356
 51
180.0
  0
ARC
  5
3D8
330
37F
100
AcDbEntity
  8
0
  6
Continuous
 62
     0
370
     0
100
AcDbCircle
 10
-82.12824
 20
3903.982251
 30
0.0
 40
3178.128986626934
100
AcDbArc
 50
269.520231
 51
269.953057
  0
LWPOLYLINE
  5
3D9
330
37F
100
AcDbEntity
  8
0
  6
Continuous
 62
     0
370
     0
100
AcDbPolyline
 90
        5
 70
     0
 43
0.0
 10
-108.740128
 20
725.964661
 10
-108.742798
 20
725.582275
 10
-108.743843
 20
725.258118
 10
-108.743118
 20
725.04126
 10
-108.740654
 20
724.964722
  0
LINE
  5
3DA
330
37F
100
AcDbEntity
  8
0
  6
Continuous
 62
     0
370
     0
100
AcDbLine
 10
-109.732126
 20
725.964682
 30
0.0
 11
-108.740126
 21
725.964682
 31
0.0
  0
LINE
  5
3DB
330
37F
100
AcDbEntity
  8
0
  6
Continuous
 62
     0
370
     0
100
AcDbLine
 10
-108.740126
 20
725.964682
 30
0.0
 11
-108.740126
 21
730.470163
 31
0.0
  0
LINE
  5
3DC
330
37F
100
AcDbEntity
  8
0
  6
Continuous
 62
     0
370
     0
100
AcDbLine
 10
-108.740126
 20
730.470163
 30
0.0
 11
-109.732126
 21
730.470163
 31
0.0
  0
LWPOLYLINE
  5
3DD
330
37F
100
AcDbEntity
  8
0
  6
Continuous
 62
     0
370
     0
100
AcDbPolyline
 90
        5
 70
     0
 43
0.0
 10
-108.740654
 20
731.470093
 10
-108.743088
 20
731.396301
 10
-108.743851
 20
731.181763
 10
-108.742828
 20
730.859131
 10
-108.740128
 20
730.470154
  0
ARC
  5
3DE
330
37F
100
AcDbEntity
  8
0
  6
Continuous
 62
     0
370
     0
100
AcDbCircle
 10
-82.12824
 20
-2447.54738
 30
0.0
 40
3178.128961591437
100
AcDbArc
 50
90.046943
 51
90.479769
  0
LINE
  5
3DF
330
37F
100
AcDbEntity
  8
0
  6
Continuous
 62
     0
370
    30
100
AcDbLine
 10
-84.732126
 20
723.317422
 30
0.0
 11
-79.732126
 21
723.317422
 31
0.0
  0
LINE
  5
3E0
330
37F
100
AcDbEntity
  8
0
  6
Continuous
 62
     0
370
    30
100
AcDbLine
 10
-84.732126
 20
733.117422
 30
0.0
 11
-79.732126
 21
733.117422
 31
0.0
  0
ARC
  5
3E1
330
37F
100
AcDbEntity
  8
0
  6
Continuous
 62
     0
370
    30
100
AcDbCircle
 10
-108.732009
 20
730.470046
 30
0.0
 40
1.000117497802474
100
AcDbArc
 50
90.497411
 51
179.958699
  0
LINE
  5
3E2
330
37F
100
AcDbEntity
  8
0
  6
Continuous
 62
     0
370
    30
100
AcDbLine
 10
-107.940098
 20
731.476876
 30
0.0
 11
-108.740703
 21
731.470126
 31
0.0
  0
ARC
  5
3E3
330
37F
100
AcDbEntity
  8
0
  6
Continuous
 62
     0
370
    30
100
AcDbCircle
 10
-108.732009
 20
725.964799
 30
0.0
 40
1.000117497751919
100
AcDbArc
 50
180.041299
 51
269.502589
  0
LINE
  5
3E4
330
37F
100
AcDbEntity
  8
0
  6
Continuous
 62
     0
370
    30
100
AcDbLine
 10
-108.740703
 20
724.964719
 30
0.0
 11
-107.940101
 21
724.957969
 31
0.0
  0
LWPOLYLINE
  5
3E5
330
37F
100
AcDbEntity
  8
0
  6
Continuous
 62
     0
370
    30
100
AcDbPolyline
 90
        7
 70
     0
 43
0.0
 10
-106.172874
 20
724.933533
 10
-106.234558
 20
724.934937
 10
-106.408401
 20
724.938538
 10
-106.668983
 20
724.943115
 10
-106.990189
 20
724.947815
 10
-107.352074
 20
724.952271
 10
-107.7957
 20
724.956787
  0
LINE
  5
3E6
330
37F
100
AcDbEntity
  8
0
  6
Continuous
 62
     0
370
    30
100
AcDbLine
 10
-106.589467
 20
724.947128
 30
0.0
 11
-106.172876
 21
724.933506
 31
0.0
  0
LWPOLYLINE
  5
3E7
330
37F
100
AcDbEntity
  8
0
  6
Continuous
 62
     0
370
    30
100
AcDbPolyline
 90
        4
 70
     0
 43
0.0
 10
-106.172775
 20
731.501343
 10
-106.21936
 20
731.5
 10
-106.34449
 20
731.496155
 10
-106.589401
 20
731.487732
  0
LWPOLYLINE
  5
3E8
330
37F
100
AcDbEntity
  8
0
  6
Continuous
 62
     0
370
    30
100
AcDbPolyline
 90
        8
 70
     0
 43
0.0
 10
-107.929169
 20
731.47699
 10
-107.566223
 20
731.480286
 10
-107.222023
 20
731.48407
 10
-106.904022
 20
731.48822
 10
-106.62278
 20
731.492493
 10
-106.394302
 20
731.496582
 10
-106.238403
 20
731.499817
 10
-106.172775
 20
731.501343
  0
LINE
  5
3E9
330
37F
100
AcDbEntity
  8
0
  6
Continuous
 62
     0
370
    30
100
AcDbLine
 10
-66.331126
 20
695.717422
 30
0.0
 11
-69.573126
 21
695.717422
 31
0.0
  0
ARC
  5
3EA
330
37F
100
AcDbEntity
  8
0
  6
Continuous
 62
     0
370
    30
100
AcDbCircle
 10
-77.347603
 20
720.217422
 30
0.0
 40
3.000000042508508
100
AcDbArc
 50
1.736703
 51
90.0
  0
ARC
  5
3EB
330
37F
100
AcDbEntity
  8
0
  6
Continuous
 62
     0
370
    30
100
AcDbCircle
 10
-77.347603
 20
736.217423
 30
0.0
 40
3.000000042539078
100
AcDbArc
 50
270.0
 51
358.263296
  0
LINE
  5
3EC
330
37F
100
AcDbEntity
  8
0
  6
Continuous
 62
     0
370
    30
100
AcDbLine
 10
-79.732126
 20
723.217422
 30
0.0
 11
-77.347603
 21
723.217422
 31
0.0
  0
LINE
  5
3ED
330
37F
100
AcDbEntity
  8
0
  6
Continuous
 62
     0
370
    30
100
AcDbLine
 10
-79.732126
 20
733.217422
 30
0.0
 11
-77.347603
 21
733.217422
 31
0.0
  0
LINE
  5
3EE
330
37F
100
AcDbEntity
  8
0
  6
Continuous
 62
     0
370
    30
100
AcDbLine
 10
-72.010154
 20
695.717422
 30
0.0
 11
-69.573126
 21
695.717422
 31
0.0
  0
LINE
  5
3EF
330
37F
100
AcDbEntity
  8
0
  6
Continuous
 62
     0
370
    30
100
AcDbLine
 10
-66.331126
 20
695.717422
 30
0.0
 11
-64.452126
 21
695.717422
 31
0.0
  0
LINE
  5
3F0
330
37F
100
AcDbEntity
  8
0
  6
Continuous
 62
     0
370
    30
100
AcDbLine
 10
-72.010154
 20
760.717422
 30
0.0
 11
-64.452126
 21
760.717422
 31
0.0
  0
LWPOLYLINE
  5
3F1
330
37F
100
AcDbEntity
  8
0
  6
Continuous
 62
     0
370
    30
100
AcDbPolyline
 90
       46
 70
     0
 43
0.0
 10
-72.506432
 20
760.27832
 10
-72.571503
 20
759.743958
 10
-72.635483
 20
759.209473
 10
-72.698372
 20
758.674866
 10
-72.760162
 20
758.140137
 10
-72.820854
 20
757.605286
 10
-72.880463
 20
757.070312
 10
-72.938965
 20
756.535217
 10
-72.996376
 20
756.0
 10
-73.052689
 20
755.464661
 10
-73.10791
 20
754.929199
 10
-73.162033
 20
754.393677
 10
-73.215057
 20
753.857971
 10
-73.266991
 20
753.322205
 10
-73.317825
 20
752.786316
 10
-73.367569
 20
752.250366
 10
-73.416214
 20
751.714233
 10
-73.46376
 20
751.178101
 10
-73.510201
 20
750.641785
 10
-73.55555
 20
750.105408
 10
-73.599792
 20
749.56897
 10
-73.642929
 20
749.03241
 10
-73.684982
 20
748.495789
 10
-73.72596
 20
747.959045
 10
-73.765869
 20
747.42218
 10
-73.80468
 20
746.885315
 10
-73.842369
 20
746.348328
 10
-73.878914
 20
745.811279
 10
-73.914291
 20
745.27417
 10
-73.948479
 20
744.737061
 10
-73.981628
 20
744.199829
 10
-74.013977
 20
743.662415
 10
-74.045616
 20
743.124878
 10
-74.075859
 20
742.587341
 10
-74.103737
 20
742.05011
 10
-74.129295
 20
741.513245
 10
-74.155602
 20
740.975708
 10
-74.186203
 20
740.436462
 10
-74.218529
 20
739.896301
 10
-74.239914
 20
739.359131
 10
-74.238358
 20
738.828674
 10
-74.233963
 20
738.298706
 10
-74.276566
 20
737.753784
 10
-74.39975
 20
737.183655
 10
-74.488564
 20
736.623779
 10
-74.348953
 20
736.127563
  0
ARC
  5
3F2
330
37F
100
AcDbEntity
  8
0
  6
Continuous
 62
     0
370
    30
100
AcDbCircle
 10
-72.010074
 20
696.217512
 30
0.0
 40
0.5000896921785831
100
AcDbArc
 50
187.011132
 51
269.990913
  0
ARC
  5
3F3
330
37F
100
AcDbEntity
  8
0
  6
Continuous
 62
     0
370
    30
100
AcDbCircle
 10
-72.010074
 20
760.217333
 30
0.0
 40
0.5000896921876781
100
AcDbArc
 50
90.009087
 51
172.988868
  0
LINE
  5
3F4
330
37F
100
AcDbEntity
  8
0
  6
Continuous
 62
     0
370
     0
100
AcDbLine
 10
-72.506426
 20
828.217422
 30
0.0
 11
-72.506425
 21
796.15647
 31
0.0
  0
LINE
  5
3F5
330
37F
100
AcDbEntity
  8
0
  6
Continuous
 62
     0
370
     0
100
AcDbLine
 10
-72.506425
 20
860.278375
 30
0.0
 11
-72.506426
 21
828.217422
 31
0.0
  0
LINE
  5
3F6
330
37F
100
AcDbEntity
  8
0
  6
Continuous
 62
     0
370
     0
100
AcDbLine
 10
-72.010155
 20
828.217422
 30
0.0
 11
-72.010154
 21
860.717422
 31
0.0
  0
LINE
  5
3F7
330
37F
100
AcDbEntity
  8
0
  6
Continuous
 62
     0
370
     0
100
AcDbLine
 10
-72.010154
 20
795.717422
 30
0.0
 11
-72.010155
 21
828.217422
 31
0.0
  0
LINE
  5
3F8
330
37F
100
AcDbEntity
  8
0
  6
Continuous
 62
     0
370
     0
100
AcDbLine
 10
-74.34896
 20
828.217422
 30
0.0
 11
-74.348947
 21
820.307233
 31
0.0
  0
LINE
  5
3F9
330
37F
100
AcDbEntity
  8
0
  6
Continuous
 62
     0
370
     0
100
AcDbLine
 10
-74.348947
 20
836.127612
 30
0.0
 11
-74.34896
 21
828.217422
 31
0.0
  0
LINE
  5
3FA
330
37F
100
AcDbEntity
  8
0
  6
Continuous
 62
     0
370
    30
100
AcDbLine
 10
-64.452126
 20
828.217422
 30
0.0
 11
-64.452126
 21
860.717422
 31
0.0
  0
LINE
  5
3FB
330
37F
100
AcDbEntity
  8
0
  6
Continuous
 62
     0
370
    30
100
AcDbLine
 10
-64.452126
 20
795.717422
 30
0.0
 11
-64.452126
 21
828.217422
 31
0.0
  0
LWPOLYLINE
  5
3FC
330
37F
100
AcDbEntity
  8
0
  6
Continuous
 62
     0
370
     0
100
AcDbPolyline
 90
       12
 70
     0
 43
0.0
 10
-69.573128
 20
795.717407
 10
-69.507858
 20
795.720642
 10
-69.315971
 20
795.729248
 10
-69.014664
 20
795.740479
 10
-68.626518
 20
795.750854
 10
-68.184509
 20
795.757019
 10
-67.723724
 20
795.75708
 10
-67.281502
 20
795.750916
 10
-66.892403
 20
795.740601
 10
-66.590469
 20
795.729309
 10
-66.398895
 20
795.720703
 10
-66.331123
 20
795.717407
  0
LINE
  5
3FD
330
37F
100
AcDbEntity
  8
0
  6
Continuous
 62
     0
370
     0
100
AcDbLine
 10
-77.347603
 20
828.217422
 30
0.0
 11
-77.347603
 21
833.217422
 31
0.0
  0
LINE
  5
3FE
330
37F
100
AcDbEntity
  8
0
  6
Continuous
 62
     0
370
     0
100
AcDbLine
 10
-77.347603
 20
823.217422
 30
0.0
 11
-77.347603
 21
828.217422
 31
0.0
  0
LINE
  5
3FF
330
37F
100
AcDbEntity
  8
0
  6
Continuous
 62
     0
370
    30
100
AcDbLine
 10
-79.732126
 20
828.217422
 30
0.0
 11
-79.732126
 21
823.217422
 31
0.0
  0
LINE
  5
400
330
37F
100
AcDbEntity
  8
0
  6
Continuous
 62
     0
370
    30
100
AcDbLine
 10
-79.732126
 20
833.217422
 30
0.0
 11
-79.732126
 21
828.217422
 31
0.0
  0
LWPOLYLINE
  5
401
330
37F
100
AcDbEntity
  8
0
  6
Continuous
 62
     0
370
     0
100
AcDbPolyline
 90
        8
 70
     0
 43
0.0
 10
-108.861748
 20
832.516418
 10
-109.133469
 20
832.369324
 10
-109.356483
 20
832.107544
 10
-109.525047
 20
831.773193
 10
-109.641144
 20
831.397766
 10
-109.709167
 20
830.999573
 10
-109.732124
 20
830.588806
 10
-109.732124
 20
830.582642
  0
LWPOLYLINE
  5
402
330
37F
100
AcDbEntity
  8
0
  6
Continuous
 62
     0
370
     0
100
AcDbPolyline
 90
        7
 70
     0
 43
0.0
 10
-109.732124
 20
830.582642
 10
-109.732124
 20
830.585693
 10
-109.702072
 20
830.819275
 10
-109.611877
 20
831.044556
 10
-109.456459
 20
831.251709
 10
-109.229729
 20
831.423584
 10
-108.861748
 20
831.543396
  0
LWPOLYLINE
  5
403
330
37F
100
AcDbEntity
  8
0
  6
Continuous
 62
     0
370
     0
100
AcDbPolyline
 90
        5
 70
     0
 43
0.0
 10
-108.861748
 20
831.543396
 10
-108.825912
 20
831.624207
 10
-108.812798
 20
831.830139
 10
-108.824303
 20
832.132996
 10
-108.861748
 20
832.516418
  0
LINE
  5
404
330
37F
100
AcDbEntity
  8
0
  6
Continuous
 62
     0
370
    30
100
AcDbLine
 10
-84.732126
 20
833.355292
 30
0.0
 11
-84.732126
 21
834.235281
 31
0.0
  0
LWPOLYLINE
  5
405
330
37F
100
AcDbEntity
  8
0
  6
Continuous
 62
     0
370
     0
100
AcDbPolyline
 90
        6
 70
     0
 43
0.0
 10
-84.732124
 20
834.235291
 10
-89.38932
 20
834.070801
 10
-94.040359
 20
833.839111
 10
-98.681961
 20
833.529846
 10
-103.310081
 20
833.130188
 10
-108.861748
 20
832.516418
  0
LWPOLYLINE
  5
406
330
37F
100
AcDbEntity
  8
0
  6
Continuous
 62
     0
370
     0
100
AcDbPolyline
 90
        6
 70
     0
 43
0.0
 10
-108.861748
 20
831.543396
 10
-104.285881
 20
832.079285
 10
-99.68869
 20
832.518555
 10
-95.076927
 20
832.866821
 10
-90.455093
 20
833.131531
 10
-84.732124
 20
833.355286
  0
LWPOLYLINE
  5
407
330
37F
100
AcDbEntity
  8
0
  6
Continuous
 62
     0
370
     0
100
AcDbPolyline
 90
        2
 70
     0
 43
0.0
 10
-108.839775
 20
831.464355
 10
-108.861748
 20
831.543396
  0
ARC
  5
408
330
37F
100
AcDbEntity
  8
0
  6
Continuous
 62
     0
370
     0
100
AcDbCircle
 10
-83.456068
 20
-2243.515676
 30
0.0
 40
3075.090028905421
100
AcDbArc
 50
90.023776
 51
90.456203
  0
LINE
  5
409
330
37F
100
AcDbEntity
  8
0
  6
Continuous
 62
     0
370
    30
100
AcDbLine
 10
-84.732126
 20
833.355292
 30
0.0
 11
-84.732126
 21
831.574088
 31
0.0
  0
LINE
  5
40A
330
37F
100
AcDbEntity
  8
0
  6
Continuous
 62
     0
370
    30
100
AcDbLine
 10
-109.732126
 20
830.582648
 30
0.0
 11
-109.732126
 21
830.470163
 31
0.0
  0
LWPOLYLINE
  5
40B
330
37F
100
AcDbEntity
  8
0
  6
Continuous
 62
     0
370
     0
100
AcDbPolyline
 90
        3
 70
     0
 43
0.0
 10
-108.861748
 20
832.516418
 10
-108.847908
 20
835.311279
 10
-108.740654
 20
849.56958
  0
ARC
  5
40C
330
37F
100
AcDbEntity
  8
0
  6
Continuous
 62
     0
370
     0
100
AcDbCircle
 10
-108.987173
 20
891.908122
 30
0.0
 40
42.33928554505453
100
AcDbArc
 50
268.991838
 51
270.333602
  0
LINE
  5
40D
330
37F
100
AcDbEntity
  8
0
  6
Continuous
 62
     0
370
    30
100
AcDbLine
 10
-109.732126
 20
849.575391
 30
0.0
 11
-109.732126
 21
830.582648
 31
0.0
  0
LINE
  5
40E
330
37F
100
AcDbEntity
  8
0
  6
Continuous
 62
     0
370
    30
100
AcDbLine
 10
-84.732126
 20
822.199564
 30
0.0
 11
-84.732126
 21
823.079553
 31
0.0
  0
LWPOLYLINE
  5
40F
330
37F
100
AcDbEntity
  8
0
  6
Continuous
 62
     0
370
     0
100
AcDbPolyline
 90
        6
 70
     0
 43
0.0
 10
-84.732124
 20
823.079529
 10
-89.361923
 20
823.252075
 10
-93.985649
 20
823.49823
 10
-98.600098
 20
823.825989
 10
-103.201317
 20
824.243286
 10
-108.861748
 20
824.891479
  0
LWPOLYLINE
  5
410
330
37F
100
AcDbEntity
  8
0
  6
Continuous
 62
     0
370
     0
100
AcDbPolyline
 90
        5
 70
     0
 43
0.0
 10
-108.861748
 20
824.891479
 10
-108.825882
 20
824.810791
 10
-108.812775
 20
824.60498
 10
-108.824181
 20
824.302368
 10
-108.861748
 20
823.918457
  0
LWPOLYLINE
  5
411
330
37F
100
AcDbEntity
  8
0
  6
Continuous
 62
     0
370
     0
100
AcDbPolyline
 90
        6
 70
     0
 43
0.0
 10
-108.861748
 20
823.918457
 10
-104.25872
 20
823.398743
 10
-99.634148
 20
822.979431
 10
-94.994904
 20
822.652527
 10
-90.345535
 20
822.406006
 10
-84.732124
 20
822.199585
  0
LWPOLYLINE
  5
412
330
37F
100
AcDbEntity
  8
0
  6
Continuous
 62
     0
370
     0
100
AcDbPolyline
 90
        7
 70
     0
 43
0.0
 10
-108.861748
 20
824.891479
 10
-109.169983
 20
824.980774
 10
-109.412247
 20
825.141174
 10
-109.58313
 20
825.342407
 10
-109.687202
 20
825.56427
 10
-109.732124
 20
825.849121
 10
-109.732124
 20
825.852173
  0
LWPOLYLINE
  5
413
330
37F
100
AcDbEntity
  8
0
  6
Continuous
 62
     0
370
     0
100
AcDbPolyline
 90
        8
 70
     0
 43
0.0
 10
-109.732124
 20
825.852173
 10
-109.732124
 20
825.846069
 10
-109.709373
 20
825.4375
 10
-109.641571
 20
825.039307
 10
-109.52581
 20
824.664185
 10
-109.357841
 20
824.329895
 10
-109.135468
 20
824.0672
 10
-108.861748
 20
823.918457
  0
LINE
  5
414
330
37F
100
AcDbEntity
  8
0
  6
Continuous
 62
     0
370
    30
100
AcDbLine
 10
-109.732126
 20
825.852197
 30
0.0
 11
-109.732126
 21
806.859454
 31
0.0
  0
ARC
  5
415
330
37F
100
AcDbEntity
  8
0
  6
Continuous
 62
     0
370
     0
100
AcDbCircle
 10
-108.987173
 20
764.526832
 30
0.0
 40
42.33917700057614
100
AcDbArc
 50
89.666397
 51
91.008164
  0
LWPOLYLINE
  5
416
330
37F
100
AcDbEntity
  8
0
  6
Continuous
 62
     0
370
     0
100
AcDbPolyline
 90
        3
 70
     0
 43
0.0
 10
-108.740654
 20
806.865295
 10
-108.761993
 20
809.660278
 10
-108.861748
 20
823.918457
  0
LWPOLYLINE
  5
417
330
37F
100
AcDbEntity
  8
0
  6
Continuous
 62
     0
370
     0
100
AcDbPolyline
 90
        2
 70
     0
 43
0.0
 10
-108.861748
 20
824.891479
 10
-108.839775
 20
824.97052
  0
LINE
  5
418
330
37F
100
AcDbEntity
  8
0
  6
Continuous
 62
     0
370
    30
100
AcDbLine
 10
-109.732126
 20
825.964682
 30
0.0
 11
-109.732126
 21
825.852197
 31
0.0
  0
LINE
  5
419
330
37F
100
AcDbEntity
  8
0
  6
Continuous
 62
     0
370
    30
100
AcDbLine
 10
-84.732126
 20
824.860757
 30
0.0
 11
-84.732126
 21
823.079553
 31
0.0
  0
ARC
  5
41A
330
37F
100
AcDbEntity
  8
0
  6
Continuous
 62
     0
370
     0
100
AcDbCircle
 10
-83.456227
 20
3899.912762
 30
0.0
 40
3075.052269273148
100
AcDbArc
 50
269.543795
 51
269.976227
  0
ARC
  5
41B
330
37F
100
AcDbEntity
  8
0
  6
Continuous
 62
     0
370
    30
100
AcDbCircle
 10
-108.732126
 20
806.859455
 30
0.0
 40
1.0
100
AcDbArc
 50
180.000002
 51
269.541644
  0
LINE
  5
41C
330
37F
100
AcDbEntity
  8
0
  6
Continuous
 62
     0
370
    30
100
AcDbLine
 10
-84.732126
 20
805.667423
 30
0.0
 11
-84.732126
 21
806.554321
 31
0.0
  0
ARC
  5
41D
330
37F
100
AcDbEntity
  8
0
  6
Continuous
 62
     0
370
     0
100
AcDbCircle
 10
-37.491423
 20
5380.728116
 30
0.0
 40
4574.417732606454
100
AcDbArc
 50
269.107549
 51
269.408287
  0
LWPOLYLINE
  5
41E
330
37F
100
AcDbEntity
  8
0
  6
Continuous
 62
     0
370
     0
100
AcDbPolyline
 90
        5
 70
     0
 43
0.0
 10
-108.740654
 20
806.865295
 10
-108.743088
 20
806.4823
 10
-108.743851
 20
806.156677
 10
-108.742828
 20
805.937988
 10
-108.740128
 20
805.859497
  0
LINE
  5
41F
330
37F
100
AcDbEntity
  8
0
  6
Continuous
 62
     0
370
    30
100
AcDbLine
 10
-108.740125
 20
805.859487
 30
0.0
 11
-84.732126
 21
805.667423
 31
0.0
  0
LINE
  5
420
330
37F
100
AcDbEntity
  8
0
  6
Continuous
 62
     0
370
    30
100
AcDbLine
 10
-84.732126
 20
849.880524
 30
0.0
 11
-84.732126
 21
850.767423
 31
0.0
  0
LINE
  5
421
330
37F
100
AcDbEntity
  8
0
  6
Continuous
 62
     0
370
    30
100
AcDbLine
 10
-84.732126
 20
834.235281
 30
0.0
 11
-84.732126
 21
849.880524
 31
0.0
  0
LINE
  5
422
330
37F
100
AcDbEntity
  8
0
  6
Continuous
 62
     0
370
    30
100
AcDbLine
 10
-84.732127
 20
830.580515
 30
0.0
 11
-84.732126
 21
831.574088
 31
0.0
  0
LINE
  5
423
330
37F
100
AcDbEntity
  8
0
  6
Continuous
 62
     0
370
    30
100
AcDbLine
 10
-84.732127
 20
825.854331
 30
0.0
 11
-84.732127
 21
830.580515
 31
0.0
  0
LINE
  5
424
330
37F
100
AcDbEntity
  8
0
  6
Continuous
 62
     0
370
    30
100
AcDbLine
 10
-84.732126
 20
824.860757
 30
0.0
 11
-84.732127
 21
825.854331
 31
0.0
  0
LINE
  5
425
330
37F
100
AcDbEntity
  8
0
  6
Continuous
 62
     0
370
    30
100
AcDbLine
 10
-84.732126
 20
806.554321
 30
0.0
 11
-84.732126
 21
822.199564
 31
0.0
  0
LINE
  5
426
330
37F
100
AcDbEntity
  8
0
  6
Continuous
 62
     0
370
    30
100
AcDbLine
 10
-109.732126
 20
830.470163
 30
0.0
 11
-109.732126
 21
825.964682
 31
0.0
  0
LINE
  5
427
330
37F
100
AcDbEntity
  8
0
  6
Continuous
 62
     0
370
    30
100
AcDbLine
 10
-84.732126
 20
850.767423
 30
0.0
 11
-108.740125
 21
850.575359
 31
0.0
  0
LWPOLYLINE
  5
428
330
37F
100
AcDbEntity
  8
0
  6
Continuous
 62
     0
370
     0
100
AcDbPolyline
 90
        5
 70
     0
 43
0.0
 10
-108.740128
 20
850.575378
 10
-108.742798
 20
850.499146
 10
-108.743843
 20
850.28241
 10
-108.743111
 20
849.95813
 10
-108.740654
 20
849.56958
  0
ARC
  5
429
330
37F
100
AcDbEntity
  8
0
  6
Continuous
 62
     0
370
     0
100
AcDbCircle
 10
-37.491424
 20
-3724.293169
 30
0.0
 40
4574.417630504331
100
AcDbArc
 50
90.591713
 51
90.892451
  0
ARC
  5
42A
330
37F
100
AcDbEntity
  8
0
  6
Continuous
 62
     0
370
    30
100
AcDbCircle
 10
-108.732126
 20
849.575391
 30
0.0
 40
1.0
100
AcDbArc
 50
90.458356
 51
180.0
  0
ARC
  5
42B
330
37F
100
AcDbEntity
  8
0
  6
Continuous
 62
     0
370
     0
100
AcDbCircle
 10
-82.12824
 20
4003.982251
 30
0.0
 40
3178.128986623099
100
AcDbArc
 50
269.520231
 51
269.953057
  0
LWPOLYLINE
  5
42C
330
37F
100
AcDbEntity
  8
0
  6
Continuous
 62
     0
370
     0
100
AcDbPolyline
 90
        5
 70
     0
 43
0.0
 10
-108.740128
 20
825.964661
 10
-108.742798
 20
825.582275
 10
-108.743843
 20
825.258118
 10
-108.743118
 20
825.04126
 10
-108.740654
 20
824.964722
  0
LINE
  5
42D
330
37F
100
AcDbEntity
  8
0
  6
Continuous
 62
     0
370
     0
100
AcDbLine
 10
-109.732126
 20
825.964682
 30
0.0
 11
-108.740126
 21
825.964682
 31
0.0
  0
LINE
  5
42E
330
37F
100
AcDbEntity
  8
0
  6
Continuous
 62
     0
370
     0
100
AcDbLine
 10
-108.740126
 20
825.964682
 30
0.0
 11
-108.740126
 21
830.470163
 31
0.0
  0
LINE
  5
42F
330
37F
100
AcDbEntity
  8
0
  6
Continuous
 62
     0
370
     0
100
AcDbLine
 10
-108.740126
 20
830.470163
 30
0.0
 11
-109.732126
 21
830.470163
 31
0.0
  0
LWPOLYLINE
  5
430
330
37F
100
AcDbEntity
  8
0
  6
Continuous
 62
     0
370
     0
100
AcDbPolyline
 90
        5
 70
     0
 43
0.0
 10
-108.740654
 20
831.470093
 10
-108.743088
 20
831.396301
 10
-108.743851
 20
831.181763
 10
-108.742828
 20
830.859131
 10
-108.740128
 20
830.470154
  0
ARC
  5
431
330
37F
100
AcDbEntity
  8
0
  6
Continuous
 62
     0
370
     0
100
AcDbCircle
 10
-82.12824
 20
-2347.54738
 30
0.0
 40
3178.128961585499
100
AcDbArc
 50
90.046943
 51
90.479769
  0
LINE
  5
432
330
37F
100
AcDbEntity
  8
0
  6
Continuous
 62
     0
370
    30
100
AcDbLine
 10
-84.732126
 20
823.317422
 30
0.0
 11
-79.732126
 21
823.317422
 31
0.0
  0
LINE
  5
433
330
37F
100
AcDbEntity
  8
0
  6
Continuous
 62
     0
370
    30
100
AcDbLine
 10
-84.732126
 20
833.117422
 30
0.0
 11
-79.732126
 21
833.117422
 31
0.0
  0
ARC
  5
434
330
37F
100
AcDbEntity
  8
0
  6
Continuous
 62
     0
370
    30
100
AcDbCircle
 10
-108.732009
 20
830.470046
 30
0.0
 40
1.000117497797599
100
AcDbArc
 50
90.497411
 51
179.958699
  0
LINE
  5
435
330
37F
100
AcDbEntity
  8
0
  6
Continuous
 62
     0
370
    30
100
AcDbLine
 10
-107.940098
 20
831.476876
 30
0.0
 11
-108.740703
 21
831.470126
 31
0.0
  0
ARC
  5
436
330
37F
100
AcDbEntity
  8
0
  6
Continuous
 62
     0
370
    30
100
AcDbCircle
 10
-108.732009
 20
825.964799
 30
0.0
 40
1.000117497750353
100
AcDbArc
 50
180.041299
 51
269.502589
  0
LINE
  5
437
330
37F
100
AcDbEntity
  8
0
  6
Continuous
 62
     0
370
    30
100
AcDbLine
 10
-108.740703
 20
824.964719
 30
0.0
 11
-107.940101
 21
824.957969
 31
0.0
  0
LWPOLYLINE
  5
438
330
37F
100
AcDbEntity
  8
0
  6
Continuous
 62
     0
370
    30
100
AcDbPolyline
 90
        7
 70
     0
 43
0.0
 10
-106.172874
 20
824.933533
 10
-106.234558
 20
824.934937
 10
-106.408401
 20
824.938538
 10
-106.668983
 20
824.943115
 10
-106.990189
 20
824.947815
 10
-107.352074
 20
824.952271
 10
-107.7957
 20
824.956787
  0
LINE
  5
439
330
37F
100
AcDbEntity
  8
0
  6
Continuous
 62
     0
370
    30
100
AcDbLine
 10
-106.589467
 20
824.947128
 30
0.0
 11
-106.172876
 21
824.933506
 31
0.0
  0
LWPOLYLINE
  5
43A
330
37F
100
AcDbEntity
  8
0
  6
Continuous
 62
     0
370
    30
100
AcDbPolyline
 90
        4
 70
     0
 43
0.0
 10
-106.172775
 20
831.501343
 10
-106.21936
 20
831.5
 10
-106.34449
 20
831.496155
 10
-106.589401
 20
831.487732
  0
LWPOLYLINE
  5
43B
330
37F
100
AcDbEntity
  8
0
  6
Continuous
 62
     0
370
    30
100
AcDbPolyline
 90
        8
 70
     0
 43
0.0
 10
-107.929169
 20
831.47699
 10
-107.566223
 20
831.480286
 10
-107.222023
 20
831.48407
 10
-106.904022
 20
831.48822
 10
-106.62278
 20
831.492493
 10
-106.394302
 20
831.496582
 10
-106.238403
 20
831.499817
 10
-106.172775
 20
831.501343
  0
LINE
  5
43C
330
37F
100
AcDbEntity
  8
0
  6
Continuous
 62
     0
370
    30
100
AcDbLine
 10
-66.331126
 20
795.717422
 30
0.0
 11
-69.573126
 21
795.717422
 31
0.0
  0
ARC
  5
43D
330
37F
100
AcDbEntity
  8
0
  6
Continuous
 62
     0
370
    30
100
AcDbCircle
 10
-77.347603
 20
820.217422
 30
0.0
 40
3.000000042508756
100
AcDbArc
 50
1.736703
 51
90.0
  0
ARC
  5
43E
330
37F
100
AcDbEntity
  8
0
  6
Continuous
 62
     0
370
    30
100
AcDbCircle
 10
-77.347603
 20
836.217423
 30
0.0
 40
3.000000042537957
100
AcDbArc
 50
270.0
 51
358.263296
  0
LINE
  5
43F
330
37F
100
AcDbEntity
  8
0
  6
Continuous
 62
     0
370
    30
100
AcDbLine
 10
-79.732126
 20
823.217422
 30
0.0
 11
-77.347603
 21
823.217422
 31
0.0
  0
LINE
  5
440
330
37F
100
AcDbEntity
  8
0
  6
Continuous
 62
     0
370
    30
100
AcDbLine
 10
-79.732126
 20
833.217422
 30
0.0
 11
-77.347603
 21
833.217422
 31
0.0
  0
LINE
  5
441
330
37F
100
AcDbEntity
  8
0
  6
Continuous
 62
     0
370
    30
100
AcDbLine
 10
-72.010154
 20
795.717422
 30
0.0
 11
-69.573126
 21
795.717422
 31
0.0
  0
LINE
  5
442
330
37F
100
AcDbEntity
  8
0
  6
Continuous
 62
     0
370
    30
100
AcDbLine
 10
-66.331126
 20
795.717422
 30
0.0
 11
-64.452126
 21
795.717422
 31
0.0
  0
LINE
  5
443
330
37F
100
AcDbEntity
  8
0
  6
Continuous
 62
     0
370
    30
100
AcDbLine
 10
-72.010154
 20
860.717422
 30
0.0
 11
-64.452126
 21
860.717422
 31
0.0
  0
LWPOLYLINE
  5
444
330
37F
100
AcDbEntity
  8
0
  6
Continuous
 62
     0
370
    30
100
AcDbPolyline
 90
       46
 70
     0
 43
0.0
 10
-72.506432
 20
860.27832
 10
-72.571503
 20
859.743958
 10
-72.635483
 20
859.209473
 10
-72.698372
 20
858.674866
 10
-72.760162
 20
858.140137
 10
-72.820854
 20
857.605286
 10
-72.880463
 20
857.070312
 10
-72.938965
 20
856.535217
 10
-72.996376
 20
856.0
 10
-73.052689
 20
855.464661
 10
-73.10791
 20
854.929199
 10
-73.162033
 20
854.393677
 10
-73.215057
 20
853.857971
 10
-73.266991
 20
853.322205
 10
-73.317825
 20
852.786316
 10
-73.367569
 20
852.250366
 10
-73.416214
 20
851.714233
 10
-73.46376
 20
851.178101
 10
-73.510201
 20
850.641785
 10
-73.55555
 20
850.105408
 10
-73.599792
 20
849.56897
 10
-73.642929
 20
849.03241
 10
-73.684982
 20
848.495789
 10
-73.72596
 20
847.959045
 10
-73.765869
 20
847.42218
 10
-73.80468
 20
846.885315
 10
-73.842369
 20
846.348328
 10
-73.878914
 20
845.811279
 10
-73.914291
 20
845.27417
 10
-73.948479
 20
844.737061
 10
-73.981628
 20
844.199829
 10
-74.013977
 20
843.662415
 10
-74.045616
 20
843.124878
 10
-74.075859
 20
842.587341
 10
-74.103737
 20
842.05011
 10
-74.129295
 20
841.513245
 10
-74.155602
 20
840.975708
 10
-74.186203
 20
840.436462
 10
-74.218529
 20
839.896301
 10
-74.239914
 20
839.359131
 10
-74.238358
 20
838.828674
 10
-74.233963
 20
838.298706
 10
-74.276566
 20
837.753784
 10
-74.39975
 20
837.183655
 10
-74.488564
 20
836.623779
 10
-74.348953
 20
836.127563
  0
ARC
  5
445
330
37F
100
AcDbEntity
  8
0
  6
Continuous
 62
     0
370
    30
100
AcDbCircle
 10
-72.010074
 20
796.217512
 30
0.0
 40
0.500089692179958
100
AcDbArc
 50
187.011132
 51
269.990913
  0
ARC
  5
446
330
37F
100
AcDbEntity
  8
0
  6
Continuous
 62
     0
370
    30
100
AcDbCircle
 10
-72.010074
 20
860.217333
 30
0.0
 40
0.50008969214446
100
AcDbArc
 50
90.009087
 51
172.988868
  0
ENDBLK
  5
448
330
37F
100
AcDbEntity
  8
0
100
AcDbBlockEnd
  0
ENDSEC
  0
SECTION
  2
ENTITIES
  0
INSERT
  5
147
330
1F
100
AcDbEntity
  8
0
  6
Continuous
 62
   250
370
     0
100
AcDbBlockReference
  2
a
 10
10.760319
 20
87.502983
 30
0.0
  0
INSERT
  5
1AD
330
1F
100
AcDbEntity
  8
0
  6
Continuous
 62
   250
370
     0
100
AcDbBlockReference
  2
b
 10
48.034054
 20
267.94558
 30
0.0
  0
INSERT
  5
27A
330
1F
100
AcDbEntity
  8
0
  6
Continuous
 62
   250
370
     0
100
AcDbBlockReference
  2
c
 10
42.386112
 20
91.952385
 30
0.0
  0
INSERT
  5
37E
330
1F
100
AcDbEntity
  8
0
  6
Continuous
 62
   250
370
     0
100
AcDbBlockReference
  2
d
 10
51.67609
 20
123.944485
 30
0.0
  0
INSERT
  5
449
330
1F
100
AcDbEntity
  8
0
  6
Continuous
 62
   250
370
     0
100
AcDbBlockReference
  2
e
 10
-34.855927
 20
0.0
 30
0.0
  0
ENDSEC
  0
SECTION
  2
OBJECTS
  0
DICTIONARY
  5
C
330
0
100
AcDbDictionary
281
     1
  3
ACAD_GROUP
350
D
  3
ACAD_LAYOUT
350
1A
  3
ACAD_MLEADERSTYLE
350
44C
  3
ACAD_MLINESTYLE
350
17
  3
ACAD_PLOTSETTINGS
350
19
  3
ACAD_PLOTSTYLENAME
350
E
  3
ACAD_VISUALSTYLE
350
2A
  3
AcDbVariableDictionary
350
44A
  0
DICTIONARY
  5
D
102
{ACAD_REACTORS
330
C
102
}
330
C
100
AcDbDictionary
281
     1
  0
DICTIONARY
  5
1A
102
{ACAD_REACTORS
330
C
102
}
330
C
100
AcDbDictionary
281
     1
  3
Layout1
350
1E
  3
Layout2
350
26
  3
Model
350
22
  0
DICTIONARY
  5
44C
102
{ACAD_REACTORS
330
C
102
}
330
C
100
AcDbDictionary
281
     1
  0
DICTIONARY
  5
17
102
{ACAD_REACTORS
330
C
102
}
330
C
100
AcDbDictionary
281
     1
  3
Standard
350
18
  0
DICTIONARY
  5
19
102
{ACAD_REACTORS
330
C
102
}
330
C
100
AcDbDictionary
281
     1
  0
ACDBDICTIONARYWDFLT
  5
E
102
{ACAD_REACTORS
330
C
102
}
330
C
100
AcDbDictionary
281
     1
  3
Normal
350
F
100
AcDbDictionaryWithDefault
340
F
  0
DICTIONARY
  5
2A
102
{ACAD_REACTORS
330
C
102
}
330
C
100
AcDbDictionary
281
     1
  3
2dWireframe
350
2F
  3
3D Hidden
350
31
  3
3dWireframe
350
30
  3
Basic
350
32
  3
Brighten
350
36
  3
ColorChange
350
3A
  3
Conceptual
350
34
  3
Dim
350
35
  3
Facepattern
350
39
  3
Flat
350
2B
  3
FlatWithEdges
350
2C
  3
Gouraud
350
2D
  3
GouraudWithEdges
350
2E
  3
Linepattern
350
38
  3
Realistic
350
33
  3
Thicken
350
37
  0
DICTIONARY
  5
44A
102
{ACAD_REACTORS
330
C
102
}
330
C
100
AcDbDictionary
281
     1
  3
PSOLHEIGHT
350
44E
  3
PSOLWIDTH
350
44D
  0
LAYOUT
  5
1E
102
{ACAD_REACTORS
330
1A
102
}
330
1A
100
AcDbPlotSettings
  1

  2
none_device
  4

  6

 40
0.0
 41
0.0
 42
0.0
 43
0.0
 44
0.0
 45
0.0
 46
0.0
 47
0.0
 48
0.0
 49
0.0
140
0.0
141
0.0
142
1.0
143
1.0
 70
   688
 72
     0
 73
     0
 74
     5
  7

 75
    16
147
1.0
148
0.0
149
0.0
100
AcDbLayout
  1
Layout1
 70
     1
 71
     1
 10
0.0
 20
0.0
 11
420.0
 21
297.0
 12
0.0
 22
0.0
 32
0.0
 14
1.000000E+20
 24
1.000000E+20
 34
1.000000E+20
 15
-1.000000E+20
 25
-1.000000E+20
 35
-1.000000E+20
146
0.0
 13
0.0
 23
0.0
 33
0.0
 16
1.0
 26
0.0
 36
0.0
 17
0.0
 27
1.0
 37
0.0
 76
     0
330
1B
  0
LAYOUT
  5
26
102
{ACAD_REACTORS
330
1A
102
}
330
1A
100
AcDbPlotSettings
  1

  2
none_device
  4

  6

 40
0.0
 41
0.0
 42
0.0
 43
0.0
 44
0.0
 45
0.0
 46
0.0
 47
0.0
 48
0.0
 49
0.0
140
0.0
141
0.0
142
1.0
143
1.0
 70
   688
 72
     0
 73
     0
 74
     5
  7

 75
    16
147
1.0
148
0.0
149
0.0
100
AcDbLayout
  1
Layout2
 70
     1
 71
     2
 10
0.0
 20
0.0
 11
0.0
 21
0.0
 12
0.0
 22
0.0
 32
0.0
 14
0.0
 24
0.0
 34
0.0
 15
0.0
 25
0.0
 35
0.0
146
0.0
 13
0.0
 23
0.0
 33
0.0
 16
1.0
 26
0.0
 36
0.0
 17
0.0
 27
1.0
 37
0.0
 76
     0
330
23
  0
LAYOUT
  5
22
102
{ACAD_REACTORS
330
1A
102
}
330
1A
100
AcDbPlotSettings
  1

  2
none_device
  4

  6

 40
0.0
 41
0.0
 42
0.0
 43
0.0
 44
0.0
 45
0.0
 46
0.0
 47
0.0
 48
0.0
 49
0.0
140
0.0
141
0.0
142
1.0
143
1.0
 70
  1712
 72
     0
 73
     0
 74
     0
  7

 75
     0
147
1.0
148
0.0
149
0.0
100
AcDbLayout
  1
Model
 70
     1
 71
     0
 10
-112.504837
 20
124.167931
 11
332.635681
 21
860.717407
 12
0.0
 22
0.0
 32
0.0
 14
-112.504837
 24
124.167931
 34
0.0
 15
332.635681
 25
860.717407
 35
0.0
146
0.0
 13
0.0
 23
0.0
 33
0.0
 16
1.0
 26
0.0
 36
0.0
 17
0.0
 27
1.0
 37
0.0
 76
     0
330
1F
331
29
  0
MLINESTYLE
  5
18
102
{ACAD_REACTORS
330
17
102
}
330
17
100
AcDbMlineStyle
  2
Standard
 70
     0
  3

 62
   256
 51
90.0
 52
90.0
 71
     2
 49
0.5
 62
   256
  6
BYLAYER
 49
-0.5
 62
   256
  6
BYLAYER
  0
ACDBPLACEHOLDER
  5
F
102
{ACAD_REACTORS
330
E
102
}
330
E
  0
VISUALSTYLE
  5
2F
102
{ACAD_REACTORS
330
2A
102
}
330
2A
100
AcDbVisualStyle
  2
2dWireframe
 70
     4
 71
     0
 72
     2
 73
     0
 90
        0
 40
-0.6
 41
-30.0
 62
     5
 63
     7
 74
     1
 91
        4
 64
     7
 65
   257
 75
     1
175
     1
 42
1.0
 92
        0
 66
   257
 43
1.0
 76
     1
 77
     6
 78
     2
 67
     7
 79
     5
170
     0
171
     0
290
     0
174
     0
 93
        1
 44
0.0
173
     0
291
     0
 45
0.0
1001
ACAD
1000
AcDbSavedByObjectVersion
1070
     0
  0
VISUALSTYLE
  5
31
102
{ACAD_REACTORS
330
2A
102
}
330
2A
100
AcDbVisualStyle
  2
3D Hidden
 70
     6
 71
     1
 72
     2
 73
     2
 90
        0
 40
-0.6
 41
-30.0
 62
     5
 63
     7
 74
     2
 91
        2
 64
     7
 65
   257
 75
     2
175
     1
 42
40.0
 92
        0
 66
   257
 43
1.0
 76
     1
 77
     6
 78
     2
 67
     7
 79
     3
170
     0
171
     0
290
     0
174
     0
 93
        1
 44
0.0
173
     0
291
     0
 45
0.0
1001
ACAD
1000
AcDbSavedByObjectVersion
1070
     0
  0
VISUALSTYLE
  5
30
102
{ACAD_REACTORS
330
2A
102
}
330
2A
100
AcDbVisualStyle
  2
3dWireframe
 70
     5
 71
     0
 72
     2
 73
     0
 90
        0
 40
-0.6
 41
-30.0
 62
     5
 63
     7
 74
     1
 91
        4
 64
     7
 65
   257
 75
     1
175
     1
 42
1.0
 92
        0
 66
   257
 43
1.0
 76
     1
 77
     6
 78
     2
 67
     7
 79
     5
170
     0
171
     0
290
     0
174
     0
 93
        1
 44
0.0
173
     0
291
     0
 45
0.0
1001
ACAD
1000
AcDbSavedByObjectVersion
1070
     0
  0
VISUALSTYLE
  5
32
102
{ACAD_REACTORS
330
2A
102
}
330
2A
100
AcDbVisualStyle
  2
Basic
 70
     7
 71
     1
 72
     0
 73
     1
 90
        0
 40
-0.6
 41
-30.0
 62
     5
 63
     7
 74
     0
 91
        4
 64
     7
 65
   257
 75
     1
175
     1
 42
1.0
 92
        8
 66
     7
 43
1.0
 76
     1
 77
     6
 78
     2
 67
     7
 79
     5
170
     0
171
     0
290
     0
174
     0
 93
        1
 44
0.0
173
     0
291
     1
 45
0.0
1001
ACAD
1000
AcDbSavedByObjectVersion
1070
     0
  0
VISUALSTYLE
  5
36
102
{ACAD_REACTORS
330
2A
102
}
330
2A
100
AcDbVisualStyle
  2
Brighten
 70
    12
 71
     2
 72
     2
 73
     0
 90
        0
 40
-0.6
 41
-30.0
 62
     5
 63
     7
 74
     1
 91
        4
 64
     7
 65
   257
 75
     1
175
     1
 42
1.0
 92
        8
 66
     7
 43
1.0
 76
     1
 77
     6
 78
     2
 67
     7
 79
     5
170
     0
171
     0
290
     0
174
     0
 93
        1
 44
50.0
173
     0
291
     1
 45
0.0
1001
ACAD
1000
AcDbSavedByObjectVersion
1070
     0
  0
VISUALSTYLE
  5
3A
102
{ACAD_REACTORS
330
2A
102
}
330
2A
100
AcDbVisualStyle
  2
ColorChange
 70
    16
 71
     2
 72
     2
 73
     3
 90
        0
 40
-0.6
 41
-30.0
 62
     5
 63
     8
 74
     1
 91
        4
 64
     7
 65
   257
 75
     1
175
     1
 42
1.0
 92
        8
 66
     8
 43
1.0
 76
     1
 77
     6
 78
     2
 67
     7
 79
     5
170
     0
171
     0
290
     0
174
     0
 93
        1
 44
0.0
173
     0
291
     1
 45
0.0
1001
ACAD
1000
AcDbSavedByObjectVersion
1070
     0
  0
VISUALSTYLE
  5
34
102
{ACAD_REACTORS
330
2A
102
}
330
2A
100
AcDbVisualStyle
  2
Conceptual
 70
     9
 71
     3
 72
     2
 73
     0
 90
        0
 40
-0.6
 41
-30.0
 62
     5
 63
     7
 74
     2
 91
        2
 64
     7
 65
   257
 75
     1
175
     1
 42
40.0
 92
        8
 66
     7
 43
1.0
 76
     1
 77
     6
 78
     2
 67
     7
 79
     3
170
     0
171
     0
290
     0
174
     0
 93
        1
 44
0.0
173
     0
291
     0
 45
0.0
1001
ACAD
1000
AcDbSavedByObjectVersion
1070
     0
  0
VISUALSTYLE
  5
35
102
{ACAD_REACTORS
330
2A
102
}
330
2A
100
AcDbVisualStyle
  2
Dim
 70
    11
 71
     2
 72
     2
 73
     0
 90
        0
 40
-0.6
 41
-30.0
 62
     5
 63
     7
 74
     1
 91
        4
 64
     7
 65
   257
 75
     1
175
     1
 42
1.0
 92
        8
 66
     7
 43
1.0
 76
     1
 77
     6
 78
     2
 67
     7
 79
     5
170
     0
171
     0
290
     0
174
     0
 93
        1
 44
-50.0
173
     0
291
     1
 45
0.0
1001
ACAD
1000
AcDbSavedByObjectVersion
1070
     0
  0
VISUALSTYLE
  5
39
102
{ACAD_REACTORS
330
2A
102
}
330
2A
100
AcDbVisualStyle
  2
Facepattern
 70
    15
 71
     2
 72
     2
 73
     0
 90
        0
 40
-0.6
 41
-30.0
 62
     5
 63
     7
 74
     1
 91
        4
 64
     7
 65
   257
 75
     1
175
     1
 42
1.0
 92
        8
 66
     7
 43
1.0
 76
     1
 77
     6
 78
     2
 67
     7
 79
     5
170
     0
171
     0
290
     0
174
     0
 93
        1
 44
0.0
173
     0
291
     1
 45
0.0
1001
ACAD
1000
AcDbSavedByObjectVersion
1070
     0
  0
VISUALSTYLE
  5
2B
102
{ACAD_REACTORS
330
2A
102
}
330
2A
100
AcDbVisualStyle
  2
Flat
 70
     0
 71
     2
 72
     1
 73
     1
 90
        2
 40
-0.6
 41
30.0
 62
     5
 63
     7
 74
     0
 91
        4
 64
     7
 65
   257
 75
     1
175
     1
 42
1.0
 92
        8
 66
     7
 43
1.0
 76
     1
 77
     6
 78
     2
 67
     7
 79
     5
170
     0
171
     0
290
     0
174
     0
 93
       13
 44
0.0
173
     0
291
     1
 45
0.0
1001
ACAD
1000
AcDbSavedByObjectVersion
1070
     0
  0
VISUALSTYLE
  5
2C
102
{ACAD_REACTORS
330
2A
102
}
330
2A
100
AcDbVisualStyle
  2
FlatWithEdges
 70
     1
 71
     2
 72
     1
 73
     1
 90
        2
 40
-0.6
 41
30.0
 62
     5
 63
     7
 74
     1
 91
        4
 64
     7
 65
   257
 75
     1
175
     1
 42
1.0
 92
        0
 66
   257
 43
1.0
 76
     1
 77
     6
 78
     2
 67
     7
 79
     5
170
     0
171
     0
290
     0
174
     0
 93
       13
 44
0.0
173
     0
291
     1
 45
0.0
1001
ACAD
1000
AcDbSavedByObjectVersion
1070
     0
  0
VISUALSTYLE
  5
2D
102
{ACAD_REACTORS
330
2A
102
}
330
2A
100
AcDbVisualStyle
  2
Gouraud
 70
     2
 71
     2
 72
     2
 73
     1
 90
        2
 40
-0.6
 41
30.0
 62
     5
 63
     7
 74
     0
 91
        4
 64
     7
 65
   257
 75
     1
175
     1
 42
1.0
 92
        0
 66
     7
 43
1.0
 76
     1
 77
     6
 78
     2
 67
     7
 79
     5
170
     0
171
     0
290
     0
174
     0
 93
       13
 44
0.0
173
     0
291
     1
 45
0.0
1001
ACAD
1000
AcDbSavedByObjectVersion
1070
     0
  0
VISUALSTYLE
  5
2E
102
{ACAD_REACTORS
330
2A
102
}
330
2A
100
AcDbVisualStyle
  2
GouraudWithEdges
 70
     3
 71
     2
 72
     2
 73
     1
 90
        2
 40
-0.6
 41
30.0
 62
     5
 63
     7
 74
     1
 91
        4
 64
     7
 65
   257
 75
     1
175
     1
 42
1.0
 92
        0
 66
   257
 43
1.0
 76
     1
 77
     6
 78
     2
 67
     7
 79
     5
170
     0
171
     0
290
     0
174
     0
 93
       13
 44
0.0
173
     0
291
     1
 45
0.0
1001
ACAD
1000
AcDbSavedByObjectVersion
1070
     0
  0
VISUALSTYLE
  5
38
102
{ACAD_REACTORS
330
2A
102
}
330
2A
100
AcDbVisualStyle
  2
Linepattern
 70
    14
 71
     2
 72
     2
 73
     0
 90
        0
 40
-0.6
 41
-30.0
 62
     5
 63
     7
 74
     1
 91
        4
 64
     7
 65
   257
 75
     7
175
     7
 42
1.0
 92
        8
 66
     7
 43
1.0
 76
     1
 77
     6
 78
     2
 67
     7
 79
     5
170
     0
171
     0
290
     0
174
     0
 93
        1
 44
0.0
173
     0
291
     1
 45
0.0
1001
ACAD
1000
AcDbSavedByObjectVersion
1070
     0
  0
VISUALSTYLE
  5
33
102
{ACAD_REACTORS
330
2A
102
}
330
2A
100
AcDbVisualStyle
  2
Realistic
 70
     8
 71
     2
 72
     2
 73
     0
 90
        0
 40
-0.6
 41
-30.0
 62
     5
 63
     7
 74
     1
 91
        0
 64
     7
 65
   257
 75
     1
175
     1
 42
1.0
 92
        8
 66
     8
 43
1.0
 76
     1
 77
     6
 78
     2
 67
     7
 79
     5
170
     0
171
     0
290
     0
174
     0
 93
       13
 44
0.0
173
     0
291
     0
 45
0.0
1001
ACAD
1000
AcDbSavedByObjectVersion
1070
     0
  0
VISUALSTYLE
  5
37
102
{ACAD_REACTORS
330
2A
102
}
330
2A
100
AcDbVisualStyle
  2
Thicken
 70
    13
 71
     2
 72
     2
 73
     0
 90
        0
 40
-0.6
 41
-30.0
 62
     5
 63
     7
 74
     1
 91
        4
 64
     7
 65
   257
 75
     1
175
     1
 42
1.0
 92
       12
 66
     7
 43
1.0
 76
     1
 77
     6
 78
     2
 67
     7
 79
     5
170
     0
171
     0
290
     0
174
     0
 93
        1
 44
0.0
173
     0
291
     1
 45
0.0
1001
ACAD
1000
AcDbSavedByObjectVersion
1070
     0
  0
DICTIONARYVAR
  5
44E
102
{ACAD_REACTORS
330
44A
102
}
330
44A
100
DictionaryVariables
280
     0
  1
80.000000
  0
DICTIONARYVAR
  5
44D
102
{ACAD_REACTORS
330
44A
102
}
330
44A
100
DictionaryVariables
280
     0
  1
5.000000
  0
ENDSEC
  0
EOF
