  0
SECTION
  2
HEADER
  9
$ACADVER
  1
AC1015
  9
$ACADMAINTVER
 70
     6
  9
$DWGCODEPAGE
  3
ANSI_1252
  9
$INSBASE
 10
0.0
 20
0.0
 30
0.0
  9
$EXTMIN
 10
-112.741638
 20
119.020683
 30
0.0
  9
$EXTMAX
 10
348.172882
 20
860.717407
 30
0.0
  9
$LIMMIN
 10
-112.741638
 20
119.020683
  9
$LIMMAX
 10
348.172882
 20
860.717407
  9
$ORTHOMODE
 70
     0
  9
$REGENMODE
 70
     1
  9
$FILLMODE
 70
     1
  9
$QTEXTMODE
 70
     0
  9
$MIRRTEXT
 70
     1
  9
$LTSCALE
 40
1.0
  9
$ATTMODE
 70
     1
  9
$TEXTSIZE
 40
2.5
  9
$TRACEWID
 40
1.0
  9
$TEXTSTYLE
  7
Standard
  9
$CLAYER
  8
0
  9
$CELTYPE
  6
ByLayer
  9
$CECOLOR
 62
   256
  9
$CELTSCALE
 40
1.0
  9
$DISPSILH
 70
     0
  9
$DIMSCALE
 40
1.0
  9
$DIMASZ
 40
2.5
  9
$DIMEXO
 40
0.625
  9
$DIMDLI
 40
3.75
  9
$DIMRND
 40
0.0
  9
$DIMDLE
 40
0.0
  9
$DIMEXE
 40
1.25
  9
$DIMTP
 40
0.0
  9
$DIMTM
 40
0.0
  9
$DIMTXT
 40
2.5
  9
$DIMCEN
 40
2.5
  9
$DIMTSZ
 40
0.0
  9
$DIMTOL
 70
     0
  9
$DIMLIM
 70
     0
  9
$DIMTIH
 70
     0
  9
$DIMTOH
 70
     0
  9
$DIMSE1
 70
     0
  9
$DIMSE2
 70
     0
  9
$DIMTAD
 70
     1
  9
$DIMZIN
 70
     8
  9
$DIMBLK
  1

  9
$DIMASO
 70
     1
  9
$DIMSHO
 70
     1
  9
$DIMPOST
  1

  9
$DIMAPOST
  1

  9
$DIMALT
 70
     0
  9
$DIMALTD
 70
     3
  9
$DIMALTF
 40
0.03937
  9
$DIMLFAC
 40
1.0
  9
$DIMTOFL
 70
     1
  9
$DIMTVP
 40
0.0
  9
$DIMTIX
 70
     0
  9
$DIMSOXD
 70
     0
  9
$DIMSAH
 70
     0
  9
$DIMBLK1
  1

  9
$DIMBLK2
  1

  9
$DIMSTYLE
  2
ISO-25
  9
$DIMCLRD
 70
     0
  9
$DIMCLRE
 70
     0
  9
$DIMCLRT
 70
     0
  9
$DIMTFAC
 40
1.0
  9
$DIMGAP
 40
0.625
  9
$DIMJUST
 70
     0
  9
$DIMSD1
 70
     0
  9
$DIMSD2
 70
     0
  9
$DIMTOLJ
 70
     0
  9
$DIMTZIN
 70
     8
  9
$DIMALTZ
 70
     0
  9
$DIMALTTZ
 70
     0
  9
$DIMUPT
 70
     0
  9
$DIMDEC
 70
     2
  9
$DIMTDEC
 70
     2
  9
$DIMALTU
 70
     2
  9
$DIMALTTD
 70
     3
  9
$DIMTXSTY
  7
Standard
  9
$DIMAUNIT
 70
     0
  9
$DIMADEC
 70
     0
  9
$DIMALTRND
 40
0.0
  9
$DIMAZIN
 70
     0
  9
$DIMDSEP
 70
    44
  9
$DIMATFIT
 70
     3
  9
$DIMFRAC
 70
     0
  9
$DIMLDRBLK
  1

  9
$DIMLUNIT
 70
     2
  9
$DIMLWD
 70
    -2
  9
$DIMLWE
 70
    -2
  9
$DIMTMOVE
 70
     0
  9
$LUNITS
 70
     2
  9
$LUPREC
 70
     4
  9
$SKETCHINC
 40
1.0
  9
$FILLETRAD
 40
10.0
  9
$AUNITS
 70
     0
  9
$AUPREC
 70
     0
  9
$MENU
  1
.
  9
$ELEVATION
 40
0.0
  9
$PELEVATION
 40
0.0
  9
$THICKNESS
 40
0.0
  9
$LIMCHECK
 70
     0
  9
$CHAMFERA
 40
10.0
  9
$CHAMFERB
 40
10.0
  9
$CHAMFERC
 40
20.0
  9
$CHAMFERD
 40
0.0
  9
$SKPOLY
 70
     0
  9
$TDCREATE
 40
2455576.710293218
  9
$TDUCREATE
 40
2455576.668626551
  9
$TDUPDATE
 40
2455576.710293229
  9
$TDUUPDATE
 40
2455576.668626563
  9
$TDINDWG
 40
0.0000000116
  9
$TDUSRTIMER
 40
0.0000000116
  9
$USRTIMER
 70
     1
  9
$ANGBASE
 50
0.0
  9
$ANGDIR
 70
     0
  9
$PDMODE
 70
     0
  9
$PDSIZE
 40
0.0
  9
$PLINEWID
 40
0.0
  9
$SPLFRAME
 70
     0
  9
$SPLINETYPE
 70
     6
  9
$SPLINESEGS
 70
     8
  9
$HANDSEED
  5
34D
  9
$SURFTAB1
 70
     6
  9
$SURFTAB2
 70
     6
  9
$SURFTYPE
 70
     6
  9
$SURFU
 70
     6
  9
$SURFV
 70
     6
  9
$UCSBASE
  2

  9
$UCSNAME
  2

  9
$UCSORG
 10
0.0
 20
0.0
 30
0.0
  9
$UCSXDIR
 10
1.0
 20
0.0
 30
0.0
  9
$UCSYDIR
 10
0.0
 20
1.0
 30
0.0
  9
$UCSORTHOREF
  2

  9
$UCSORTHOVIEW
 70
     0
  9
$UCSORGTOP
 10
0.0
 20
0.0
 30
0.0
  9
$UCSORGBOTTOM
 10
0.0
 20
0.0
 30
0.0
  9
$UCSORGLEFT
 10
0.0
 20
0.0
 30
0.0
  9
$UCSORGRIGHT
 10
0.0
 20
0.0
 30
0.0
  9
$UCSORGFRONT
 10
0.0
 20
0.0
 30
0.0
  9
$UCSORGBACK
 10
0.0
 20
0.0
 30
0.0
  9
$PUCSBASE
  2

  9
$PUCSNAME
  2

  9
$PUCSORG
 10
0.0
 20
0.0
 30
0.0
  9
$PUCSXDIR
 10
1.0
 20
0.0
 30
0.0
  9
$PUCSYDIR
 10
0.0
 20
1.0
 30
0.0
  9
$PUCSORTHOREF
  2

  9
$PUCSORTHOVIEW
 70
     0
  9
$PUCSORGTOP
 10
0.0
 20
0.0
 30
0.0
  9
$PUCSORGBOTTOM
 10
0.0
 20
0.0
 30
0.0
  9
$PUCSORGLEFT
 10
0.0
 20
0.0
 30
0.0
  9
$PUCSORGRIGHT
 10
0.0
 20
0.0
 30
0.0
  9
$PUCSORGFRONT
 10
0.0
 20
0.0
 30
0.0
  9
$PUCSORGBACK
 10
0.0
 20
0.0
 30
0.0
  9
$USERI1
 70
     0
  9
$USERI2
 70
     0
  9
$USERI3
 70
     0
  9
$USERI4
 70
     0
  9
$USERI5
 70
     0
  9
$USERR1
 40
0.0
  9
$USERR2
 40
0.0
  9
$USERR3
 40
0.0
  9
$USERR4
 40
0.0
  9
$USERR5
 40
0.0
  9
$WORLDVIEW
 70
     1
  9
$SHADEDGE
 70
     3
  9
$SHADEDIF
 70
    70
  9
$TILEMODE
 70
     1
  9
$MAXACTVP
 70
    64
  9
$PINSBASE
 10
0.0
 20
0.0
 30
0.0
  9
$PLIMCHECK
 70
     0
  9
$PEXTMIN
 10
1.000000E+20
 20
1.000000E+20
 30
1.000000E+20
  9
$PEXTMAX
 10
-1.000000E+20
 20
-1.000000E+20
 30
-1.000000E+20
  9
$PLIMMIN
 10
0.0
 20
0.0
  9
$PLIMMAX
 10
420.0
 20
297.0
  9
$UNITMODE
 70
     0
  9
$VISRETAIN
 70
     1
  9
$PLINEGEN
 70
     0
  9
$PSLTSCALE
 70
     1
  9
$TREEDEPTH
 70
  3020
  9
$CMLSTYLE
  2
Standard
  9
$CMLJUST
 70
     0
  9
$CMLSCALE
 40
20.0
  9
$PROXYGRAPHICS
 70
     1
  9
$MEASUREMENT
 70
     1
  9
$CELWEIGHT
370
    -1
  9
$ENDCAPS
280
     0
  9
$JOINSTYLE
280
     0
  9
$LWDISPLAY
290
     0
  9
$INSUNITS
 70
     4
  9
$HYPERLINKBASE
  1

  9
$STYLESHEET
  1

  9
$XEDIT
290
     1
  9
$CEPSNTYPE
380
     0
  9
$PSTYLEMODE
290
     1
  9
$FINGERPRINTGUID
  2
{32526088-3AD0-41AB-A4CF-61C426E08C7D}
  9
$VERSIONGUID
  2
{FAEB1C32-E019-11D5-929B-00C0DF256EC4}
  9
$EXTNAMES
290
     1
  9
$PSVPSCALE
 40
0.0
  9
$OLESTARTUP
290
     0
  0
ENDSEC
  0
SECTION
  2
CLASSES
  0
CLASS
  1
ACDBDICTIONARYWDFLT
  2
AcDbDictionaryWithDefault
  3
ObjectDBX Classes
 90
        0
280
     0
281
     0
  0
CLASS
  1
VISUALSTYLE
  2
AcDbVisualStyle
  3
ObjectDBX Classes
 90
     4095
280
     0
281
     0
  0
CLASS
  1
DICTIONARYVAR
  2
AcDbDictionaryVar
  3
ObjectDBX Classes
 90
        0
280
     0
281
     0
  0
CLASS
  1
ACDBPLACEHOLDER
  2
AcDbPlaceHolder
  3
ObjectDBX Classes
 90
        0
280
     0
281
     0
  0
CLASS
  1
LAYOUT
  2
AcDbLayout
  3
ObjectDBX Classes
 90
        0
280
     0
281
     0
  0
ENDSEC
  0
SECTION
  2
TABLES
  0
TABLE
  2
VPORT
  5
8
330
0
100
AcDbSymbolTable
 70
     1
  0
VPORT
  5
29
330
8
100
AcDbSymbolTableRecord
100
AcDbViewportTableRecord
  2
*Active
 70
     0
 10
0.0
 20
0.0
 11
1.0
 21
1.0
 12
344.186916
 22
148.5
 13
0.0
 23
0.0
 14
10.0
 24
10.0
 15
10.0
 25
10.0
 16
0.0
 26
0.0
 36
1.0
 17
0.0
 27
0.0
 37
0.0
 40
297.0
 41
1.972973
 42
50.0
 43
0.0
 44
0.0
 50
0.0
 51
0.0
 71
     0
 72
   100
 73
     1
 74
     3
 75
     0
 76
     0
 77
     0
 78
     0
281
     0
 65
     1
110
0.0
120
0.0
130
0.0
111
1.0
121
0.0
131
0.0
112
0.0
122
1.0
132
0.0
 79
     0
146
0.0
  0
ENDTAB
  0
TABLE
  2
LTYPE
  5
5
330
0
100
AcDbSymbolTable
 70
     1
  0
LTYPE
  5
14
330
5
100
AcDbSymbolTableRecord
100
AcDbLinetypeTableRecord
  2
ByBlock
 70
     0
  3

 72
    65
 73
     0
 40
0.0
  0
LTYPE
  5
15
330
5
100
AcDbSymbolTableRecord
100
AcDbLinetypeTableRecord
  2
ByLayer
 70
     0
  3

 72
    65
 73
     0
 40
0.0
  0
LTYPE
  5
16
330
5
100
AcDbSymbolTableRecord
100
AcDbLinetypeTableRecord
  2
Continuous
 70
     0
  3
Solid line
 72
    65
 73
     0
 40
0.0
  0
ENDTAB
  0
TABLE
  2
LAYER
  5
2
330
0
100
AcDbSymbolTable
 70
     1
  0
LAYER
  5
10
330
2
100
AcDbSymbolTableRecord
100
AcDbLayerTableRecord
  2
0
 70
     0
 62
   106
  6
Continuous
370
     0
390
F
  0
ENDTAB
  0
TABLE
  2
STYLE
  5
3
330
0
100
AcDbSymbolTable
 70
     4
  0
STYLE
  5
11
330
3
100
AcDbSymbolTableRecord
100
AcDbTextStyleTableRecord
  2
Standard
 70
     0
 40
0.0
 41
1.0
 50
0.0
 71
     0
 42
2.5
  3
txt
  4

  0
STYLE
  5
3B
330
3
100
AcDbSymbolTableRecord
100
AcDbTextStyleTableRecord
  2
Default
 70
     0
 40
0.0
 41
1.0
 50
0.0
 71
     0
 42
0.2
  3

  4

1001
ACAD
1000
txt
1071
        0
  0
STYLE
  5
3C
330
3
100
AcDbSymbolTableRecord
100
AcDbTextStyleTableRecord
  2
ISO
 70
     0
 40
0.0
 41
1.0
 50
0.0
 71
     0
 42
0.2
  3

  4

1001
ACAD
1000
txt
1071
        0
  0
STYLE
  5
3D
330
3
100
AcDbSymbolTableRecord
100
AcDbTextStyleTableRecord
  2
GIANLU
 70
     0
 40
0.0
 41
1.0
 50
0.0
 71
     0
 42
0.2
  3

  4

1001
ACAD
1000
Arial
1071
        0
  0
ENDTAB
  0
TABLE
  2
VIEW
  5
6
330
0
100
AcDbSymbolTable
 70
     0
  0
ENDTAB
  0
TABLE
  2
UCS
  5
7
330
0
100
AcDbSymbolTable
 70
     0
  0
ENDTAB
  0
TABLE
  2
APPID
  5
9
330
0
100
AcDbSymbolTable
 70
     1
  0
APPID
  5
12
330
9
100
AcDbSymbolTableRecord
100
AcDbRegAppTableRecord
  2
ACAD
 70
     0
  0
ENDTAB
  0
TABLE
  2
DIMSTYLE
  5
A
330
0
100
AcDbSymbolTable
 70
     4
100
AcDbDimStyleTable
  0
DIMSTYLE
105
27
330
A
100
AcDbSymbolTableRecord
100
AcDbDimStyleTableRecord
  2
ISO-25
 70
     0
 41
2.5
 42
0.625
 43
3.75
 44
1.25
 73
     0
 74
     0
 77
     1
 78
     8
140
2.5
141
2.5
143
0.03937
147
0.625
171
     3
172
     1
271
     2
272
     2
274
     3
278
    44
283
     0
284
     8
340
11
  0
DIMSTYLE
105
3E
330
A
100
AcDbSymbolTableRecord
100
AcDbDimStyleTableRecord
  2
Default
 70
     0
  3
<>
 41
4.375
 42
1.05
 44
2.1
 73
     0
 74
     0
 77
     1
 78
     8
140
3.5
146
0.4
147
1.75
178
     3
271
     2
272
     3
284
     8
340
3B
341
3F
342
3F
  0
DIMSTYLE
105
46
330
A
100
AcDbSymbolTableRecord
100
AcDbDimStyleTableRecord
  2
ISO
 70
     0
  3
<>
 41
4.375
 42
1.05
 44
2.1
 73
     0
 74
     0
 77
     1
 78
     8
140
3.5
146
0.4
147
1.75
178
     3
271
     2
272
     3
284
     8
340
3C
341
3F
342
3F
  0
DIMSTYLE
105
47
330
A
100
AcDbSymbolTableRecord
100
AcDbDimStyleTableRecord
  2
zucchetti_unico
 70
     0
  3
<>
 41
3.0
 42
0.9
 44
1.8
 73
     0
 74
     0
 77
     1
 78
     8
140
3.0
146
0.6
147
1.5
176
   104
177
     3
178
     3
271
     2
272
     2
284
     8
340
3D
  0
ENDTAB
  0
TABLE
  2
BLOCK_RECORD
  5
1
330
0
100
AcDbSymbolTable
 70
     7
  0
BLOCK_RECORD
  5
1F
330
1
100
AcDbSymbolTableRecord
100
AcDbBlockTableRecord
  2
*Model_Space
340
22
  0
BLOCK_RECORD
  5
1B
330
1
100
AcDbSymbolTableRecord
100
AcDbBlockTableRecord
  2
*Paper_Space
340
1E
  0
BLOCK_RECORD
  5
23
330
1
100
AcDbSymbolTableRecord
100
AcDbBlockTableRecord
  2
*Paper_Space0
340
26
  0
BLOCK_RECORD
  5
3F
330
1
100
AcDbSymbolTableRecord
100
AcDbBlockTableRecord
  2
_CLOSED
340
0
  0
BLOCK_RECORD
  5
48
330
1
100
AcDbSymbolTableRecord
100
AcDbBlockTableRecord
  2
a
340
0
102
{BLKREFS
331
EB
102
}
  0
BLOCK_RECORD
  5
EC
330
1
100
AcDbSymbolTableRecord
100
AcDbBlockTableRecord
  2
b
340
0
102
{BLKREFS
331
135
102
}
  0
BLOCK_RECORD
  5
136
330
1
100
AcDbSymbolTableRecord
100
AcDbBlockTableRecord
  2
c
340
0
102
{BLKREFS
331
1E4
102
}
  0
BLOCK_RECORD
  5
1E5
330
1
100
AcDbSymbolTableRecord
100
AcDbBlockTableRecord
  2
d
340
0
102
{BLKREFS
331
29C
102
}
  0
BLOCK_RECORD
  5
29D
330
1
100
AcDbSymbolTableRecord
100
AcDbBlockTableRecord
  2
e
340
0
102
{BLKREFS
331
347
102
}
  0
ENDTAB
  0
ENDSEC
  0
SECTION
  2
BLOCKS
  0
BLOCK
  5
20
330
1F
100
AcDbEntity
  8
0
100
AcDbBlockBegin
  2
*Model_Space
 70
     0
 10
0.0
 20
0.0
 30
0.0
  3
*Model_Space
  1

  0
ENDBLK
  5
21
330
1F
100
AcDbEntity
  8
0
100
AcDbBlockEnd
  0
BLOCK
  5
1C
330
1B
100
AcDbEntity
 67
     1
  8
0
100
AcDbBlockBegin
  2
*Paper_Space
 70
     0
 10
0.0
 20
0.0
 30
0.0
  3
*Paper_Space
  1

  0
ENDBLK
  5
1D
330
1B
100
AcDbEntity
 67
     1
  8
0
100
AcDbBlockEnd
  0
BLOCK
  5
24
330
23
100
AcDbEntity
  8
0
100
AcDbBlockBegin
  2
*Paper_Space0
 70
     0
 10
0.0
 20
0.0
 30
0.0
  3
*Paper_Space0
  1

  0
ENDBLK
  5
25
330
23
100
AcDbEntity
  8
0
100
AcDbBlockEnd
  0
BLOCK
  5
40
330
3F
100
AcDbEntity
  8
0
100
AcDbBlockBegin
  2
_CLOSED
 70
     0
 10
0.0
 20
0.0
 30
0.0
  3
_CLOSED
  1

  0
LINE
  5
42
330
3F
100
AcDbEntity
  8
0
  6
ByBlock
 62
     0
370
    -2
100
AcDbLine
 10
-1.0
 20
0.166667
 30
0.0
 11
0.0
 21
0.0
 31
0.0
  0
LINE
  5
43
330
3F
100
AcDbEntity
  8
0
  6
ByBlock
 62
     0
370
    -2
100
AcDbLine
 10
0.0
 20
0.0
 30
0.0
 11
-1.0
 21
-0.166667
 31
0.0
  0
LINE
  5
44
330
3F
100
AcDbEntity
  8
0
  6
ByBlock
 62
     0
370
    -2
100
AcDbLine
 10
-1.0
 20
0.166667
 30
0.0
 11
-1.0
 21
-0.166667
 31
0.0
  0
LINE
  5
45
330
3F
100
AcDbEntity
  8
0
  6
ByBlock
 62
     0
370
    -2
100
AcDbLine
 10
0.0
 20
0.0
 30
0.0
 11
-1.0
 21
0.0
 31
0.0
  0
ENDBLK
  5
41
330
3F
100
AcDbEntity
  8
0
100
AcDbBlockEnd
  0
BLOCK
  5
E9
330
48
100
AcDbEntity
  8
0
100
AcDbBlockBegin
  2
a
 70
     0
 10
10.760319
 20
87.502983
 30
0.0
  3
a
  1

  0
ARC
  5
49
330
48
100
AcDbEntity
  8
0
  6
Continuous
 62
     0
370
    30
100
AcDbCircle
 10
99.139081
 20
578.263038
 30
0.0
 40
19.66608080893975
100
AcDbArc
 50
269.999397
 51
78.265003
  0
ARC
  5
4A
330
48
100
AcDbEntity
  8
0
  6
Continuous
 62
     0
370
    30
100
AcDbCircle
 10
99.138667
 20
578.263038
 30
0.0
 40
19.66608080893975
100
AcDbArc
 50
101.734997
 51
270.000603
  0
ARC
  5
4B
330
48
100
AcDbEntity
  8
0
  6
Continuous
 62
     0
370
    30
100
AcDbCircle
 10
99.139461
 20
578.217415
 30
0.0
 40
59.99882685985408
100
AcDbArc
 50
269.99944
 51
90.00056
  0
ARC
  5
4C
330
48
100
AcDbEntity
  8
0
  6
Continuous
 62
     0
370
    30
100
AcDbCircle
 10
99.138287
 20
578.217415
 30
0.0
 40
59.99882685985408
100
AcDbArc
 50
89.99944
 51
270.00056
  0
ARC
  5
4D
330
48
100
AcDbEntity
  8
0
  6
Continuous
 62
     0
370
     0
100
AcDbCircle
 10
99.138293
 20
578.261623
 30
0.0
 40
59.45461899556535
100
AcDbArc
 50
89.99944
 51
270.00056
  0
ARC
  5
4E
330
48
100
AcDbEntity
  8
0
  6
Continuous
 62
     0
370
     0
100
AcDbCircle
 10
99.139455
 20
578.261623
 30
0.0
 40
59.45461899556535
100
AcDbArc
 50
269.99944
 51
90.00056
  0
ARC
  5
4F
330
48
100
AcDbEntity
  8
0
  6
Continuous
 62
     0
370
    30
100
AcDbCircle
 10
99.13946
 20
578.259422
 30
0.0
 40
59.95682010142477
100
AcDbArc
 50
269.99944
 51
90.00056
  0
ARC
  5
50
330
48
100
AcDbEntity
  8
0
  6
Continuous
 62
     0
370
    30
100
AcDbCircle
 10
99.138288
 20
578.259422
 30
0.0
 40
59.95682010142477
100
AcDbArc
 50
89.99944
 51
270.00056
  0
ARC
  5
51
330
48
100
AcDbEntity
  8
0
  6
Continuous
 62
     0
370
     0
100
AcDbCircle
 10
99.138688
 20
578.429525
 30
0.0
 40
18.99962850561706
100
AcDbArc
 50
89.99944
 51
270.00056
  0
ARC
  5
52
330
48
100
AcDbEntity
  8
0
  6
Continuous
 62
     0
370
     0
100
AcDbCircle
 10
99.13906
 20
578.429525
 30
0.0
 40
18.99962850561706
100
AcDbArc
 50
269.99944
 51
90.00056
  0
ARC
  5
53
330
48
100
AcDbEntity
  8
0
  6
Continuous
 62
     0
370
    30
100
AcDbCircle
 10
99.139065
 20
578.427324
 30
0.0
 40
19.50182961147284
100
AcDbArc
 50
269.99944
 51
90.00056
  0
ARC
  5
54
330
48
100
AcDbEntity
  8
0
  6
Continuous
 62
     0
370
    30
100
AcDbCircle
 10
99.138683
 20
578.427324
 30
0.0
 40
19.50182961147284
100
AcDbArc
 50
89.99944
 51
270.00056
  0
LINE
  5
55
330
48
100
AcDbEntity
  8
0
  6
Continuous
 62
     0
370
     0
100
AcDbLine
 10
97.973488
 20
604.929525
 30
0.0
 11
95.138874
 21
604.929525
 31
0.0
  0
LINE
  5
56
330
48
100
AcDbEntity
  8
0
  6
Continuous
 62
     0
370
     0
100
AcDbLine
 10
103.138874
 20
604.929525
 30
0.0
 11
97.973488
 21
604.929525
 31
0.0
  0
LINE
  5
57
330
48
100
AcDbEntity
  8
0
  6
Continuous
 62
     0
370
    30
100
AcDbLine
 10
102.638874
 20
605.429525
 30
0.0
 11
98.119161
 21
605.429525
 31
0.0
  0
LINE
  5
58
330
48
100
AcDbEntity
  8
0
  6
Continuous
 62
     0
370
    30
100
AcDbLine
 10
98.119161
 20
605.429525
 30
0.0
 11
95.638874
 21
605.429525
 31
0.0
  0
ARC
  5
59
330
48
100
AcDbEntity
  8
0
  6
Continuous
 62
     0
370
    30
100
AcDbCircle
 10
102.638711
 20
604.929533
 30
0.0
 40
0.4999921416634377
100
AcDbArc
 50
359.999099
 51
89.980905
  0
ARC
  5
5A
330
48
100
AcDbEntity
  8
0
  6
Continuous
 62
     0
370
    30
100
AcDbCircle
 10
95.638882
 20
604.929523
 30
0.0
 40
0.5000024122982065
100
AcDbArc
 50
90.002903
 51
179.999724
  0
LINE
  5
5B
330
48
100
AcDbEntity
  8
0
  6
Continuous
 62
     0
370
    30
100
AcDbLine
 10
95.138874
 20
604.929525
 30
0.0
 11
95.138874
 21
597.515656
 31
0.0
  0
LINE
  5
5C
330
48
100
AcDbEntity
  8
0
  6
Continuous
 62
     0
370
    30
100
AcDbLine
 10
103.138874
 20
604.929525
 30
0.0
 11
103.138874
 21
597.515418
 31
0.0
  0
LINE
  5
5D
330
48
100
AcDbEntity
  8
0
  6
Continuous
 62
     0
370
     0
100
AcDbLine
 10
104.850794
 20
731.577
 30
0.0
 11
104.878616
 21
733.386876
 31
0.0
  0
ARC
  5
5E
330
48
100
AcDbEntity
  8
0
  6
Continuous
 62
     0
370
    30
100
AcDbCircle
 10
99.138876
 20
683.718498
 30
0.0
 40
49.99892436391242
100
AcDbArc
 50
83.408068
 51
96.591937
  0
LINE
  5
5F
330
48
100
AcDbEntity
  8
0
  6
Continuous
 62
     0
370
     0
100
AcDbLine
 10
93.399132
 20
733.386876
 30
0.0
 11
93.426954
 21
731.577
 31
0.0
  0
ARC
  5
60
330
48
100
AcDbEntity
  8
0
  6
Continuous
 62
     0
370
     0
100
AcDbCircle
 10
99.138878
 20
-583.817385
 30
0.0
 40
1315.406785989005
100
AcDbArc
 50
89.751203
 51
90.248798
  0
LWPOLYLINE
  5
61
330
48
100
AcDbEntity
  8
0
  6
Continuous
 62
     0
370
     0
100
AcDbPolyline
 90
        3
 70
     0
 43
0.0
 10
120.506401
 20
731.476196
 10
120.651596
 20
731.529968
 10
120.8218
 20
731.544495
  0
LINE
  5
62
330
48
100
AcDbEntity
  8
0
  6
Continuous
 62
     0
370
    30
100
AcDbLine
 10
120.433029
 20
731.589428
 30
0.0
 11
104.878616
 21
733.386876
 31
0.0
  0
ARC
  5
63
330
48
100
AcDbEntity
  8
0
  6
Continuous
 62
     0
370
     0
100
AcDbCircle
 10
89.210956
 20
-2913.143232
 30
0.0
 40
3644.753787511123
100
AcDbArc
 50
89.508027
 51
89.75414
  0
ARC
  5
64
330
48
100
AcDbEntity
  8
0
  6
Continuous
 62
     0
370
    30
100
AcDbCircle
 10
120.707012
 20
725.883753
 30
0.0
 40
1.00003357810921
100
AcDbArc
 50
276.591075
 51
359.998766
  0
LINE
  5
65
330
48
100
AcDbEntity
  8
0
  6
Continuous
 62
     0
370
    30
100
AcDbLine
 10
104.878616
 20
723.047954
 30
0.0
 11
120.433029
 21
724.845404
 31
0.0
  0
ARC
  5
66
330
48
100
AcDbEntity
  8
0
  6
Continuous
 62
     0
370
    30
100
AcDbCircle
 10
99.138872
 20
772.716378
 30
0.0
 40
49.99896991763178
100
AcDbArc
 50
263.408074
 51
276.591931
  0
LINE
  5
67
330
48
100
AcDbEntity
  8
0
  6
Continuous
 62
     0
370
    30
100
AcDbLine
 10
77.841288
 20
724.845798
 30
0.0
 11
93.399132
 21
723.047954
 31
0.0
  0
ARC
  5
68
330
48
100
AcDbEntity
  8
0
  6
Continuous
 62
     0
370
    30
100
AcDbCircle
 10
77.570736
 20
725.883751
 30
0.0
 40
1.000033531310699
100
AcDbArc
 50
180.001222
 51
263.408931
  0
LINE
  5
69
330
48
100
AcDbEntity
  8
0
  6
Continuous
 62
     0
370
    30
100
AcDbLine
 10
76.570702
 20
730.551098
 30
0.0
 11
76.570702
 21
725.88373
 31
0.0
  0
ARC
  5
6A
330
48
100
AcDbEntity
  8
0
  6
Continuous
 62
     0
370
    30
100
AcDbCircle
 10
77.570736
 20
730.551076
 30
0.0
 40
1.000033579018021
100
AcDbArc
 50
96.591075
 51
179.998766
  0
LINE
  5
6B
330
48
100
AcDbEntity
  8
0
  6
Continuous
 62
     0
370
    30
100
AcDbLine
 10
93.399132
 20
733.386876
 30
0.0
 11
77.841288
 21
731.58903
 31
0.0
  0
ARC
  5
6C
330
48
100
AcDbEntity
  8
0
  6
Continuous
 62
     0
370
    30
100
AcDbCircle
 10
120.707012
 20
730.551078
 30
0.0
 40
1.00003352725355
100
AcDbArc
 50
0.001221
 51
83.408845
  0
LINE
  5
6D
330
48
100
AcDbEntity
  8
0
  6
Continuous
 62
     0
370
    30
100
AcDbLine
 10
121.707046
 20
725.883732
 30
0.0
 11
121.707046
 21
730.5511
 31
0.0
  0
LWPOLYLINE
  5
6E
330
48
100
AcDbEntity
  8
0
  6
Continuous
 62
     0
370
     0
100
AcDbPolyline
 90
        3
 70
     0
 43
0.0
 10
77.455948
 20
731.544495
 10
77.551437
 20
731.543701
 10
77.771347
 20
731.476196
  0
ARC
  5
6F
330
48
100
AcDbEntity
  8
0
  6
Continuous
 62
     0
370
     0
100
AcDbCircle
 10
109.071506
 20
-2913.826082
 30
0.0
 40
3645.436651232269
100
AcDbArc
 50
90.245888
 51
90.491955
  0
ARC
  5
70
330
48
100
AcDbEntity
  8
0
  6
Continuous
 62
     0
370
     0
100
AcDbCircle
 10
99.139163
 20
-387.827557
 30
0.0
 40
1118.426616325944
100
AcDbArc
 50
89.70766
 51
90.292371
  0
LINE
  5
71
330
48
100
AcDbEntity
  8
0
  6
Continuous
 62
     0
370
     0
100
AcDbLine
 10
104.850794
 20
731.577
 30
0.0
 11
104.845686
 21
730.584502
 31
0.0
  0
LINE
  5
72
330
48
100
AcDbEntity
  8
0
  6
Continuous
 62
     0
370
     0
100
AcDbLine
 10
93.432034
 20
730.584498
 30
0.0
 11
93.426953
 21
731.576998
 31
0.0
  0
ARC
  5
73
330
48
100
AcDbEntity
  8
0
  6
Continuous
 62
     0
370
     0
100
AcDbCircle
 10
120.497403
 20
730.476116
 30
0.0
 40
1.000122158134687
100
AcDbArc
 50
0.009049
 51
89.484348
  0
ARC
  5
74
330
48
100
AcDbEntity
  8
0
  6
Continuous
 62
     0
370
     0
100
AcDbCircle
 10
121.67428
 20
730.312093
 30
0.0
 40
0.2412418694962075
100
AcDbArc
 50
82.19385
 51
137.112223
  0
ARC
  5
75
330
48
100
AcDbEntity
  8
0
  6
Continuous
 62
     0
370
     0
100
AcDbCircle
 10
83.349998
 20
-3509.874837
 30
0.0
 40
4240.513820642898
100
AcDbArc
 50
89.498074
 51
89.709559
  0
LINE
  5
76
330
48
100
AcDbEntity
  8
0
  6
Continuous
 62
     0
370
     0
100
AcDbLine
 10
120.506403
 20
731.476195
 30
0.0
 11
120.497563
 21
730.476272
 31
0.0
  0
LINE
  5
77
330
48
100
AcDbEntity
  8
0
  6
Continuous
 62
     0
370
     0
100
AcDbLine
 10
121.497525
 20
725.958558
 30
0.0
 11
121.497525
 21
730.476274
 31
0.0
  0
ARC
  5
78
330
48
100
AcDbEntity
  8
0
  6
Continuous
 62
     0
370
     0
100
AcDbCircle
 10
121.67428
 20
726.122738
 30
0.0
 40
0.2412417709913083
100
AcDbArc
 50
222.887776
 51
277.806171
  0
ARC
  5
79
330
48
100
AcDbEntity
  8
0
  6
Continuous
 62
     0
370
     0
100
AcDbCircle
 10
76.603468
 20
730.312092
 30
0.0
 40
0.2412417721090601
100
AcDbArc
 50
42.887776
 51
97.806171
  0
ARC
  5
7A
330
48
100
AcDbEntity
  8
0
  6
Continuous
 62
     0
370
     0
100
AcDbCircle
 10
77.780345
 20
730.476114
 30
0.0
 40
1.000122158358923
100
AcDbArc
 50
90.515657
 51
179.990956
  0
ARC
  5
7B
330
48
100
AcDbEntity
  8
0
  6
Continuous
 62
     0
370
     0
100
AcDbCircle
 10
76.603468
 20
726.122736
 30
0.0
 40
0.2412418666448657
100
AcDbArc
 50
262.19385
 51
317.112223
  0
LINE
  5
7C
330
48
100
AcDbEntity
  8
0
  6
Continuous
 62
     0
370
     0
100
AcDbLine
 10
76.780223
 20
725.958556
 30
0.0
 11
76.780223
 21
730.476272
 31
0.0
  0
ARC
  5
7D
330
48
100
AcDbEntity
  8
0
  6
Continuous
 62
     0
370
     0
100
AcDbCircle
 10
77.780346
 20
725.958714
 30
0.0
 40
1.000122158097614
100
AcDbArc
 50
180.009049
 51
269.484348
  0
LWPOLYLINE
  5
7E
330
48
100
AcDbEntity
  8
0
  6
Continuous
 62
     0
370
    30
100
AcDbPolyline
 90
        3
 70
     0
 43
0.0
 10
77.771347
 20
724.958618
 10
77.631798
 20
724.90625
 10
77.455948
 20
724.89032
  0
ARC
  5
7F
330
48
100
AcDbEntity
  8
0
  6
Continuous
 62
     0
370
     0
100
AcDbCircle
 10
109.07199
 20
4370.385494
 30
0.0
 40
3645.561234944681
100
AcDbArc
 50
269.508055
 51
269.754113
  0
LINE
  5
80
330
48
100
AcDbEntity
  8
0
  6
Continuous
 62
     0
370
     0
100
AcDbLine
 10
93.426954
 20
724.85783
 30
0.0
 11
93.399132
 21
723.047954
 31
0.0
  0
ARC
  5
81
330
48
100
AcDbEntity
  8
0
  6
Continuous
 62
     0
370
     0
100
AcDbCircle
 10
99.138747
 20
2039.834671
 30
0.0
 40
1314.989246878283
100
AcDbArc
 50
269.751129
 51
270.248882
  0
LINE
  5
82
330
48
100
AcDbEntity
  8
0
  6
Continuous
 62
     0
370
     0
100
AcDbLine
 10
104.850795
 20
724.857831
 30
0.0
 11
104.878616
 21
723.047954
 31
0.0
  0
ARC
  5
83
330
48
100
AcDbEntity
  8
0
  6
Continuous
 62
     0
370
     0
100
AcDbCircle
 10
89.209298
 20
4369.787989
 30
0.0
 40
3644.963719038458
100
AcDbArc
 50
270.245872
 51
270.49197
  0
LWPOLYLINE
  5
84
330
48
100
AcDbEntity
  8
0
  6
Continuous
 62
     0
370
     0
100
AcDbPolyline
 90
        3
 70
     0
 43
0.0
 10
120.506401
 20
724.958618
 10
120.651596
 20
724.904846
 10
120.8218
 20
724.89032
  0
ARC
  5
85
330
48
100
AcDbEntity
  8
0
  6
Continuous
 62
     0
370
     0
100
AcDbCircle
 10
120.497403
 20
725.958715
 30
0.0
 40
1.000122158385637
100
AcDbArc
 50
270.515657
 51
359.990956
  0
ARC
  5
86
330
48
100
AcDbEntity
  8
0
  6
Continuous
 62
     0
370
     0
100
AcDbCircle
 10
115.0547
 20
-3528.531568
 30
0.0
 40
4259.170955700516
100
AcDbArc
 50
90.290877
 51
90.501435
  0
LINE
  5
87
330
48
100
AcDbEntity
  8
0
  6
Continuous
 62
     0
370
     0
100
AcDbLine
 10
77.780188
 20
730.476279
 30
0.0
 11
77.771338
 21
731.476208
 31
0.0
  0
ARC
  5
88
330
48
100
AcDbEntity
  8
0
  6
Continuous
 62
     0
370
     0
100
AcDbCircle
 10
115.048173
 20
4983.936985
 30
0.0
 40
4258.141523501071
100
AcDbArc
 50
269.498531
 51
269.709141
  0
ARC
  5
89
330
48
100
AcDbEntity
  8
0
  6
Continuous
 62
     0
370
     0
100
AcDbCircle
 10
99.139245
 20
1844.161182
 30
0.0
 40
1118.325412324136
100
AcDbArc
 50
269.707601
 51
270.29236
  0
ARC
  5
8A
330
48
100
AcDbEntity
  8
0
  6
Continuous
 62
     0
370
     0
100
AcDbCircle
 10
83.221132
 20
4984.800631
 30
0.0
 40
4259.00520301359
100
AcDbArc
 50
270.290913
 51
270.501481
  0
LINE
  5
8B
330
48
100
AcDbEntity
  8
0
  6
Continuous
 62
     0
370
     0
100
AcDbLine
 10
120.497563
 20
730.476272
 30
0.0
 11
120.497563
 21
725.95856
 31
0.0
  0
LINE
  5
8C
330
48
100
AcDbEntity
  8
0
  6
Continuous
 62
     0
370
     0
100
AcDbLine
 10
77.780185
 20
725.958553
 30
0.0
 11
77.780185
 21
730.476279
 31
0.0
  0
LINE
  5
8D
330
48
100
AcDbEntity
  8
0
  6
Continuous
 62
     0
370
     0
100
AcDbLine
 10
121.497525
 20
725.958558
 30
0.0
 11
120.497563
 21
725.958557
 31
0.0
  0
LINE
  5
8E
330
48
100
AcDbEntity
  8
0
  6
Continuous
 62
     0
370
     0
100
AcDbLine
 10
120.497563
 20
730.476274
 30
0.0
 11
121.497525
 21
730.476275
 31
0.0
  0
LINE
  5
8F
330
48
100
AcDbEntity
  8
0
  6
Continuous
 62
     0
370
     0
100
AcDbLine
 10
76.780223
 20
730.476272
 30
0.0
 11
77.780188
 21
730.476272
 31
0.0
  0
LINE
  5
90
330
48
100
AcDbEntity
  8
0
  6
Continuous
 62
     0
370
     0
100
AcDbLine
 10
77.780198
 20
725.958556
 30
0.0
 11
76.780223
 21
725.958556
 31
0.0
  0
LINE
  5
91
330
48
100
AcDbEntity
  8
0
  6
Continuous
 62
     0
370
     0
100
AcDbLine
 10
77.780198
 20
725.958553
 30
0.0
 11
77.771345
 21
724.958624
 31
0.0
  0
LINE
  5
92
330
48
100
AcDbEntity
  8
0
  6
Continuous
 62
     0
370
     0
100
AcDbLine
 10
93.426954
 20
724.85783
 30
0.0
 11
93.432065
 21
725.850328
 31
0.0
  0
LINE
  5
93
330
48
100
AcDbEntity
  8
0
  6
Continuous
 62
     0
370
     0
100
AcDbLine
 10
104.850795
 20
724.857831
 30
0.0
 11
104.845684
 21
725.850326
 31
0.0
  0
LINE
  5
94
330
48
100
AcDbEntity
  8
0
  6
Continuous
 62
     0
370
     0
100
AcDbLine
 10
120.506403
 20
724.958637
 30
0.0
 11
120.497564
 21
725.95856
 31
0.0
  0
ARC
  5
95
330
48
100
AcDbEntity
  8
0
  6
Continuous
 62
     0
370
     0
100
AcDbCircle
 10
99.138874
 20
728.217415
 30
0.0
 40
32.06095238095237
100
AcDbArc
 50
180.0
 51
0.0
  0
ARC
  5
96
330
48
100
AcDbEntity
  8
0
  6
Continuous
 62
     0
370
     0
100
AcDbCircle
 10
99.138874
 20
728.217415
 30
0.0
 40
32.06095238095237
100
AcDbArc
 50
0.0
 51
180.0
  0
ARC
  5
97
330
48
100
AcDbEntity
  8
0
  6
Continuous
 62
     0
370
    30
100
AcDbCircle
 10
99.138874
 20
728.217415
 30
0.0
 40
32.50000000000001
100
AcDbArc
 50
360.0
 51
180.0
  0
ARC
  5
98
330
48
100
AcDbEntity
  8
0
  6
Continuous
 62
     0
370
    30
100
AcDbCircle
 10
99.138874
 20
728.217415
 30
0.0
 40
32.49999999999999
100
AcDbArc
 50
180.0
 51
360.0
  0
LWPOLYLINE
  5
99
330
48
100
AcDbEntity
  8
0
  6
Continuous
 62
     0
370
     0
100
AcDbPolyline
 90
       14
 70
     0
 43
0.0
 10
105.154221
 20
723.079773
 10
104.420944
 20
722.332825
 10
103.599113
 20
721.685913
 10
102.699638
 20
721.153381
 10
101.736687
 20
720.746033
 10
100.728607
 20
720.469543
 10
99.693039
 20
720.326965
 10
98.647888
 20
720.322754
 10
97.611229
 20
720.457092
 10
96.600983
 20
720.725525
 10
95.634789
 20
721.125061
 10
94.73098
 20
721.650269
 10
93.904175
 20
722.29071
 10
93.123528
 20
723.079773
  0
LWPOLYLINE
  5
9A
330
48
100
AcDbEntity
  8
0
  6
Continuous
 62
     0
370
     0
100
AcDbPolyline
 90
       14
 70
     0
 43
0.0
 10
93.123528
 20
733.355042
 10
93.856804
 20
734.10199
 10
94.678635
 20
734.748901
 10
95.57811
 20
735.281433
 10
96.541061
 20
735.688782
 10
97.549141
 20
735.965271
 10
98.584709
 20
736.107849
 10
99.62986
 20
736.112061
 10
100.666519
 20
735.977722
 10
101.676765
 20
735.70929
 10
102.64296
 20
735.309753
 10
103.546768
 20
734.784546
 10
104.373573
 20
734.144165
 10
105.154221
 20
733.355042
  0
LINE
  5
9B
330
48
100
AcDbEntity
  8
0
  6
Continuous
 62
     0
370
    30
100
AcDbLine
 10
120.820858
 20
724.890223
 30
0.0
 11
120.824714
 21
724.890674
 31
0.0
  0
LINE
  5
9C
330
48
100
AcDbEntity
  8
0
  6
Continuous
 62
     0
370
    30
100
AcDbLine
 10
120.820841
 20
724.890217
 30
0.0
 11
120.433029
 21
724.845404
 31
0.0
  0
LINE
  5
9D
330
48
100
AcDbEntity
  8
0
  6
Continuous
 62
     0
370
    30
100
AcDbLine
 10
77.841288
 20
724.845798
 30
0.0
 11
77.456916
 21
724.890214
 31
0.0
  0
LINE
  5
9E
330
48
100
AcDbEntity
  8
0
  6
Continuous
 62
     0
370
    30
100
AcDbLine
 10
77.456891
 20
724.890221
 30
0.0
 11
77.453033
 21
724.890673
 31
0.0
  0
LINE
  5
9F
330
48
100
AcDbEntity
  8
0
  6
Continuous
 62
     0
370
    30
100
AcDbLine
 10
77.453055
 20
731.544158
 30
0.0
 11
77.456897
 21
731.544607
 31
0.0
  0
LINE
  5
A0
330
48
100
AcDbEntity
  8
0
  6
Continuous
 62
     0
370
    30
100
AcDbLine
 10
120.820858
 20
731.544609
 30
0.0
 11
120.824715
 21
731.544157
 31
0.0
  0
LINE
  5
A1
330
48
100
AcDbEntity
  8
0
  6
Continuous
 62
     0
370
    30
100
AcDbLine
 10
77.841288
 20
731.58903
 30
0.0
 11
77.456916
 21
731.544614
 31
0.0
  0
LINE
  5
A2
330
48
100
AcDbEntity
  8
0
  6
Continuous
 62
     0
370
    30
100
AcDbLine
 10
120.820841
 20
731.544614
 30
0.0
 11
120.433029
 21
731.589428
 31
0.0
  0
LINE
  5
A3
330
48
100
AcDbEntity
  8
0
  6
Continuous
 62
     0
370
     0
100
AcDbLine
 10
104.850794
 20
831.577
 30
0.0
 11
104.878616
 21
833.386876
 31
0.0
  0
ARC
  5
A4
330
48
100
AcDbEntity
  8
0
  6
Continuous
 62
     0
370
    30
100
AcDbCircle
 10
99.138876
 20
783.718498
 30
0.0
 40
49.99892436391924
100
AcDbArc
 50
83.408068
 51
96.591937
  0
LINE
  5
A5
330
48
100
AcDbEntity
  8
0
  6
Continuous
 62
     0
370
     0
100
AcDbLine
 10
93.399132
 20
833.386876
 30
0.0
 11
93.426954
 21
831.577
 31
0.0
  0
ARC
  5
A6
330
48
100
AcDbEntity
  8
0
  6
Continuous
 62
     0
370
     0
100
AcDbCircle
 10
99.138878
 20
-483.817385
 30
0.0
 40
1315.406785989138
100
AcDbArc
 50
89.751203
 51
90.248798
  0
LWPOLYLINE
  5
A7
330
48
100
AcDbEntity
  8
0
  6
Continuous
 62
     0
370
     0
100
AcDbPolyline
 90
        3
 70
     0
 43
0.0
 10
120.506401
 20
831.476196
 10
120.651596
 20
831.529968
 10
120.8218
 20
831.544495
  0
LINE
  5
A8
330
48
100
AcDbEntity
  8
0
  6
Continuous
 62
     0
370
    30
100
AcDbLine
 10
120.433029
 20
831.589428
 30
0.0
 11
104.878616
 21
833.386876
 31
0.0
  0
ARC
  5
A9
330
48
100
AcDbEntity
  8
0
  6
Continuous
 62
     0
370
     0
100
AcDbCircle
 10
89.210956
 20
-2813.143232
 30
0.0
 40
3644.75378751794
100
AcDbArc
 50
89.508027
 51
89.75414
  0
ARC
  5
AA
330
48
100
AcDbEntity
  8
0
  6
Continuous
 62
     0
370
    30
100
AcDbCircle
 10
120.707012
 20
825.883753
 30
0.0
 40
1.000033578100752
100
AcDbArc
 50
276.591075
 51
359.998766
  0
LINE
  5
AB
330
48
100
AcDbEntity
  8
0
  6
Continuous
 62
     0
370
    30
100
AcDbLine
 10
104.878616
 20
823.047954
 30
0.0
 11
120.433029
 21
824.845404
 31
0.0
  0
ARC
  5
AC
330
48
100
AcDbEntity
  8
0
  6
Continuous
 62
     0
370
    30
100
AcDbCircle
 10
99.138872
 20
872.716378
 30
0.0
 40
49.99896991763877
100
AcDbArc
 50
263.408074
 51
276.591931
  0
LINE
  5
AD
330
48
100
AcDbEntity
  8
0
  6
Continuous
 62
     0
370
    30
100
AcDbLine
 10
77.841288
 20
824.845798
 30
0.0
 11
93.399132
 21
823.047954
 31
0.0
  0
ARC
  5
AE
330
48
100
AcDbEntity
  8
0
  6
Continuous
 62
     0
370
    30
100
AcDbCircle
 10
77.570736
 20
825.883751
 30
0.0
 40
1.000033531307302
100
AcDbArc
 50
180.001222
 51
263.408931
  0
LINE
  5
AF
330
48
100
AcDbEntity
  8
0
  6
Continuous
 62
     0
370
    30
100
AcDbLine
 10
76.570702
 20
830.551098
 30
0.0
 11
76.570702
 21
825.88373
 31
0.0
  0
ARC
  5
B0
330
48
100
AcDbEntity
  8
0
  6
Continuous
 62
     0
370
    30
100
AcDbCircle
 10
77.570736
 20
830.551076
 30
0.0
 40
1.000033579024745
100
AcDbArc
 50
96.591075
 51
179.998766
  0
LINE
  5
B1
330
48
100
AcDbEntity
  8
0
  6
Continuous
 62
     0
370
    30
100
AcDbLine
 10
93.399132
 20
833.386876
 30
0.0
 11
77.841288
 21
831.58903
 31
0.0
  0
ARC
  5
B2
330
48
100
AcDbEntity
  8
0
  6
Continuous
 62
     0
370
    30
100
AcDbCircle
 10
120.707012
 20
830.551078
 30
0.0
 40
1.000033527252879
100
AcDbArc
 50
0.001221
 51
83.408845
  0
LINE
  5
B3
330
48
100
AcDbEntity
  8
0
  6
Continuous
 62
     0
370
    30
100
AcDbLine
 10
121.707046
 20
825.883732
 30
0.0
 11
121.707046
 21
830.5511
 31
0.0
  0
LWPOLYLINE
  5
B4
330
48
100
AcDbEntity
  8
0
  6
Continuous
 62
     0
370
     0
100
AcDbPolyline
 90
        3
 70
     0
 43
0.0
 10
77.455948
 20
831.544495
 10
77.551437
 20
831.543701
 10
77.771347
 20
831.476196
  0
ARC
  5
B5
330
48
100
AcDbEntity
  8
0
  6
Continuous
 62
     0
370
     0
100
AcDbCircle
 10
109.071506
 20
-2813.826082
 30
0.0
 40
3645.436651238658
100
AcDbArc
 50
90.245888
 51
90.491955
  0
ARC
  5
B6
330
48
100
AcDbEntity
  8
0
  6
Continuous
 62
     0
370
     0
100
AcDbCircle
 10
99.139163
 20
-287.827557
 30
0.0
 40
1118.426616329502
100
AcDbArc
 50
89.70766
 51
90.292371
  0
LINE
  5
B7
330
48
100
AcDbEntity
  8
0
  6
Continuous
 62
     0
370
     0
100
AcDbLine
 10
104.850794
 20
831.577
 30
0.0
 11
104.845686
 21
830.584502
 31
0.0
  0
LINE
  5
B8
330
48
100
AcDbEntity
  8
0
  6
Continuous
 62
     0
370
     0
100
AcDbLine
 10
93.432034
 20
830.584498
 30
0.0
 11
93.426953
 21
831.576998
 31
0.0
  0
ARC
  5
B9
330
48
100
AcDbEntity
  8
0
  6
Continuous
 62
     0
370
     0
100
AcDbCircle
 10
120.497403
 20
830.476116
 30
0.0
 40
1.00012215814017
100
AcDbArc
 50
0.009049
 51
89.484348
  0
ARC
  5
BA
330
48
100
AcDbEntity
  8
0
  6
Continuous
 62
     0
370
     0
100
AcDbCircle
 10
121.67428
 20
830.312093
 30
0.0
 40
0.2412418695114714
100
AcDbArc
 50
82.19385
 51
137.112223
  0
ARC
  5
BB
330
48
100
AcDbEntity
  8
0
  6
Continuous
 62
     0
370
     0
100
AcDbCircle
 10
83.349998
 20
-3409.874837
 30
0.0
 40
4240.513820643037
100
AcDbArc
 50
89.498074
 51
89.709559
  0
LINE
  5
BC
330
48
100
AcDbEntity
  8
0
  6
Continuous
 62
     0
370
     0
100
AcDbLine
 10
120.506403
 20
831.476195
 30
0.0
 11
120.497563
 21
830.476272
 31
0.0
  0
LINE
  5
BD
330
48
100
AcDbEntity
  8
0
  6
Continuous
 62
     0
370
     0
100
AcDbLine
 10
121.497525
 20
825.958558
 30
0.0
 11
121.497525
 21
830.476274
 31
0.0
  0
ARC
  5
BE
330
48
100
AcDbEntity
  8
0
  6
Continuous
 62
     0
370
     0
100
AcDbCircle
 10
121.67428
 20
826.122738
 30
0.0
 40
0.2412417709749097
100
AcDbArc
 50
222.887776
 51
277.806171
  0
ARC
  5
BF
330
48
100
AcDbEntity
  8
0
  6
Continuous
 62
     0
370
     0
100
AcDbCircle
 10
76.603468
 20
830.312092
 30
0.0
 40
0.2412417719819956
100
AcDbArc
 50
42.887776
 51
97.806171
  0
ARC
  5
C0
330
48
100
AcDbEntity
  8
0
  6
Continuous
 62
     0
370
     0
100
AcDbCircle
 10
77.780345
 20
830.476114
 30
0.0
 40
1.000122158349638
100
AcDbArc
 50
90.515657
 51
179.990956
  0
ARC
  5
C1
330
48
100
AcDbEntity
  8
0
  6
Continuous
 62
     0
370
     0
100
AcDbCircle
 10
76.603468
 20
826.122736
 30
0.0
 40
0.2412418664851484
100
AcDbArc
 50
262.19385
 51
317.112223
  0
LINE
  5
C2
330
48
100
AcDbEntity
  8
0
  6
Continuous
 62
     0
370
     0
100
AcDbLine
 10
76.780223
 20
825.958556
 30
0.0
 11
76.780223
 21
830.476272
 31
0.0
  0
ARC
  5
C3
330
48
100
AcDbEntity
  8
0
  6
Continuous
 62
     0
370
     0
100
AcDbCircle
 10
77.780346
 20
825.958714
 30
0.0
 40
1.000122158102426
100
AcDbArc
 50
180.009049
 51
269.484348
  0
LWPOLYLINE
  5
C4
330
48
100
AcDbEntity
  8
0
  6
Continuous
 62
     0
370
    30
100
AcDbPolyline
 90
        3
 70
     0
 43
0.0
 10
77.771347
 20
824.958618
 10
77.631798
 20
824.90625
 10
77.455948
 20
824.89032
  0
ARC
  5
C5
330
48
100
AcDbEntity
  8
0
  6
Continuous
 62
     0
370
     0
100
AcDbCircle
 10
109.07199
 20
4470.385494
 30
0.0
 40
3645.561234951261
100
AcDbArc
 50
269.508055
 51
269.754113
  0
LINE
  5
C6
330
48
100
AcDbEntity
  8
0
  6
Continuous
 62
     0
370
     0
100
AcDbLine
 10
93.426954
 20
824.85783
 30
0.0
 11
93.399132
 21
823.047954
 31
0.0
  0
ARC
  5
C7
330
48
100
AcDbEntity
  8
0
  6
Continuous
 62
     0
370
     0
100
AcDbCircle
 10
99.138747
 20
2139.834671
 30
0.0
 40
1314.989246872333
100
AcDbArc
 50
269.751129
 51
270.248882
  0
LINE
  5
C8
330
48
100
AcDbEntity
  8
0
  6
Continuous
 62
     0
370
     0
100
AcDbLine
 10
104.850795
 20
824.857831
 30
0.0
 11
104.878616
 21
823.047954
 31
0.0
  0
ARC
  5
C9
330
48
100
AcDbEntity
  8
0
  6
Continuous
 62
     0
370
     0
100
AcDbCircle
 10
89.209298
 20
4469.787989
 30
0.0
 40
3644.96371903187
100
AcDbArc
 50
270.245872
 51
270.49197
  0
LWPOLYLINE
  5
CA
330
48
100
AcDbEntity
  8
0
  6
Continuous
 62
     0
370
     0
100
AcDbPolyline
 90
        3
 70
     0
 43
0.0
 10
120.506401
 20
824.958618
 10
120.651596
 20
824.904846
 10
120.8218
 20
824.89032
  0
ARC
  5
CB
330
48
100
AcDbEntity
  8
0
  6
Continuous
 62
     0
370
     0
100
AcDbCircle
 10
120.497403
 20
825.958715
 30
0.0
 40
1.000122158382155
100
AcDbArc
 50
270.515657
 51
359.990956
  0
ARC
  5
CC
330
48
100
AcDbEntity
  8
0
  6
Continuous
 62
     0
370
     0
100
AcDbCircle
 10
115.0547
 20
-3428.531568
 30
0.0
 40
4259.170955717423
100
AcDbArc
 50
90.290877
 51
90.501435
  0
LINE
  5
CD
330
48
100
AcDbEntity
  8
0
  6
Continuous
 62
     0
370
     0
100
AcDbLine
 10
77.780188
 20
830.476279
 30
0.0
 11
77.771338
 21
831.476208
 31
0.0
  0
ARC
  5
CE
330
48
100
AcDbEntity
  8
0
  6
Continuous
 62
     0
370
     0
100
AcDbCircle
 10
115.048173
 20
5083.936985
 30
0.0
 40
4258.141523500885
100
AcDbArc
 50
269.498531
 51
269.709141
  0
ARC
  5
CF
330
48
100
AcDbEntity
  8
0
  6
Continuous
 62
     0
370
     0
100
AcDbCircle
 10
99.139245
 20
1944.161182
 30
0.0
 40
1118.325412322976
100
AcDbArc
 50
269.707601
 51
270.29236
  0
ARC
  5
D0
330
48
100
AcDbEntity
  8
0
  6
Continuous
 62
     0
370
     0
100
AcDbCircle
 10
83.221132
 20
5084.800631
 30
0.0
 40
4259.005203022214
100
AcDbArc
 50
270.290913
 51
270.501481
  0
LINE
  5
D1
330
48
100
AcDbEntity
  8
0
  6
Continuous
 62
     0
370
     0
100
AcDbLine
 10
120.497563
 20
830.476272
 30
0.0
 11
120.497563
 21
825.95856
 31
0.0
  0
LINE
  5
D2
330
48
100
AcDbEntity
  8
0
  6
Continuous
 62
     0
370
     0
100
AcDbLine
 10
77.780185
 20
825.958553
 30
0.0
 11
77.780185
 21
830.476279
 31
0.0
  0
LINE
  5
D3
330
48
100
AcDbEntity
  8
0
  6
Continuous
 62
     0
370
     0
100
AcDbLine
 10
121.497525
 20
825.958558
 30
0.0
 11
120.497563
 21
825.958557
 31
0.0
  0
LINE
  5
D4
330
48
100
AcDbEntity
  8
0
  6
Continuous
 62
     0
370
     0
100
AcDbLine
 10
120.497563
 20
830.476274
 30
0.0
 11
121.497525
 21
830.476275
 31
0.0
  0
LINE
  5
D5
330
48
100
AcDbEntity
  8
0
  6
Continuous
 62
     0
370
     0
100
AcDbLine
 10
76.780223
 20
830.476272
 30
0.0
 11
77.780188
 21
830.476272
 31
0.0
  0
LINE
  5
D6
330
48
100
AcDbEntity
  8
0
  6
Continuous
 62
     0
370
     0
100
AcDbLine
 10
77.780198
 20
825.958556
 30
0.0
 11
76.780223
 21
825.958556
 31
0.0
  0
LINE
  5
D7
330
48
100
AcDbEntity
  8
0
  6
Continuous
 62
     0
370
     0
100
AcDbLine
 10
77.780198
 20
825.958553
 30
0.0
 11
77.771345
 21
824.958624
 31
0.0
  0
LINE
  5
D8
330
48
100
AcDbEntity
  8
0
  6
Continuous
 62
     0
370
     0
100
AcDbLine
 10
93.426954
 20
824.85783
 30
0.0
 11
93.432065
 21
825.850328
 31
0.0
  0
LINE
  5
D9
330
48
100
AcDbEntity
  8
0
  6
Continuous
 62
     0
370
     0
100
AcDbLine
 10
104.850795
 20
824.857831
 30
0.0
 11
104.845684
 21
825.850326
 31
0.0
  0
LINE
  5
DA
330
48
100
AcDbEntity
  8
0
  6
Continuous
 62
     0
370
     0
100
AcDbLine
 10
120.506403
 20
824.958637
 30
0.0
 11
120.497564
 21
825.95856
 31
0.0
  0
ARC
  5
DB
330
48
100
AcDbEntity
  8
0
  6
Continuous
 62
     0
370
     0
100
AcDbCircle
 10
99.138874
 20
828.217415
 30
0.0
 40
32.06095238095237
100
AcDbArc
 50
180.0
 51
360.0
  0
ARC
  5
DC
330
48
100
AcDbEntity
  8
0
  6
Continuous
 62
     0
370
     0
100
AcDbCircle
 10
99.138874
 20
828.217415
 30
0.0
 40
32.06095238095236
100
AcDbArc
 50
0.0
 51
180.0
  0
ARC
  5
DD
330
48
100
AcDbEntity
  8
0
  6
Continuous
 62
     0
370
    30
100
AcDbCircle
 10
99.138874
 20
828.217415
 30
0.0
 40
32.5
100
AcDbArc
 50
0.0
 51
180.0
  0
ARC
  5
DE
330
48
100
AcDbEntity
  8
0
  6
Continuous
 62
     0
370
    30
100
AcDbCircle
 10
99.138874
 20
828.217415
 30
0.0
 40
32.5
100
AcDbArc
 50
180.0
 51
360.0
  0
LWPOLYLINE
  5
DF
330
48
100
AcDbEntity
  8
0
  6
Continuous
 62
     0
370
     0
100
AcDbPolyline
 90
       14
 70
     0
 43
0.0
 10
105.154221
 20
823.079773
 10
104.420944
 20
822.332825
 10
103.599113
 20
821.685913
 10
102.699638
 20
821.153381
 10
101.736687
 20
820.746033
 10
100.728607
 20
820.469543
 10
99.693039
 20
820.326965
 10
98.647888
 20
820.322754
 10
97.611229
 20
820.457092
 10
96.600983
 20
820.725525
 10
95.634789
 20
821.125061
 10
94.73098
 20
821.650269
 10
93.904175
 20
822.29071
 10
93.123528
 20
823.079773
  0
LWPOLYLINE
  5
E0
330
48
100
AcDbEntity
  8
0
  6
Continuous
 62
     0
370
     0
100
AcDbPolyline
 90
       14
 70
     0
 43
0.0
 10
93.123528
 20
833.355042
 10
93.856804
 20
834.10199
 10
94.678635
 20
834.748901
 10
95.57811
 20
835.281433
 10
96.541061
 20
835.688782
 10
97.549141
 20
835.965271
 10
98.584709
 20
836.107849
 10
99.62986
 20
836.112061
 10
100.666519
 20
835.977722
 10
101.676765
 20
835.70929
 10
102.64296
 20
835.309753
 10
103.546768
 20
834.784546
 10
104.373573
 20
834.144165
 10
105.154221
 20
833.355042
  0
LINE
  5
E1
330
48
100
AcDbEntity
  8
0
  6
Continuous
 62
     0
370
    30
100
AcDbLine
 10
120.820858
 20
824.890223
 30
0.0
 11
120.824714
 21
824.890674
 31
0.0
  0
LINE
  5
E2
330
48
100
AcDbEntity
  8
0
  6
Continuous
 62
     0
370
    30
100
AcDbLine
 10
120.820841
 20
824.890217
 30
0.0
 11
120.433029
 21
824.845404
 31
0.0
  0
LINE
  5
E3
330
48
100
AcDbEntity
  8
0
  6
Continuous
 62
     0
370
    30
100
AcDbLine
 10
77.841288
 20
824.845798
 30
0.0
 11
77.456916
 21
824.890214
 31
0.0
  0
LINE
  5
E4
330
48
100
AcDbEntity
  8
0
  6
Continuous
 62
     0
370
    30
100
AcDbLine
 10
77.456891
 20
824.890221
 30
0.0
 11
77.453033
 21
824.890673
 31
0.0
  0
LINE
  5
E5
330
48
100
AcDbEntity
  8
0
  6
Continuous
 62
     0
370
    30
100
AcDbLine
 10
77.453055
 20
831.544158
 30
0.0
 11
77.456897
 21
831.544607
 31
0.0
  0
LINE
  5
E6
330
48
100
AcDbEntity
  8
0
  6
Continuous
 62
     0
370
    30
100
AcDbLine
 10
120.820858
 20
831.544609
 30
0.0
 11
120.824715
 21
831.544157
 31
0.0
  0
LINE
  5
E7
330
48
100
AcDbEntity
  8
0
  6
Continuous
 62
     0
370
    30
100
AcDbLine
 10
77.841288
 20
831.58903
 30
0.0
 11
77.456916
 21
831.544614
 31
0.0
  0
LINE
  5
E8
330
48
100
AcDbEntity
  8
0
  6
Continuous
 62
     0
370
    30
100
AcDbLine
 10
120.820841
 20
831.544614
 30
0.0
 11
120.433029
 21
831.589428
 31
0.0
  0
ENDBLK
  5
EA
330
48
100
AcDbEntity
  8
0
100
AcDbBlockEnd
  0
BLOCK
  5
133
330
EC
100
AcDbEntity
  8
0
100
AcDbBlockBegin
  2
b
 70
     0
 10
48.034054
 20
243.883812
 30
0.0
  3
b
  1

  0
ELLIPSE
  5
ED
330
EC
100
AcDbEntity
  8
0
  6
Continuous
 62
     0
370
    30
100
AcDbEllipse
 10
99.138878
 20
272.061761
 30
0.0
 11
19.66629030543769
 21
0.0
 31
0.0
210
0.0
220
0.0
230
1.0
 40
0.004422
 41
6.283165754417711
 42
7.511490526591068
  0
ELLIPSE
  5
EE
330
EC
100
AcDbEntity
  8
0
  6
Continuous
 62
     0
370
    30
100
AcDbEllipse
 10
99.138878
 20
272.061761
 30
0.0
 11
19.66629030543769
 21
0.0
 31
0.0
210
0.0
220
0.0
230
1.0
 40
0.004422
 41
1.913286492970411
 42
3.141612206351668
  0
ELLIPSE
  5
EF
330
EC
100
AcDbEntity
  8
0
  6
Continuous
 62
     0
370
    30
100
AcDbEllipse
 10
99.138878
 20
282.383415
 30
0.0
 11
59.99941342550657
 21
0.0
 31
0.0
210
0.0
220
0.0
230
1.0
 40
0.004422
 41
6.283165754417716
 42
7.853981633974483
  0
ELLIPSE
  5
F0
330
EC
100
AcDbEntity
  8
0
  6
Continuous
 62
     0
370
    30
100
AcDbEllipse
 10
99.138878
 20
282.383415
 30
0.0
 11
59.99941342550657
 21
0.0
 31
0.0
210
0.0
220
0.0
230
1.0
 40
0.004422
 41
1.570796326794897
 42
3.141612206351663
  0
ELLIPSE
  5
F1
330
EC
100
AcDbEntity
  8
0
  6
Continuous
 62
     0
370
    30
100
AcDbEllipse
 10
99.138878
 20
272.385822
 30
0.0
 11
59.45520024088646
 21
0.0
 31
0.0
210
0.0
220
0.0
230
1.0
 40
0.004422
 41
1.775394618589426
 42
4.500202741122468
  0
ELLIPSE
  5
F2
330
EC
100
AcDbEntity
  8
0
  6
Continuous
 62
     0
370
    30
100
AcDbEllipse
 10
99.138878
 20
272.385822
 30
0.0
 11
59.45520024088646
 21
0.0
 31
0.0
210
0.0
220
0.0
230
1.0
 40
0.004422
 41
4.924575219646908
 42
7.649383342179918
  0
ELLIPSE
  5
F3
330
EC
100
AcDbEntity
  8
0
  6
Continuous
 62
     0
370
     0
100
AcDbEllipse
 10
99.138878
 20
272.883601
 30
0.0
 11
59.9574062564072
 21
0.0
 31
0.0
210
0.0
220
0.0
230
1.0
 40
0.004422
 41
6.283165754417714
 42
7.512902737185527
  0
ELLIPSE
  5
F4
330
EC
100
AcDbEntity
  8
0
  6
Continuous
 62
     0
370
     0
100
AcDbEllipse
 10
99.138878
 20
272.883601
 30
0.0
 11
59.9574062564072
 21
0.0
 31
0.0
210
0.0
220
0.0
230
1.0
 40
0.004422
 41
1.911875223583847
 42
3.141612206351664
  0
ELLIPSE
  5
F5
330
EC
100
AcDbEntity
  8
0
  6
Continuous
 62
     0
370
    30
100
AcDbEllipse
 10
99.138878
 20
234.414731
 30
0.0
 11
18.99981425140702
 21
0.0
 31
0.0
210
0.0
220
0.0
230
1.0
 40
0.004422
 41
1.570796326794897
 42
4.71238898038469
  0
ELLIPSE
  5
F6
330
EC
100
AcDbEntity
  8
0
  6
Continuous
 62
     0
370
    30
100
AcDbEllipse
 10
99.138878
 20
234.414731
 30
0.0
 11
18.99981425140702
 21
0.0
 31
0.0
210
0.0
220
0.0
230
1.0
 40
0.004422
 41
4.71238898038469
 42
7.853981633974483
  0
ELLIPSE
  5
F7
330
EC
100
AcDbEntity
  8
0
  6
Continuous
 62
     0
370
     0
100
AcDbEllipse
 10
99.138878
 20
234.91251
 30
0.0
 11
19.50202026692412
 21
0.0
 31
0.0
210
0.0
220
0.0
230
1.0
 40
0.004422
 41
6.283165754417713
 42
7.853981633974483
  0
ELLIPSE
  5
F8
330
EC
100
AcDbEntity
  8
0
  6
Continuous
 62
     0
370
     0
100
AcDbEllipse
 10
99.138878
 20
234.91251
 30
0.0
 11
19.50202026692412
 21
0.0
 31
0.0
210
0.0
220
0.0
230
1.0
 40
0.004422
 41
1.570796326794897
 42
3.141612206351667
  0
LWPOLYLINE
  5
F9
330
EC
100
AcDbEntity
  8
0
  6
Continuous
 62
     0
370
    30
100
AcDbPolyline
 90
       53
 70
     0
 43
0.0
 10
49.053795
 20
272.24411
 10
48.703094
 20
272.246582
 10
48.358532
 20
272.249054
 10
48.020149
 20
272.251526
 10
47.687984
 20
272.254028
 10
47.362087
 20
272.256561
 10
47.042496
 20
272.259094
 10
46.729248
 20
272.261627
 10
46.422375
 20
272.264191
 10
46.121918
 20
272.266785
 10
45.827911
 20
272.269379
 10
45.54039
 20
272.272003
 10
45.259392
 20
272.274628
 10
44.984947
 20
272.277252
 10
44.717091
 20
272.279907
 10
44.455853
 20
272.282562
 10
44.201271
 20
272.285248
 10
43.953373
 20
272.287933
 10
43.712196
 20
272.290619
 10
43.477768
 20
272.293335
 10
43.250118
 20
272.296051
 10
43.029278
 20
272.298798
 10
42.815254
 20
272.301544
 10
42.608074
 20
272.304291
 10
42.407749
 20
272.307068
 10
42.214298
 20
272.309845
 10
42.027748
 20
272.312622
 10
41.848114
 20
272.31543
 10
41.675419
 20
272.318237
 10
41.509682
 20
272.321045
 10
41.350937
 20
272.323883
 10
41.199203
 20
272.326691
 10
41.054493
 20
272.329529
 10
40.916809
 20
272.332397
 10
40.786156
 20
272.335236
 10
40.662533
 20
272.338104
 10
40.54594
 20
272.340973
 10
40.436382
 20
272.343872
 10
40.333862
 20
272.346771
 10
40.238365
 20
272.34967
 10
40.14983
 20
272.3526
 10
40.068195
 20
272.35553
 10
39.993404
 20
272.35849
 10
39.925411
 20
272.361481
 10
39.863983
 20
272.364502
 10
39.808727
 20
272.367645
 10
39.759247
 20
272.37088
 10
39.714897
 20
272.374359
 10
39.673218
 20
272.378479
 10
39.629757
 20
272.384155
 10
39.568604
 20
272.396393
 10
39.415066
 20
272.4617
 10
39.181473
 20
272.883606
  0
LWPOLYLINE
  5
FA
330
EC
100
AcDbEntity
  8
0
  6
Continuous
 62
     0
370
    30
100
AcDbPolyline
 90
       51
 70
     0
 43
0.0
 10
159.096283
 20
272.883606
 10
158.833633
 20
272.444641
 10
158.691162
 20
272.392151
 10
158.631699
 20
272.381805
 10
158.584793
 20
272.376404
 10
158.536682
 20
272.372223
 10
158.483231
 20
272.3685
 10
158.422653
 20
272.36499
 10
158.354385
 20
272.361572
 10
158.277939
 20
272.358215
 10
158.192932
 20
272.354919
 10
158.099243
 20
272.351624
 10
157.996811
 20
272.348358
 10
157.885574
 20
272.345093
 10
157.765518
 20
272.341858
 10
157.636612
 20
272.338623
 10
157.498886
 20
272.335419
 10
157.35231
 20
272.332214
 10
157.196884
 20
272.32901
 10
157.032608
 20
272.325836
 10
156.859482
 20
272.322662
 10
156.677536
 20
272.319489
 10
156.486816
 20
272.316345
 10
156.287369
 20
272.313202
 10
156.079193
 20
272.310089
 10
155.86235
 20
272.306976
 10
155.636856
 20
272.303864
 10
155.402725
 20
272.300781
 10
155.160004
 20
272.297699
 10
154.908707
 20
272.294617
 10
154.648849
 20
272.291595
 10
154.380493
 20
272.288544
 10
154.103668
 20
272.285522
 10
153.818405
 20
272.282532
 10
153.52478
 20
272.279541
 10
153.222824
 20
272.276581
 10
152.912598
 20
272.273621
 10
152.594147
 20
272.270691
 10
152.267502
 20
272.267761
 10
151.932724
 20
272.264862
 10
151.589874
 20
272.261993
 10
151.238983
 20
272.259125
 10
150.880112
 20
272.256287
 10
150.513306
 20
272.253448
 10
150.138626
 20
272.250641
 10
149.756134
 20
272.247864
 10
149.365875
 20
272.245117
 10
148.967941
 20
272.242371
 10
148.562363
 20
272.239655
 10
148.149231
 20
272.236969
 10
147.725327
 20
272.234253
  0
LWPOLYLINE
  5
FB
330
EC
100
AcDbEntity
  8
0
  6
Continuous
 62
     0
370
    30
100
AcDbPolyline
 90
       56
 70
     0
 43
0.0
 10
86.155777
 20
234.353363
 10
85.944527
 20
234.354248
 10
85.736366
 20
234.355148
 10
85.531357
 20
234.356064
 10
85.329544
 20
234.356995
 10
85.130981
 20
234.357941
 10
84.935707
 20
234.358902
 10
84.743782
 20
234.359863
 10
84.555229
 20
234.360855
 10
84.370102
 20
234.361847
 10
84.188438
 20
234.362854
 10
84.010284
 20
234.363876
 10
83.83567
 20
234.364899
 10
83.664658
 20
234.365952
 10
83.497261
 20
234.367004
 10
83.333542
 20
234.368073
 10
83.173531
 20
234.369141
 10
83.017265
 20
234.370239
 10
82.864792
 20
234.371338
 10
82.716141
 20
234.372437
 10
82.571342
 20
234.373566
 10
82.430435
 20
234.374695
 10
82.293449
 20
234.375824
 10
82.160416
 20
234.376968
 10
82.031357
 20
234.378128
 10
81.906303
 20
234.379288
 10
81.785286
 20
234.380463
 10
81.668312
 20
234.381653
 10
81.555428
 20
234.382843
 10
81.44664
 20
234.384033
 10
81.34198
 20
234.385239
 10
81.241478
 20
234.386459
 10
81.145157
 20
234.38768
 10
81.053032
 20
234.388901
 10
80.965141
 20
234.390137
 10
80.881477
 20
234.391373
 10
80.802055
 20
234.392624
 10
80.726883
 20
234.393875
 10
80.655968
 20
234.395126
 10
80.589325
 20
234.396393
 10
80.526939
 20
234.397675
 10
80.468811
 20
234.398956
 10
80.414909
 20
234.400238
 10
80.365219
 20
234.40155
 10
80.319687
 20
234.402863
 10
80.278259
 20
234.40419
 10
80.240761
 20
234.405548
 10
80.206932
 20
234.406952
 10
80.176437
 20
234.408447
 10
80.148666
 20
234.410065
 10
80.121788
 20
234.412048
 10
80.091743
 20
234.415054
 10
80.043869
 20
234.422531
 10
79.91497
 20
234.466385
 10
79.718651
 20
234.640594
 10
79.636856
 20
234.912506
  0
LWPOLYLINE
  5
FC
330
EC
100
AcDbEntity
  8
0
  6
Continuous
 62
     0
370
    30
100
AcDbPolyline
 90
       56
 70
     0
 43
0.0
 10
118.6409
 20
234.912506
 10
118.559746
 20
234.641403
 10
118.363136
 20
234.466415
 10
118.233902
 20
234.422546
 10
118.186005
 20
234.415054
 10
118.155846
 20
234.412033
 10
118.128967
 20
234.410065
 10
118.101006
 20
234.408417
 10
118.070488
 20
234.406952
 10
118.036575
 20
234.405533
 10
117.998924
 20
234.404175
 10
117.957329
 20
234.402832
 10
117.911629
 20
234.40152
 10
117.861748
 20
234.400223
 10
117.80764
 20
234.398926
 10
117.74929
 20
234.397644
 10
117.686676
 20
234.396362
 10
117.619781
 20
234.395096
 10
117.548599
 20
234.393829
 10
117.473137
 20
234.392578
 10
117.39341
 20
234.391327
 10
117.309425
 20
234.390091
 10
117.221191
 20
234.388855
 10
117.128716
 20
234.387619
 10
117.032028
 20
234.386398
 10
116.931137
 20
234.385193
 10
116.82608
 20
234.383987
 10
116.716873
 20
234.382782
 10
116.603554
 20
234.381592
 10
116.48613
 20
234.380402
 10
116.364632
 20
234.379227
 10
116.239098
 20
234.378067
 10
116.109535
 20
234.376907
 10
115.975975
 20
234.375763
 10
115.838455
 20
234.374619
 10
115.696991
 20
234.373489
 10
115.551628
 20
234.37236
 10
115.402397
 20
234.371262
 10
115.249336
 20
234.370148
 10
115.092476
 20
234.369064
 10
114.931862
 20
234.367981
 10
114.767532
 20
234.366913
 10
114.599518
 20
234.36586
 10
114.427872
 20
234.364822
 10
114.252609
 20
234.363785
 10
114.073792
 20
234.362762
 10
113.891457
 20
234.361755
 10
113.705635
 20
234.360764
 10
113.516388
 20
234.359772
 10
113.323746
 20
234.35881
 10
113.127754
 20
234.357849
 10
112.928467
 20
234.356903
 10
112.725922
 20
234.355972
 10
112.520172
 20
234.355057
 10
112.311264
 20
234.354156
 10
112.096893
 20
234.353256
  0
LINE
  5
FD
330
EC
100
AcDbEntity
  8
0
  6
Continuous
 62
     0
370
    30
100
AcDbLine
 10
118.650586
 20
237.103415
 30
0.0
 11
118.640898
 21
234.912508
 31
0.0
  0
LINE
  5
FE
330
EC
100
AcDbEntity
  8
0
  6
Continuous
 62
     0
370
    30
100
AcDbLine
 10
118.805168
 20
272.061759
 30
0.0
 11
118.761133
 21
262.103415
 31
0.0
  0
LINE
  5
FF
330
EC
100
AcDbEntity
  8
0
  6
Continuous
 62
     0
370
    30
100
AcDbLine
 10
79.62717
 20
237.103415
 30
0.0
 11
79.636858
 21
234.912508
 31
0.0
  0
LINE
  5
100
330
EC
100
AcDbEntity
  8
0
  6
Continuous
 62
     0
370
    30
100
AcDbLine
 10
79.472588
 20
272.061759
 30
0.0
 11
79.516622
 21
262.103415
 31
0.0
  0
LINE
  5
101
330
EC
100
AcDbEntity
  8
0
  6
Continuous
 62
     0
370
    30
100
AcDbLine
 10
159.138291
 20
282.38341
 30
0.0
 11
159.096284
 21
272.883596
 31
0.0
  0
LINE
  5
102
330
EC
100
AcDbEntity
  8
0
  6
Continuous
 62
     0
370
    30
100
AcDbLine
 10
39.139464
 20
282.38341
 30
0.0
 11
39.181472
 21
272.883596
 31
0.0
  0
LINE
  5
103
330
EC
100
AcDbEntity
  8
0
  6
Continuous
 62
     0
370
    30
100
AcDbLine
 10
104.038878
 20
267.103404
 30
0.0
 11
104.038878
 21
262.353404
 31
0.0
  0
LINE
  5
104
330
EC
100
AcDbEntity
  8
0
  6
Continuous
 62
     0
370
    30
100
AcDbLine
 10
94.238878
 20
262.353404
 30
0.0
 11
94.238878
 21
267.103404
 31
0.0
  0
LINE
  5
105
330
EC
100
AcDbEntity
  8
0
  6
Continuous
 62
     0
370
     0
100
AcDbLine
 10
104.038878
 20
262.353404
 30
0.0
 11
94.238878
 21
262.353404
 31
0.0
  0
ARC
  5
106
330
EC
100
AcDbEntity
  8
0
  6
Continuous
 62
     0
370
     0
100
AcDbCircle
 10
-16299.898268
 20
268.962974
 30
0.0
 40
16404.77832172643
100
AcDbArc
 50
359.891792
 51
359.976042
  0
LINE
  5
107
330
EC
100
AcDbEntity
  8
0
  6
Continuous
 62
     0
370
    30
100
AcDbLine
 10
104.87862
 20
262.103404
 30
0.0
 11
93.399136
 21
262.103404
 31
0.0
  0
ARC
  5
108
330
EC
100
AcDbEntity
  8
0
  6
Continuous
 62
     0
370
     0
100
AcDbCircle
 10
16498.084508
 20
268.962974
 30
0.0
 40
16404.68680695448
100
AcDbArc
 50
180.023958
 51
180.108208
  0
ARC
  5
109
330
EC
100
AcDbEntity
  8
0
  6
Continuous
 62
     0
370
     0
100
AcDbCircle
 10
99.139202
 20
1240.400772
 30
0.0
 40
1002.435792270583
100
AcDbArc
 50
269.673506
 51
270.326457
  0
ARC
  5
10A
330
EC
100
AcDbEntity
  8
0
  6
Continuous
 62
     0
370
     0
100
AcDbCircle
 10
-2615.240932
 20
286.039852
 30
0.0
 40
2736.167435983694
100
AcDbArc
 50
358.99597
 51
359.498761
  0
LINE
  5
10B
330
EC
100
AcDbEntity
  8
0
  6
Continuous
 62
     0
370
    30
100
AcDbLine
 10
120.821802
 20
262.103404
 30
0.0
 11
104.87862
 21
262.103404
 31
0.0
  0
ARC
  5
10C
330
EC
100
AcDbEntity
  8
0
  6
Continuous
 62
     0
370
     0
100
AcDbCircle
 10
75.266602
 20
5399.720563
 30
0.0
 40
5161.824090513657
100
AcDbArc
 50
270.328384
 51
270.502164
  0
LINE
  5
10D
330
EC
100
AcDbEntity
  8
0
  6
Continuous
 62
     0
370
    30
100
AcDbLine
 10
77.455953
 20
262.103404
 30
0.0
 11
76.570706
 21
262.103404
 31
0.0
  0
LINE
  5
10E
330
EC
100
AcDbEntity
  8
0
  6
Continuous
 62
     0
370
    30
100
AcDbLine
 10
93.399136
 20
262.103404
 30
0.0
 11
77.455953
 21
262.103404
 31
0.0
  0
LINE
  5
10F
330
EC
100
AcDbEntity
  8
0
  6
Continuous
 62
     0
370
    30
100
AcDbLine
 10
121.707049
 20
262.103404
 30
0.0
 11
120.821804
 21
262.103404
 31
0.0
  0
ARC
  5
110
330
EC
100
AcDbEntity
  8
0
  6
Continuous
 62
     0
370
     0
100
AcDbCircle
 10
2813.510249
 20
286.039739
 30
0.0
 40
2736.158996740604
100
AcDbArc
 50
180.501239
 51
181.004031
  0
ARC
  5
111
330
EC
100
AcDbEntity
  8
0
  6
Continuous
 62
     0
370
     0
100
AcDbCircle
 10
123.123654
 20
5415.349238
 30
0.0
 40
5177.453154279719
100
AcDbArc
 50
269.498107
 51
269.671363
  0
LINE
  5
112
330
EC
100
AcDbEntity
  8
0
  6
Continuous
 62
     0
370
    30
100
AcDbLine
 10
104.845689
 20
237.103404
 30
0.0
 11
93.432038
 21
237.103404
 31
0.0
  0
ARC
  5
113
330
EC
100
AcDbEntity
  8
0
  6
Continuous
 62
     0
370
     0
100
AcDbCircle
 10
64.497872
 20
237.77715
 30
0.0
 40
40.35344246437561
100
AcDbArc
 50
359.043339
 51
0.289795
  0
ARC
  5
114
330
EC
100
AcDbEntity
  8
0
  6
Continuous
 62
     0
370
     0
100
AcDbCircle
 10
134.001624
 20
237.777152
 30
0.0
 40
40.57518029932666
100
AcDbArc
 50
179.711787
 51
180.951435
  0
LWPOLYLINE
  5
115
330
EC
100
AcDbEntity
  8
0
  6
Continuous
 62
     0
370
     0
100
AcDbPolyline
 90
        5
 70
     0
 43
0.0
 10
121.497528
 20
238.094681
 10
121.423523
 20
238.092072
 10
121.21241
 20
238.091141
 10
120.895576
 20
238.092041
 10
120.506409
 20
238.094727
  0
LINE
  5
116
330
EC
100
AcDbEntity
  8
0
  6
Continuous
 62
     0
370
    30
100
AcDbLine
 10
121.707049
 20
262.103404
 30
0.0
 11
121.497528
 21
238.094678
 31
0.0
  0
LINE
  5
117
330
EC
100
AcDbEntity
  8
0
  6
Continuous
 62
     0
370
    30
100
AcDbLine
 10
120.497567
 20
237.103404
 30
0.0
 11
104.845689
 21
237.103404
 31
0.0
  0
LWPOLYLINE
  5
118
330
EC
100
AcDbEntity
  8
0
  6
Continuous
 62
     0
370
     0
100
AcDbPolyline
 90
        5
 70
     0
 43
0.0
 10
120.506409
 20
238.094727
 10
120.505722
 20
237.717758
 10
120.50383
 20
237.397949
 10
120.501015
 20
237.182526
 10
120.497566
 20
237.103409
  0
LINE
  5
119
330
EC
100
AcDbEntity
  8
0
  6
Continuous
 62
     0
370
    30
100
AcDbLine
 10
76.570706
 20
262.103404
 30
0.0
 11
76.780227
 21
238.094678
 31
0.0
  0
LWPOLYLINE
  5
11A
330
EC
100
AcDbEntity
  8
0
  6
Continuous
 62
     0
370
     0
100
AcDbPolyline
 90
        5
 70
     0
 43
0.0
 10
76.780228
 20
238.094681
 10
76.854233
 20
238.092072
 10
77.065346
 20
238.091141
 10
77.382179
 20
238.092041
 10
77.771347
 20
238.094727
  0
ARC
  5
11B
330
EC
100
AcDbEntity
  8
0
  6
Continuous
 62
     0
370
    30
100
AcDbCircle
 10
104.288878
 20
262.353404
 30
0.0
 40
0.2499999999997593
100
AcDbArc
 50
180.0
 51
269.999999
  0
ARC
  5
11C
330
EC
100
AcDbEntity
  8
0
  6
Continuous
 62
     0
370
    30
100
AcDbCircle
 10
93.988878
 20
262.353404
 30
0.0
 40
0.2499999999999609
100
AcDbArc
 50
270.000001
 51
360.0
  0
LINE
  5
11D
330
EC
100
AcDbEntity
  8
0
  6
Continuous
 62
     0
370
    30
100
AcDbLine
 10
93.432038
 20
237.103404
 30
0.0
 11
77.780192
 21
237.103404
 31
0.0
  0
LWPOLYLINE
  5
11E
330
EC
100
AcDbEntity
  8
0
  6
Continuous
 62
     0
370
     0
100
AcDbPolyline
 90
        5
 70
     0
 43
0.0
 10
77.78019
 20
237.103409
 10
77.776848
 20
237.177414
 10
77.774002
 20
237.388596
 10
77.772072
 20
237.705521
 10
77.771339
 20
238.094727
  0
ARC
  5
11F
330
EC
100
AcDbEntity
  8
0
  6
Continuous
 62
     0
370
    30
100
AcDbCircle
 10
120.497567
 20
238.103404
 30
0.0
 40
1.0
100
AcDbArc
 50
270.000038
 51
359.5
  0
ARC
  5
120
330
EC
100
AcDbEntity
  8
0
  6
Continuous
 62
     0
370
    30
100
AcDbCircle
 10
77.780189
 20
238.103404
 30
0.0
 40
1.0
100
AcDbArc
 50
180.5
 51
270.00018
  0
ARC
  5
121
330
EC
100
AcDbEntity
  8
0
  6
Continuous
 62
     0
370
    30
100
AcDbCircle
 10
131.138878
 20
274.825376
 30
0.0
 40
0.4999999999993292
100
AcDbArc
 50
277.002045
 51
0.0
  0
LINE
  5
122
330
EC
100
AcDbEntity
  8
0
  6
Continuous
 62
     0
370
     0
100
AcDbLine
 10
67.077925
 20
274.329105
 30
0.0
 11
131.19983
 21
274.329105
 31
0.0
  0
LINE
  5
123
330
EC
100
AcDbEntity
  8
0
  6
Continuous
 62
     0
370
     0
100
AcDbLine
 10
131.638878
 20
274.825376
 30
0.0
 11
66.638878
 21
274.825376
 31
0.0
  0
LWPOLYLINE
  5
124
330
EC
100
AcDbEntity
  8
0
  6
Continuous
 62
     0
370
     0
100
AcDbPolyline
 90
       24
 70
     0
 43
0.0
 10
91.229103
 20
272.486572
 10
91.301643
 20
272.486603
 10
91.525009
 20
272.486542
 10
91.886909
 20
272.486511
 10
92.379494
 20
272.486633
 10
93.001381
 20
272.486633
 10
93.740692
 20
272.486511
 10
94.576645
 20
272.486542
 10
95.496437
 20
272.486603
 10
96.485329
 20
272.486572
 10
97.523308
 20
272.486542
 10
98.590981
 20
272.486572
 10
99.668732
 20
272.486572
 10
100.73674
 20
272.486542
 10
101.775375
 20
272.486572
 10
102.765259
 20
272.486603
 10
103.686348
 20
272.486542
 10
104.523796
 20
272.486511
 10
105.264885
 20
272.486633
 10
105.888901
 20
272.486633
 10
106.383652
 20
272.486511
 10
106.747787
 20
272.486511
 10
106.973579
 20
272.486603
 10
107.048653
 20
272.486572
  0
LINE
  5
125
330
EC
100
AcDbEntity
  8
0
  6
Continuous
 62
     0
370
    30
100
AcDbLine
 10
131.638878
 20
274.825376
 30
0.0
 11
131.638878
 21
282.383404
 31
0.0
  0
LINE
  5
126
330
EC
100
AcDbEntity
  8
0
  6
Continuous
 62
     0
370
    30
100
AcDbLine
 10
131.638878
 20
282.383404
 30
0.0
 11
66.638878
 21
282.383404
 31
0.0
  0
LINE
  5
127
330
EC
100
AcDbEntity
  8
0
  6
Continuous
 62
     0
370
    30
100
AcDbLine
 10
104.138878
 20
267.103404
 30
0.0
 11
104.138878
 21
269.487927
 31
0.0
  0
LINE
  5
128
330
EC
100
AcDbEntity
  8
0
  6
Continuous
 62
     0
370
     0
100
AcDbLine
 10
104.138878
 20
269.487927
 30
0.0
 11
94.138878
 21
269.487927
 31
0.0
  0
LINE
  5
129
330
EC
100
AcDbEntity
  8
0
  6
Continuous
 62
     0
370
    30
100
AcDbLine
 10
94.138878
 20
267.103404
 30
0.0
 11
104.138878
 21
267.103404
 31
0.0
  0
ARC
  5
12A
330
EC
100
AcDbEntity
  8
0
  6
Continuous
 62
     0
370
    30
100
AcDbCircle
 10
107.138878
 20
269.487927
 30
0.0
 40
2.99999999999996
100
AcDbArc
 50
91.723441
 51
180.0
  0
ARC
  5
12B
330
EC
100
AcDbEntity
  8
0
  6
Continuous
 62
     0
370
    30
100
AcDbCircle
 10
91.138878
 20
269.487928
 30
0.0
 40
2.999999642721702
100
AcDbArc
 50
359.999993
 51
88.276565
  0
LWPOLYLINE
  5
12C
330
EC
100
AcDbEntity
  8
0
  6
Continuous
 62
     0
370
    30
100
AcDbPolyline
 90
        2
 70
     0
 43
0.0
 10
107.048645
 20
272.486572
 10
107.048653
 20
272.486572
  0
LINE
  5
12D
330
EC
100
AcDbEntity
  8
0
  6
Continuous
 62
     0
370
    30
100
AcDbLine
 10
94.138878
 20
267.103404
 30
0.0
 11
94.138878
 21
269.487927
 31
0.0
  0
LINE
  5
12E
330
EC
100
AcDbEntity
  8
0
  6
Continuous
 62
     0
370
    30
100
AcDbLine
 10
66.638878
 20
274.825376
 30
0.0
 11
66.638878
 21
282.383404
 31
0.0
  0
LWPOLYLINE
  5
12F
330
EC
100
AcDbEntity
  8
0
  6
Continuous
 62
     0
370
    30
100
AcDbPolyline
 90
       30
 70
     0
 43
0.0
 10
131.199829
 20
274.329102
 10
130.370728
 20
274.228607
 10
129.541306
 20
274.130737
 10
128.711578
 20
274.035522
 10
127.881538
 20
273.942932
 10
127.051216
 20
273.852966
 10
126.220612
 20
273.765656
 10
125.389732
 20
273.680969
 10
124.558594
 20
273.598938
 10
123.727203
 20
273.519531
 10
122.895561
 20
273.442749
 10
122.063675
 20
273.368652
 10
121.23156
 20
273.29715
 10
120.399223
 20
273.228333
 10
119.566673
 20
273.16214
 10
118.73391
 20
273.098572
 10
117.900955
 20
273.037628
 10
117.06781
 20
272.97937
 10
116.234489
 20
272.923798
 10
115.401001
 20
272.870941
 10
114.567329
 20
272.820557
 10
113.733475
 20
272.772522
 10
112.899567
 20
272.728027
 10
112.065582
 20
272.686768
 10
111.231018
 20
272.64389
 10
110.396408
 20
272.60434
 10
109.563568
 20
272.585602
 10
108.728928
 20
272.553162
 10
107.887253
 20
272.456635
 10
107.048653
 20
272.486572
  0
LWPOLYLINE
  5
130
330
EC
100
AcDbEntity
  8
0
  6
Continuous
 62
     0
370
    30
100
AcDbPolyline
 90
       30
 70
     0
 43
0.0
 10
67.077927
 20
274.329102
 10
67.907028
 20
274.228607
 10
68.73645
 20
274.130737
 10
69.566185
 20
274.035522
 10
70.396217
 20
273.942932
 10
71.22654
 20
273.852966
 10
72.057144
 20
273.765656
 10
72.888023
 20
273.680969
 10
73.719162
 20
273.598938
 10
74.550552
 20
273.519531
 10
75.382195
 20
273.442749
 10
76.214081
 20
273.368652
 10
77.046196
 20
273.29715
 10
77.878532
 20
273.228333
 10
78.711082
 20
273.16214
 10
79.543846
 20
273.098572
 10
80.376801
 20
273.037628
 10
81.209946
 20
272.97937
 10
82.043266
 20
272.923798
 10
82.876755
 20
272.870941
 10
83.710426
 20
272.820557
 10
84.544281
 20
272.772522
 10
85.378189
 20
272.728027
 10
86.212173
 20
272.686768
 10
87.046738
 20
272.64389
 10
87.881348
 20
272.60434
 10
88.714188
 20
272.585602
 10
89.548828
 20
272.553162
 10
90.390503
 20
272.456635
 10
91.229103
 20
272.486572
  0
ARC
  5
131
330
EC
100
AcDbEntity
  8
0
  6
Continuous
 62
     0
370
    30
100
AcDbCircle
 10
67.138968
 20
274.825455
 30
0.0
 40
0.5000896921817739
100
AcDbArc
 50
180.009087
 51
262.988868
  0
LINE
  5
132
330
EC
100
AcDbEntity
  8
0
  6
Continuous
 62
     0
370
    30
100
AcDbLine
 10
120.512656
 20
237.103529
 30
0.0
 11
120.497569
 21
237.103409
 31
0.0
  0
ENDBLK
  5
134
330
EC
100
AcDbEntity
  8
0
100
AcDbBlockEnd
  0
BLOCK
  5
1E2
330
136
100
AcDbEntity
  8
0
100
AcDbBlockBegin
  2
c
 70
     0
 10
39.043369
 20
91.952385
 30
0.0
  3
c
  1

  0
LINE
  5
137
330
136
100
AcDbEntity
  8
0
  6
Continuous
 62
     0
370
    30
100
AcDbLine
 10
262.704875
 20
597.929123
 30
0.0
 11
262.704875
 21
582.929123
 31
0.0
  0
LINE
  5
138
330
136
100
AcDbEntity
  8
0
  6
Continuous
 62
     0
370
    30
100
AcDbLine
 10
262.704875
 20
582.929123
 30
0.0
 11
262.746143
 21
573.596341
 31
0.0
  0
LINE
  5
139
330
136
100
AcDbEntity
  8
0
  6
Continuous
 62
     0
370
    30
100
AcDbLine
 10
262.704875
 20
597.929123
 30
0.0
 11
262.878796
 21
558.596927
 31
0.0
  0
LINE
  5
13A
330
136
100
AcDbEntity
  8
0
  6
Continuous
 62
     0
370
    30
100
AcDbLine
 10
262.704875
 20
582.929123
 30
0.0
 11
262.447136
 21
582.929123
 31
0.0
  0
LINE
  5
13B
330
136
100
AcDbEntity
  8
0
  6
Continuous
 62
     0
370
    30
100
AcDbLine
 10
252.204875
 20
638.216211
 30
0.0
 11
252.204875
 21
578.216211
 31
0.0
  0
LINE
  5
13C
330
136
100
AcDbEntity
  8
0
  6
Continuous
 62
     0
370
    30
100
AcDbLine
 10
252.204875
 20
638.216211
 30
0.0
 11
252.735487
 21
518.218557
 31
0.0
  0
LINE
  5
13D
330
136
100
AcDbEntity
  8
0
  6
Continuous
 62
     0
370
     0
100
AcDbLine
 10
262.204875
 20
637.716211
 30
0.0
 11
262.730674
 21
518.806973
 31
0.0
  0
LINE
  5
13E
330
136
100
AcDbEntity
  8
0
  6
Continuous
 62
     0
370
    30
100
AcDbLine
 10
261.704875
 20
638.216211
 30
0.0
 11
252.204875
 21
638.216211
 31
0.0
  0
LINE
  5
13F
330
136
100
AcDbEntity
  8
0
  6
Continuous
 62
     0
370
     0
100
AcDbLine
 10
261.704875
 20
638.216211
 30
0.0
 11
262.235115
 21
518.302571
 31
0.0
  0
LINE
  5
140
330
136
100
AcDbEntity
  8
0
  6
Continuous
 62
     0
370
     0
100
AcDbLine
 10
300.522428
 20
559.531821
 30
0.0
 11
300.522879
 21
559.429866
 31
0.0
  0
LINE
  5
141
330
136
100
AcDbEntity
  8
0
  6
Continuous
 62
     0
370
     0
100
AcDbLine
 10
300.354852
 20
597.429123
 30
0.0
 11
300.355304
 21
597.326944
 31
0.0
  0
LINE
  5
142
330
136
100
AcDbEntity
  8
0
  6
Continuous
 62
     0
370
    30
100
AcDbLine
 10
285.438866
 20
597.929123
 30
0.0
 11
262.704875
 21
597.929123
 31
0.0
  0
LINE
  5
143
330
136
100
AcDbEntity
  8
0
  6
Continuous
 62
     0
370
    30
100
AcDbLine
 10
299.854852
 20
597.929123
 30
0.0
 11
293.438866
 21
597.929123
 31
0.0
  0
LINE
  5
144
330
136
100
AcDbEntity
  8
0
  6
Continuous
 62
     0
370
     0
100
AcDbLine
 10
299.854852
 20
597.929123
 30
0.0
 11
300.027321
 21
558.925464
 31
0.0
  0
LINE
  5
145
330
136
100
AcDbEntity
  8
0
  6
Continuous
 62
     0
370
    30
100
AcDbLine
 10
293.265336
 20
597.894324
 30
0.0
 11
293.438866
 21
597.929123
 31
0.0
  0
LWPOLYLINE
  5
146
330
136
100
AcDbEntity
  8
0
  6
Continuous
 62
     0
370
    30
100
AcDbPolyline
 90
       16
 70
     0
 43
0.0
 10
285.438873
 20
597.929138
 10
285.51059
 20
597.914612
 10
285.722839
 20
597.872986
 10
286.067078
 20
597.810425
 10
286.530884
 20
597.735352
 10
287.097595
 20
597.658386
 10
287.748291
 20
597.590149
 10
288.460571
 20
597.540588
 10
289.208984
 20
597.516968
 10
289.966003
 20
597.522705
 10
290.703339
 20
597.557129
 10
291.394226
 20
597.615051
 10
292.014465
 20
597.687927
 10
292.542633
 20
597.765442
 10
292.961273
 20
597.836914
 10
293.26535
 20
597.894348
  0
ARC
  5
147
330
136
100
AcDbEntity
  8
0
  6
Continuous
 62
     0
370
    30
100
AcDbCircle
 10
299.854852
 20
597.429123
 30
0.0
 40
0.5
100
AcDbArc
 50
0.247251
 51
90.0
  0
ARC
  5
148
330
136
100
AcDbEntity
  8
0
  6
Continuous
 62
     0
370
    30
100
AcDbCircle
 10
261.704875
 20
637.716211
 30
0.0
 40
0.5
100
AcDbArc
 50
6.899503
 51
90.0
  0
LINE
  5
149
330
136
100
AcDbEntity
  8
0
  6
Continuous
 62
     0
370
     0
100
AcDbLine
 10
293.265336
 20
604.929495
 30
0.0
 11
285.438866
 21
604.929495
 31
0.0
  0
LINE
  5
14A
330
136
100
AcDbEntity
  8
0
  6
Continuous
 62
     0
370
     0
100
AcDbLine
 10
293.438866
 20
604.929495
 30
0.0
 11
293.265336
 21
604.929495
 31
0.0
  0
LINE
  5
14B
330
136
100
AcDbEntity
  8
0
  6
Continuous
 62
     0
370
    30
100
AcDbLine
 10
292.938866
 20
605.429495
 30
0.0
 11
292.787027
 21
605.429495
 31
0.0
  0
LINE
  5
14C
330
136
100
AcDbEntity
  8
0
  6
Continuous
 62
     0
370
    30
100
AcDbLine
 10
292.787027
 20
605.429495
 30
0.0
 11
285.938866
 21
605.429495
 31
0.0
  0
ARC
  5
14D
330
136
100
AcDbEntity
  8
0
  6
Continuous
 62
     0
370
    30
100
AcDbCircle
 10
292.938874
 20
604.929491
 30
0.0
 40
0.500003533445756
100
AcDbArc
 50
0.000405
 51
89.989894
  0
ARC
  5
14E
330
136
100
AcDbEntity
  8
0
  6
Continuous
 62
     0
370
    30
100
AcDbCircle
 10
285.939001
 20
604.929501
 30
0.0
 40
0.4999939923124423
100
AcDbArc
 50
90.014141
 51
180.000689
  0
LINE
  5
14F
330
136
100
AcDbEntity
  8
0
  6
Continuous
 62
     0
370
    30
100
AcDbLine
 10
285.438866
 20
604.929495
 30
0.0
 11
285.438866
 21
597.929123
 31
0.0
  0
LINE
  5
150
330
136
100
AcDbEntity
  8
0
  6
Continuous
 62
     0
370
    30
100
AcDbLine
 10
293.438866
 20
604.929495
 30
0.0
 11
293.438866
 21
597.929123
 31
0.0
  0
ARC
  5
151
330
136
100
AcDbEntity
  8
0
  6
Continuous
 62
     0
370
    30
100
AcDbCircle
 10
262.230691
 20
518.802554
 30
0.0
 40
0.5000027409869732
100
AcDbArc
 50
270.507018
 51
0.506389
  0
ARC
  5
152
330
136
100
AcDbEntity
  8
0
  6
Continuous
 62
     0
370
    30
100
AcDbCircle
 10
261.708442
 20
637.716043
 30
0.0
 40
0.4964328316563019
100
AcDbArc
 50
0.019425
 51
6.968232
  0
ARC
  5
153
330
136
100
AcDbEntity
  8
0
  6
Continuous
 62
     0
370
    30
100
AcDbCircle
 10
300.022896
 20
559.425447
 30
0.0
 40
0.5000027030494718
100
AcDbArc
 50
270.507013
 51
0.506394
  0
LINE
  5
154
330
136
100
AcDbEntity
  8
0
  6
Continuous
 62
     0
370
    30
100
AcDbLine
 10
300.354847
 20
597.431281
 30
0.0
 11
300.522893
 21
559.427833
 31
0.0
  0
LINE
  5
155
330
136
100
AcDbEntity
  8
0
  6
Continuous
 62
     0
370
    30
100
AcDbLine
 10
262.878796
 20
558.596927
 30
0.0
 11
300.027321
 21
558.925464
 31
0.0
  0
LINE
  5
156
330
136
100
AcDbEntity
  8
0
  6
Continuous
 62
     0
370
    30
100
AcDbLine
 10
252.735487
 20
518.218557
 30
0.0
 11
262.235115
 21
518.302571
 31
0.0
  0
LINE
  5
157
330
136
100
AcDbEntity
  8
0
  6
Continuous
 62
     0
370
    30
100
AcDbLine
 10
252.735487
 20
518.218557
 30
0.0
 11
252.204875
 21
578.216211
 31
0.0
  0
LINE
  5
158
330
136
100
AcDbEntity
  8
0
  6
Continuous
 62
     0
370
    30
100
AcDbLine
 10
262.746143
 20
573.596341
 30
0.0
 11
262.488414
 21
573.594061
 31
0.0
  0
LINE
  5
159
330
136
100
AcDbEntity
  8
0
  6
Continuous
 62
     0
370
    30
100
AcDbLine
 10
262.878796
 20
558.596927
 30
0.0
 11
262.746143
 21
573.596341
 31
0.0
  0
LINE
  5
15A
330
136
100
AcDbEntity
  8
0
  6
Continuous
 62
     0
370
     0
100
AcDbLine
 10
272.500181
 20
728.217384
 30
0.0
 11
267.750181
 21
728.217384
 31
0.0
  0
LINE
  5
15B
330
136
100
AcDbEntity
  8
0
  6
Continuous
 62
     0
370
     0
100
AcDbLine
 10
272.500181
 20
733.117384
 30
0.0
 11
272.500181
 21
728.217384
 31
0.0
  0
LINE
  5
15C
330
136
100
AcDbEntity
  8
0
  6
Continuous
 62
     0
370
     0
100
AcDbLine
 10
272.500181
 20
728.217384
 30
0.0
 11
272.500181
 21
723.317384
 31
0.0
  0
LINE
  5
15D
330
136
100
AcDbEntity
  8
0
  6
Continuous
 62
     0
370
    30
100
AcDbLine
 10
272.750181
 20
733.717391
 30
0.0
 11
272.750181
 21
733.386845
 31
0.0
  0
ARC
  5
15E
330
136
100
AcDbEntity
  8
0
  6
Continuous
 62
     0
370
     0
100
AcDbCircle
 10
265.794821
 20
479.029582
 30
0.0
 40
254.4523419235501
100
AcDbArc
 50
82.984671
 51
88.433646
  0
LINE
  5
15F
330
136
100
AcDbEntity
  8
0
  6
Continuous
 62
     0
370
     0
100
AcDbLine
 10
296.885795
 20
731.587257
 30
0.0
 11
296.88681
 21
731.588018
 31
0.0
  0
LINE
  5
160
330
136
100
AcDbEntity
  8
0
  6
Continuous
 62
     0
370
     0
100
AcDbLine
 10
296.87233
 20
731.576969
 30
0.0
 11
296.885795
 21
731.587257
 31
0.0
  0
LINE
  5
161
330
136
100
AcDbEntity
  8
0
  6
Continuous
 62
     0
370
    30
100
AcDbLine
 10
272.750181
 20
723.047923
 30
0.0
 11
272.750181
 21
722.717377
 31
0.0
  0
LINE
  5
162
330
136
100
AcDbEntity
  8
0
  6
Continuous
 62
     0
370
    30
100
AcDbLine
 10
272.750182
 20
724.890297
 30
0.0
 11
272.750181
 21
723.047923
 31
0.0
  0
LINE
  5
163
330
136
100
AcDbEntity
  8
0
  6
Continuous
 62
     0
370
    30
100
AcDbLine
 10
272.750182
 20
725.8837
 30
0.0
 11
272.750182
 21
724.890297
 31
0.0
  0
LINE
  5
164
330
136
100
AcDbEntity
  8
0
  6
Continuous
 62
     0
370
    30
100
AcDbLine
 10
272.750182
 20
730.551067
 30
0.0
 11
272.750182
 21
725.8837
 31
0.0
  0
LINE
  5
165
330
136
100
AcDbEntity
  8
0
  6
Continuous
 62
     0
370
    30
100
AcDbLine
 10
272.750182
 20
731.54447
 30
0.0
 11
272.750182
 21
730.551067
 31
0.0
  0
LINE
  5
166
330
136
100
AcDbEntity
  8
0
  6
Continuous
 62
     0
370
    30
100
AcDbLine
 10
272.750181
 20
733.386845
 30
0.0
 11
272.750182
 21
731.54447
 31
0.0
  0
LWPOLYLINE
  5
167
330
136
100
AcDbEntity
  8
0
  6
Continuous
 62
     0
370
     0
100
AcDbPolyline
 90
        3
 70
     0
 43
0.0
 10
272.750183
 20
731.544495
 10
280.911591
 20
731.544922
 10
296.75885
 20
731.476135
  0
ARC
  5
168
330
136
100
AcDbEntity
  8
0
  6
Continuous
 62
     0
370
     0
100
AcDbCircle
 10
297.613529
 20
730.628402
 30
0.0
 40
1.20380619540862
100
AcDbArc
 50
128.003507
 51
135.232344
  0
ARC
  5
169
330
136
100
AcDbEntity
  8
0
  6
Continuous
 62
     0
370
     0
100
AcDbCircle
 10
296.750136
 20
730.584416
 30
0.0
 40
1.000045039858283
100
AcDbArc
 50
0.002987
 51
82.98156
  0
LWPOLYLINE
  5
16A
330
136
100
AcDbEntity
  8
0
  6
Continuous
 62
     0
370
     0
100
AcDbPolyline
 90
        8
 70
     0
 43
0.0
 10
272.750183
 20
730.551086
 10
276.145172
 20
730.553101
 10
279.555603
 20
730.551758
 10
282.884552
 20
730.546875
 10
286.200623
 20
730.537842
 10
289.516602
 20
730.524353
 10
292.832428
 20
730.505676
 10
296.758911
 20
730.476257
  0
LWPOLYLINE
  5
16B
330
136
100
AcDbEntity
  8
0
  6
Continuous
 62
     0
370
     0
100
AcDbPolyline
 90
        5
 70
     0
 43
0.0
 10
296.758911
 20
730.476257
 10
296.761505
 20
730.85376
 10
296.762451
 20
731.175354
 10
296.761566
 20
731.393555
 10
296.758881
 20
731.476135
  0
LWPOLYLINE
  5
16C
330
136
100
AcDbEntity
  8
0
  6
Continuous
 62
     0
370
     0
100
AcDbPolyline
 90
        8
 70
     0
 43
0.0
 10
272.750183
 20
725.883728
 10
276.152222
 20
725.881714
 10
279.569489
 20
725.882996
 10
282.90506
 20
725.887939
 10
286.227936
 20
725.896973
 10
289.55069
 20
725.910583
 10
292.873322
 20
725.929321
 10
296.758911
 20
725.958496
  0
LINE
  5
16D
330
136
100
AcDbEntity
  8
0
  6
Continuous
 62
     0
370
     0
100
AcDbLine
 10
296.758909
 20
725.958525
 30
0.0
 11
296.758909
 21
730.476242
 31
0.0
  0
LWPOLYLINE
  5
16E
330
136
100
AcDbEntity
  8
0
  6
Continuous
 62
     0
370
     0
100
AcDbPolyline
 90
        5
 70
     0
 43
0.0
 10
296.758911
 20
725.958496
 10
296.761505
 20
725.580994
 10
296.762451
 20
725.25946
 10
296.761566
 20
725.041199
 10
296.758881
 20
724.958618
  0
LWPOLYLINE
  5
16F
330
136
100
AcDbEntity
  8
0
  6
Continuous
 62
     0
370
     0
100
AcDbPolyline
 90
        8
 70
     0
 43
0.0
 10
296.758881
 20
724.958618
 10
293.447906
 20
724.933838
 10
290.131561
 20
724.915283
 10
286.815155
 20
724.9021
 10
283.498779
 20
724.893677
 10
280.177246
 20
724.889099
 10
276.780487
 20
724.887939
 10
272.750183
 20
724.89032
  0
ARC
  5
170
330
136
100
AcDbEntity
  8
0
  6
Continuous
 62
     0
370
     0
100
AcDbCircle
 10
297.612566
 20
725.805318
 30
0.0
 40
1.202386555857305
100
AcDbArc
 50
224.764458
 51
232.001901
  0
ARC
  5
171
330
136
100
AcDbEntity
  8
0
  6
Continuous
 62
     0
370
     0
100
AcDbCircle
 10
265.794821
 20
977.405186
 30
0.0
 40
254.4523415793752
100
AcDbArc
 50
271.566354
 51
277.01533
  0
LINE
  5
172
330
136
100
AcDbEntity
  8
0
  6
Continuous
 62
     0
370
     0
100
AcDbLine
 10
296.885758
 20
724.847507
 30
0.0
 11
296.886767
 21
724.846746
 31
0.0
  0
LINE
  5
173
330
136
100
AcDbEntity
  8
0
  6
Continuous
 62
     0
370
     0
100
AcDbLine
 10
296.872329
 20
724.857799
 30
0.0
 11
296.885758
 21
724.847507
 31
0.0
  0
LINE
  5
174
330
136
100
AcDbEntity
  8
0
  6
Continuous
 62
     0
370
     0
100
AcDbLine
 10
272.750181
 20
728.217384
 30
0.0
 11
272.500181
 21
728.217384
 31
0.0
  0
LINE
  5
175
330
136
100
AcDbEntity
  8
0
  6
Continuous
 62
     0
370
    30
100
AcDbLine
 10
297.750181
 20
730.58447
 30
0.0
 11
297.750182
 21
730.476248
 31
0.0
  0
ARC
  5
176
330
136
100
AcDbEntity
  8
0
  6
Continuous
 62
     0
370
     0
100
AcDbCircle
 10
296.75013
 20
730.476164
 30
0.0
 40
1.000051553863284
100
AcDbArc
 50
0.004833
 51
89.499575
  0
LINE
  5
177
330
136
100
AcDbEntity
  8
0
  6
Continuous
 62
     0
370
    30
100
AcDbLine
 10
297.750181
 20
725.850298
 30
0.0
 11
297.750182
 21
725.958522
 31
0.0
  0
LINE
  5
178
330
136
100
AcDbEntity
  8
0
  6
Continuous
 62
     0
370
    30
100
AcDbLine
 10
297.750182
 20
725.958522
 30
0.0
 11
297.750182
 21
730.476248
 31
0.0
  0
LINE
  5
179
330
136
100
AcDbEntity
  8
0
  6
Continuous
 62
     0
370
     0
100
AcDbLine
 10
296.758909
 20
730.476242
 30
0.0
 11
297.750182
 21
730.476242
 31
0.0
  0
LINE
  5
17A
330
136
100
AcDbEntity
  8
0
  6
Continuous
 62
     0
370
     0
100
AcDbLine
 10
297.750182
 20
725.958525
 30
0.0
 11
296.758909
 21
725.958525
 31
0.0
  0
ARC
  5
17B
330
136
100
AcDbEntity
  8
0
  6
Continuous
 62
     0
370
     0
100
AcDbCircle
 10
296.750698
 20
725.958044
 30
0.0
 40
0.9994837267933483
100
AcDbArc
 50
270.468209
 51
0.027388
  0
ARC
  5
17C
330
136
100
AcDbEntity
  8
0
  6
Continuous
 62
     0
370
     0
100
AcDbCircle
 10
296.750137
 20
725.85035
 30
0.0
 40
1.00004458149998
100
AcDbArc
 50
277.018611
 51
359.996987
  0
LINE
  5
17D
330
136
100
AcDbEntity
  8
0
  6
Continuous
 62
     0
370
     0
100
AcDbLine
 10
260.52448
 20
696.156432
 30
0.0
 11
260.524482
 21
728.217384
 31
0.0
  0
LINE
  5
17E
330
136
100
AcDbEntity
  8
0
  6
Continuous
 62
     0
370
     0
100
AcDbLine
 10
260.524482
 20
728.217384
 30
0.0
 11
260.52448
 21
760.278337
 31
0.0
  0
LINE
  5
17F
330
136
100
AcDbEntity
  8
0
  6
Continuous
 62
     0
370
     0
100
AcDbLine
 10
260.028209
 20
760.717384
 30
0.0
 11
260.028211
 21
728.217384
 31
0.0
  0
LINE
  5
180
330
136
100
AcDbEntity
  8
0
  6
Continuous
 62
     0
370
     0
100
AcDbLine
 10
260.028211
 20
728.217384
 30
0.0
 11
260.028209
 21
695.717384
 31
0.0
  0
LINE
  5
181
330
136
100
AcDbEntity
  8
0
  6
Continuous
 62
     0
370
     0
100
AcDbLine
 10
262.367003
 20
720.307195
 30
0.0
 11
262.367016
 21
728.217384
 31
0.0
  0
LINE
  5
182
330
136
100
AcDbEntity
  8
0
  6
Continuous
 62
     0
370
     0
100
AcDbLine
 10
262.367016
 20
728.217384
 30
0.0
 11
262.367003
 21
736.127573
 31
0.0
  0
LINE
  5
183
330
136
100
AcDbEntity
  8
0
  6
Continuous
 62
     0
370
    30
100
AcDbLine
 10
252.470181
 20
760.717384
 30
0.0
 11
252.470181
 21
728.217384
 31
0.0
  0
LINE
  5
184
330
136
100
AcDbEntity
  8
0
  6
Continuous
 62
     0
370
    30
100
AcDbLine
 10
252.470181
 20
728.217384
 30
0.0
 11
252.470181
 21
695.717384
 31
0.0
  0
LWPOLYLINE
  5
185
330
136
100
AcDbEntity
  8
0
  6
Continuous
 62
     0
370
     0
100
AcDbPolyline
 90
       12
 70
     0
 43
0.0
 10
254.349182
 20
695.717407
 10
254.414444
 20
695.720581
 10
254.606339
 20
695.729187
 10
254.907639
 20
695.740417
 10
255.295792
 20
695.750793
 10
255.737793
 20
695.757019
 10
256.198578
 20
695.757019
 10
256.640808
 20
695.750854
 10
257.029907
 20
695.74054
 10
257.331848
 20
695.729309
 10
257.523407
 20
695.720642
 10
257.591187
 20
695.717407
  0
LINE
  5
186
330
136
100
AcDbEntity
  8
0
  6
Continuous
 62
     0
370
     0
100
AcDbLine
 10
265.365658
 20
733.217384
 30
0.0
 11
265.365658
 21
728.217384
 31
0.0
  0
LINE
  5
187
330
136
100
AcDbEntity
  8
0
  6
Continuous
 62
     0
370
     0
100
AcDbLine
 10
265.365658
 20
728.217384
 30
0.0
 11
265.365658
 21
723.217384
 31
0.0
  0
LINE
  5
188
330
136
100
AcDbEntity
  8
0
  6
Continuous
 62
     0
370
    30
100
AcDbLine
 10
267.750181
 20
723.217384
 30
0.0
 11
267.750181
 21
728.217384
 31
0.0
  0
LINE
  5
189
330
136
100
AcDbEntity
  8
0
  6
Continuous
 62
     0
370
    30
100
AcDbLine
 10
267.750181
 20
728.217384
 30
0.0
 11
267.750181
 21
733.217384
 31
0.0
  0
LINE
  5
18A
330
136
100
AcDbEntity
  8
0
  6
Continuous
 62
     0
370
    30
100
AcDbLine
 10
254.349181
 20
695.717384
 30
0.0
 11
257.591181
 21
695.717384
 31
0.0
  0
ARC
  5
18B
330
136
100
AcDbEntity
  8
0
  6
Continuous
 62
     0
370
    30
100
AcDbCircle
 10
265.365658
 20
720.217384
 30
0.0
 40
3.000000042507338
100
AcDbArc
 50
90.0
 51
178.263297
  0
ARC
  5
18C
330
136
100
AcDbEntity
  8
0
  6
Continuous
 62
     0
370
    30
100
AcDbCircle
 10
265.365658
 20
736.217384
 30
0.0
 40
3.000000042538946
100
AcDbArc
 50
181.736704
 51
270.0
  0
LINE
  5
18D
330
136
100
AcDbEntity
  8
0
  6
Continuous
 62
     0
370
    30
100
AcDbLine
 10
267.750181
 20
723.217384
 30
0.0
 11
265.365658
 21
723.217384
 31
0.0
  0
LINE
  5
18E
330
136
100
AcDbEntity
  8
0
  6
Continuous
 62
     0
370
    30
100
AcDbLine
 10
267.750181
 20
733.217384
 30
0.0
 11
265.365658
 21
733.217384
 31
0.0
  0
LINE
  5
18F
330
136
100
AcDbEntity
  8
0
  6
Continuous
 62
     0
370
    30
100
AcDbLine
 10
260.028209
 20
695.717384
 30
0.0
 11
257.591181
 21
695.717384
 31
0.0
  0
LINE
  5
190
330
136
100
AcDbEntity
  8
0
  6
Continuous
 62
     0
370
    30
100
AcDbLine
 10
254.349181
 20
695.717384
 30
0.0
 11
252.470181
 21
695.717384
 31
0.0
  0
LINE
  5
191
330
136
100
AcDbEntity
  8
0
  6
Continuous
 62
     0
370
    30
100
AcDbLine
 10
260.028209
 20
760.717384
 30
0.0
 11
252.470181
 21
760.717384
 31
0.0
  0
LWPOLYLINE
  5
192
330
136
100
AcDbEntity
  8
0
  6
Continuous
 62
     0
370
    30
100
AcDbPolyline
 90
       46
 70
     0
 43
0.0
 10
260.524475
 20
760.278259
 10
260.589569
 20
759.743958
 10
260.653534
 20
759.209473
 10
260.716431
 20
758.674866
 10
260.778229
 20
758.140137
 10
260.838928
 20
757.605286
 10
260.898529
 20
757.070312
 10
260.957031
 20
756.535217
 10
261.014435
 20
755.999939
 10
261.07074
 20
755.464661
 10
261.125977
 20
754.929199
 10
261.180084
 20
754.393616
 10
261.233124
 20
753.857971
 10
261.285034
 20
753.322205
 10
261.335876
 20
752.786316
 10
261.38562
 20
752.250305
 10
261.434265
 20
751.714233
 10
261.481812
 20
751.17804
 10
261.528259
 20
750.641785
 10
261.573608
 20
750.105408
 10
261.617859
 20
749.568909
 10
261.66098
 20
749.032349
 10
261.703033
 20
748.495728
 10
261.744019
 20
747.958984
 10
261.783936
 20
747.42218
 10
261.822723
 20
746.885254
 10
261.860413
 20
746.348267
 10
261.896973
 20
745.811218
 10
261.932343
 20
745.27417
 10
261.966522
 20
744.737
 10
261.999695
 20
744.199768
 10
262.032043
 20
743.662415
 10
262.06366
 20
743.124817
 10
262.093903
 20
742.58728
 10
262.121796
 20
742.050049
 10
262.147339
 20
741.513184
 10
262.173645
 20
740.975647
 10
262.204254
 20
740.436401
 10
262.236572
 20
739.89624
 10
262.257965
 20
739.35907
 10
262.256409
 20
738.828613
 10
262.252014
 20
738.298645
 10
262.294617
 20
737.753784
 10
262.417816
 20
737.183655
 10
262.506622
 20
736.623718
 10
262.367004
 20
736.127502
  0
ARC
  5
193
330
136
100
AcDbEntity
  8
0
  6
Continuous
 62
     0
370
    30
100
AcDbCircle
 10
260.02813
 20
696.217474
 30
0.0
 40
0.500089692180822
100
AcDbArc
 50
270.009087
 51
352.988868
  0
ARC
  5
194
330
136
100
AcDbEntity
  8
0
  6
Continuous
 62
     0
370
    30
100
AcDbCircle
 10
260.02813
 20
760.217295
 30
0.0
 40
0.5000896921783209
100
AcDbArc
 50
7.011132
 51
89.990913
  0
LINE
  5
195
330
136
100
AcDbEntity
  8
0
  6
Continuous
 62
     0
370
    30
100
AcDbLine
 10
297.750144
 20
725.950615
 30
0.0
 11
297.750178
 21
725.958525
 31
0.0
  0
ARC
  5
196
330
136
100
AcDbEntity
  8
0
  6
Continuous
 62
     0
370
    30
100
AcDbCircle
 10
296.750103
 20
725.835807
 30
0.0
 40
1.000077725545121
100
AcDbArc
 50
277.959796
 51
359.996125
  0
ARC
  5
197
330
136
100
AcDbEntity
  8
0
  6
Continuous
 62
     0
370
    30
100
AcDbCircle
 10
272.500145
 20
733.36742
 30
0.0
 40
0.2500359660593607
100
AcDbArc
 50
270.008236
 51
359.959348
  0
ARC
  5
198
330
136
100
AcDbEntity
  8
0
  6
Continuous
 62
     0
370
    30
100
AcDbCircle
 10
272.500145
 20
723.067348
 30
0.0
 40
0.2500359660561858
100
AcDbArc
 50
0.040652
 51
89.991764
  0
ARC
  5
199
330
136
100
AcDbEntity
  8
0
  6
Continuous
 62
     0
370
    30
100
AcDbCircle
 10
263.940826
 20
960.61331
 30
0.0
 40
238.0589831044335
100
AcDbArc
 50
272.12071
 51
277.955365
  0
ARC
  5
19A
330
136
100
AcDbEntity
  8
0
  6
Continuous
 62
     0
370
    30
100
AcDbCircle
 10
296.750104
 20
730.598962
 30
0.0
 40
1.000077320011415
100
AcDbArc
 50
0.003864
 51
82.040204
  0
ARC
  5
19B
330
136
100
AcDbEntity
  8
0
  6
Continuous
 62
     0
370
    30
100
AcDbCircle
 10
263.940826
 20
495.82146
 30
0.0
 40
238.0589820408821
100
AcDbArc
 50
82.044626
 51
87.87929
  0
LINE
  5
19C
330
136
100
AcDbEntity
  8
0
  6
Continuous
 62
     0
370
    30
100
AcDbLine
 10
267.750181
 20
723.317384
 30
0.0
 11
272.500181
 21
723.317384
 31
0.0
  0
LINE
  5
19D
330
136
100
AcDbEntity
  8
0
  6
Continuous
 62
     0
370
    30
100
AcDbLine
 10
267.750181
 20
733.117384
 30
0.0
 11
272.500181
 21
733.117384
 31
0.0
  0
LINE
  5
19E
330
136
100
AcDbEntity
  8
0
  6
Continuous
 62
     0
370
     0
100
AcDbLine
 10
272.500181
 20
828.217384
 30
0.0
 11
267.750181
 21
828.217384
 31
0.0
  0
LINE
  5
19F
330
136
100
AcDbEntity
  8
0
  6
Continuous
 62
     0
370
     0
100
AcDbLine
 10
272.500181
 20
833.117384
 30
0.0
 11
272.500181
 21
828.217384
 31
0.0
  0
LINE
  5
1A0
330
136
100
AcDbEntity
  8
0
  6
Continuous
 62
     0
370
     0
100
AcDbLine
 10
272.500181
 20
828.217384
 30
0.0
 11
272.500181
 21
823.317384
 31
0.0
  0
LINE
  5
1A1
330
136
100
AcDbEntity
  8
0
  6
Continuous
 62
     0
370
    30
100
AcDbLine
 10
272.750181
 20
833.717391
 30
0.0
 11
272.750181
 21
833.386845
 31
0.0
  0
ARC
  5
1A2
330
136
100
AcDbEntity
  8
0
  6
Continuous
 62
     0
370
     0
100
AcDbCircle
 10
265.794821
 20
579.029582
 30
0.0
 40
254.4523419234982
100
AcDbArc
 50
82.984671
 51
88.433646
  0
LINE
  5
1A3
330
136
100
AcDbEntity
  8
0
  6
Continuous
 62
     0
370
     0
100
AcDbLine
 10
296.885795
 20
831.587257
 30
0.0
 11
296.88681
 21
831.588018
 31
0.0
  0
LINE
  5
1A4
330
136
100
AcDbEntity
  8
0
  6
Continuous
 62
     0
370
     0
100
AcDbLine
 10
296.87233
 20
831.576969
 30
0.0
 11
296.885795
 21
831.587257
 31
0.0
  0
LINE
  5
1A5
330
136
100
AcDbEntity
  8
0
  6
Continuous
 62
     0
370
    30
100
AcDbLine
 10
272.750181
 20
823.047923
 30
0.0
 11
272.750181
 21
822.717377
 31
0.0
  0
LINE
  5
1A6
330
136
100
AcDbEntity
  8
0
  6
Continuous
 62
     0
370
    30
100
AcDbLine
 10
272.750182
 20
824.890297
 30
0.0
 11
272.750181
 21
823.047923
 31
0.0
  0
LINE
  5
1A7
330
136
100
AcDbEntity
  8
0
  6
Continuous
 62
     0
370
    30
100
AcDbLine
 10
272.750182
 20
825.8837
 30
0.0
 11
272.750182
 21
824.890297
 31
0.0
  0
LINE
  5
1A8
330
136
100
AcDbEntity
  8
0
  6
Continuous
 62
     0
370
    30
100
AcDbLine
 10
272.750182
 20
830.551067
 30
0.0
 11
272.750182
 21
825.8837
 31
0.0
  0
LINE
  5
1A9
330
136
100
AcDbEntity
  8
0
  6
Continuous
 62
     0
370
    30
100
AcDbLine
 10
272.750182
 20
831.54447
 30
0.0
 11
272.750182
 21
830.551067
 31
0.0
  0
LINE
  5
1AA
330
136
100
AcDbEntity
  8
0
  6
Continuous
 62
     0
370
    30
100
AcDbLine
 10
272.750181
 20
833.386845
 30
0.0
 11
272.750182
 21
831.54447
 31
0.0
  0
LWPOLYLINE
  5
1AB
330
136
100
AcDbEntity
  8
0
  6
Continuous
 62
     0
370
     0
100
AcDbPolyline
 90
        3
 70
     0
 43
0.0
 10
272.750183
 20
831.544495
 10
280.911591
 20
831.544922
 10
296.75885
 20
831.476135
  0
ARC
  5
1AC
330
136
100
AcDbEntity
  8
0
  6
Continuous
 62
     0
370
     0
100
AcDbCircle
 10
297.613529
 20
830.628402
 30
0.0
 40
1.203806195390933
100
AcDbArc
 50
128.003507
 51
135.232344
  0
ARC
  5
1AD
330
136
100
AcDbEntity
  8
0
  6
Continuous
 62
     0
370
     0
100
AcDbCircle
 10
296.750136
 20
830.584416
 30
0.0
 40
1.000045039859472
100
AcDbArc
 50
0.002987
 51
82.98156
  0
LWPOLYLINE
  5
1AE
330
136
100
AcDbEntity
  8
0
  6
Continuous
 62
     0
370
     0
100
AcDbPolyline
 90
        8
 70
     0
 43
0.0
 10
272.750183
 20
830.551086
 10
276.145172
 20
830.553101
 10
279.555603
 20
830.551758
 10
282.884552
 20
830.546875
 10
286.200623
 20
830.537842
 10
289.516602
 20
830.524353
 10
292.832428
 20
830.505676
 10
296.758911
 20
830.476257
  0
LWPOLYLINE
  5
1AF
330
136
100
AcDbEntity
  8
0
  6
Continuous
 62
     0
370
     0
100
AcDbPolyline
 90
        5
 70
     0
 43
0.0
 10
296.758911
 20
830.476257
 10
296.761505
 20
830.85376
 10
296.762451
 20
831.175354
 10
296.761566
 20
831.393555
 10
296.758881
 20
831.476135
  0
LWPOLYLINE
  5
1B0
330
136
100
AcDbEntity
  8
0
  6
Continuous
 62
     0
370
     0
100
AcDbPolyline
 90
        8
 70
     0
 43
0.0
 10
272.750183
 20
825.883728
 10
276.152222
 20
825.881714
 10
279.569489
 20
825.882996
 10
282.90506
 20
825.887939
 10
286.227936
 20
825.896973
 10
289.55069
 20
825.910583
 10
292.873322
 20
825.929321
 10
296.758911
 20
825.958496
  0
LINE
  5
1B1
330
136
100
AcDbEntity
  8
0
  6
Continuous
 62
     0
370
     0
100
AcDbLine
 10
296.758909
 20
825.958525
 30
0.0
 11
296.758909
 21
830.476242
 31
0.0
  0
LWPOLYLINE
  5
1B2
330
136
100
AcDbEntity
  8
0
  6
Continuous
 62
     0
370
     0
100
AcDbPolyline
 90
        5
 70
     0
 43
0.0
 10
296.758911
 20
825.958496
 10
296.761505
 20
825.580994
 10
296.762451
 20
825.25946
 10
296.761566
 20
825.041199
 10
296.758881
 20
824.958618
  0
LWPOLYLINE
  5
1B3
330
136
100
AcDbEntity
  8
0
  6
Continuous
 62
     0
370
     0
100
AcDbPolyline
 90
        8
 70
     0
 43
0.0
 10
296.758881
 20
824.958618
 10
293.447906
 20
824.933838
 10
290.131561
 20
824.915283
 10
286.815155
 20
824.9021
 10
283.498779
 20
824.893677
 10
280.177246
 20
824.889099
 10
276.780487
 20
824.887939
 10
272.750183
 20
824.89032
  0
ARC
  5
1B4
330
136
100
AcDbEntity
  8
0
  6
Continuous
 62
     0
370
     0
100
AcDbCircle
 10
297.612566
 20
825.805318
 30
0.0
 40
1.202386557647917
100
AcDbArc
 50
224.764458
 51
232.001901
  0
ARC
  5
1B5
330
136
100
AcDbEntity
  8
0
  6
Continuous
 62
     0
370
     0
100
AcDbCircle
 10
265.794821
 20
1077.405186
 30
0.0
 40
254.4523415793653
100
AcDbArc
 50
271.566354
 51
277.01533
  0
LINE
  5
1B6
330
136
100
AcDbEntity
  8
0
  6
Continuous
 62
     0
370
     0
100
AcDbLine
 10
296.885758
 20
824.847507
 30
0.0
 11
296.886767
 21
824.846746
 31
0.0
  0
LINE
  5
1B7
330
136
100
AcDbEntity
  8
0
  6
Continuous
 62
     0
370
     0
100
AcDbLine
 10
296.872329
 20
824.857799
 30
0.0
 11
296.885758
 21
824.847507
 31
0.0
  0
LINE
  5
1B8
330
136
100
AcDbEntity
  8
0
  6
Continuous
 62
     0
370
     0
100
AcDbLine
 10
272.750181
 20
828.217384
 30
0.0
 11
272.500181
 21
828.217384
 31
0.0
  0
LINE
  5
1B9
330
136
100
AcDbEntity
  8
0
  6
Continuous
 62
     0
370
    30
100
AcDbLine
 10
297.750181
 20
830.58447
 30
0.0
 11
297.750182
 21
830.476248
 31
0.0
  0
ARC
  5
1BA
330
136
100
AcDbEntity
  8
0
  6
Continuous
 62
     0
370
     0
100
AcDbCircle
 10
296.75013
 20
830.476164
 30
0.0
 40
1.000051553868607
100
AcDbArc
 50
0.004833
 51
89.499575
  0
LINE
  5
1BB
330
136
100
AcDbEntity
  8
0
  6
Continuous
 62
     0
370
    30
100
AcDbLine
 10
297.750181
 20
825.850298
 30
0.0
 11
297.750182
 21
825.958522
 31
0.0
  0
LINE
  5
1BC
330
136
100
AcDbEntity
  8
0
  6
Continuous
 62
     0
370
    30
100
AcDbLine
 10
297.750182
 20
825.958522
 30
0.0
 11
297.750182
 21
830.476248
 31
0.0
  0
LINE
  5
1BD
330
136
100
AcDbEntity
  8
0
  6
Continuous
 62
     0
370
     0
100
AcDbLine
 10
296.758909
 20
830.476242
 30
0.0
 11
297.750182
 21
830.476242
 31
0.0
  0
LINE
  5
1BE
330
136
100
AcDbEntity
  8
0
  6
Continuous
 62
     0
370
     0
100
AcDbLine
 10
297.750182
 20
825.958525
 30
0.0
 11
296.758909
 21
825.958525
 31
0.0
  0
ARC
  5
1BF
330
136
100
AcDbEntity
  8
0
  6
Continuous
 62
     0
370
     0
100
AcDbCircle
 10
296.750698
 20
825.958044
 30
0.0
 40
0.9994837267855781
100
AcDbArc
 50
270.468209
 51
0.027388
  0
ARC
  5
1C0
330
136
100
AcDbEntity
  8
0
  6
Continuous
 62
     0
370
     0
100
AcDbCircle
 10
296.750137
 20
825.85035
 30
0.0
 40
1.000044581502539
100
AcDbArc
 50
277.018611
 51
359.996987
  0
LINE
  5
1C1
330
136
100
AcDbEntity
  8
0
  6
Continuous
 62
     0
370
     0
100
AcDbLine
 10
260.52448
 20
796.156432
 30
0.0
 11
260.524482
 21
828.217384
 31
0.0
  0
LINE
  5
1C2
330
136
100
AcDbEntity
  8
0
  6
Continuous
 62
     0
370
     0
100
AcDbLine
 10
260.524482
 20
828.217384
 30
0.0
 11
260.52448
 21
860.278337
 31
0.0
  0
LINE
  5
1C3
330
136
100
AcDbEntity
  8
0
  6
Continuous
 62
     0
370
     0
100
AcDbLine
 10
260.028209
 20
860.717384
 30
0.0
 11
260.028211
 21
828.217384
 31
0.0
  0
LINE
  5
1C4
330
136
100
AcDbEntity
  8
0
  6
Continuous
 62
     0
370
     0
100
AcDbLine
 10
260.028211
 20
828.217384
 30
0.0
 11
260.028209
 21
795.717384
 31
0.0
  0
LINE
  5
1C5
330
136
100
AcDbEntity
  8
0
  6
Continuous
 62
     0
370
     0
100
AcDbLine
 10
262.367003
 20
820.307195
 30
0.0
 11
262.367016
 21
828.217384
 31
0.0
  0
LINE
  5
1C6
330
136
100
AcDbEntity
  8
0
  6
Continuous
 62
     0
370
     0
100
AcDbLine
 10
262.367016
 20
828.217384
 30
0.0
 11
262.367003
 21
836.127573
 31
0.0
  0
LINE
  5
1C7
330
136
100
AcDbEntity
  8
0
  6
Continuous
 62
     0
370
    30
100
AcDbLine
 10
252.470181
 20
860.717384
 30
0.0
 11
252.470181
 21
828.217384
 31
0.0
  0
LINE
  5
1C8
330
136
100
AcDbEntity
  8
0
  6
Continuous
 62
     0
370
    30
100
AcDbLine
 10
252.470181
 20
828.217384
 30
0.0
 11
252.470181
 21
795.717384
 31
0.0
  0
LWPOLYLINE
  5
1C9
330
136
100
AcDbEntity
  8
0
  6
Continuous
 62
     0
370
     0
100
AcDbPolyline
 90
       12
 70
     0
 43
0.0
 10
254.349182
 20
795.717407
 10
254.414444
 20
795.720581
 10
254.606339
 20
795.729187
 10
254.907639
 20
795.740417
 10
255.295792
 20
795.750793
 10
255.737793
 20
795.757019
 10
256.198578
 20
795.757019
 10
256.640808
 20
795.750854
 10
257.029907
 20
795.74054
 10
257.331848
 20
795.729309
 10
257.523407
 20
795.720642
 10
257.591187
 20
795.717407
  0
LINE
  5
1CA
330
136
100
AcDbEntity
  8
0
  6
Continuous
 62
     0
370
     0
100
AcDbLine
 10
265.365658
 20
833.217384
 30
0.0
 11
265.365658
 21
828.217384
 31
0.0
  0
LINE
  5
1CB
330
136
100
AcDbEntity
  8
0
  6
Continuous
 62
     0
370
     0
100
AcDbLine
 10
265.365658
 20
828.217384
 30
0.0
 11
265.365658
 21
823.217384
 31
0.0
  0
LINE
  5
1CC
330
136
100
AcDbEntity
  8
0
  6
Continuous
 62
     0
370
    30
100
AcDbLine
 10
267.750181
 20
823.217384
 30
0.0
 11
267.750181
 21
828.217384
 31
0.0
  0
LINE
  5
1CD
330
136
100
AcDbEntity
  8
0
  6
Continuous
 62
     0
370
    30
100
AcDbLine
 10
267.750181
 20
828.217384
 30
0.0
 11
267.750181
 21
833.217384
 31
0.0
  0
LINE
  5
1CE
330
136
100
AcDbEntity
  8
0
  6
Continuous
 62
     0
370
    30
100
AcDbLine
 10
254.349181
 20
795.717384
 30
0.0
 11
257.591181
 21
795.717384
 31
0.0
  0
ARC
  5
1CF
330
136
100
AcDbEntity
  8
0
  6
Continuous
 62
     0
370
    30
100
AcDbCircle
 10
265.365658
 20
820.217384
 30
0.0
 40
3.000000042507347
100
AcDbArc
 50
90.0
 51
178.263297
  0
ARC
  5
1D0
330
136
100
AcDbEntity
  8
0
  6
Continuous
 62
     0
370
    30
100
AcDbCircle
 10
265.365658
 20
836.217384
 30
0.0
 40
3.000000042538124
100
AcDbArc
 50
181.736704
 51
270.0
  0
LINE
  5
1D1
330
136
100
AcDbEntity
  8
0
  6
Continuous
 62
     0
370
    30
100
AcDbLine
 10
267.750181
 20
823.217384
 30
0.0
 11
265.365658
 21
823.217384
 31
0.0
  0
LINE
  5
1D2
330
136
100
AcDbEntity
  8
0
  6
Continuous
 62
     0
370
    30
100
AcDbLine
 10
267.750181
 20
833.217384
 30
0.0
 11
265.365658
 21
833.217384
 31
0.0
  0
LINE
  5
1D3
330
136
100
AcDbEntity
  8
0
  6
Continuous
 62
     0
370
    30
100
AcDbLine
 10
260.028209
 20
795.717384
 30
0.0
 11
257.591181
 21
795.717384
 31
0.0
  0
LINE
  5
1D4
330
136
100
AcDbEntity
  8
0
  6
Continuous
 62
     0
370
    30
100
AcDbLine
 10
254.349181
 20
795.717384
 30
0.0
 11
252.470181
 21
795.717384
 31
0.0
  0
LINE
  5
1D5
330
136
100
AcDbEntity
  8
0
  6
Continuous
 62
     0
370
    30
100
AcDbLine
 10
260.028209
 20
860.717384
 30
0.0
 11
252.470181
 21
860.717384
 31
0.0
  0
LWPOLYLINE
  5
1D6
330
136
100
AcDbEntity
  8
0
  6
Continuous
 62
     0
370
    30
100
AcDbPolyline
 90
       46
 70
     0
 43
0.0
 10
260.524475
 20
860.278259
 10
260.589569
 20
859.743958
 10
260.653534
 20
859.209473
 10
260.716431
 20
858.674866
 10
260.778229
 20
858.140137
 10
260.838928
 20
857.605286
 10
260.898529
 20
857.070312
 10
260.957031
 20
856.535217
 10
261.014435
 20
855.999939
 10
261.07074
 20
855.464661
 10
261.125977
 20
854.929199
 10
261.180084
 20
854.393616
 10
261.233124
 20
853.857971
 10
261.285034
 20
853.322205
 10
261.335876
 20
852.786316
 10
261.38562
 20
852.250305
 10
261.434265
 20
851.714233
 10
261.481812
 20
851.17804
 10
261.528259
 20
850.641785
 10
261.573608
 20
850.105408
 10
261.617859
 20
849.568909
 10
261.66098
 20
849.032349
 10
261.703033
 20
848.495728
 10
261.744019
 20
847.958984
 10
261.783936
 20
847.42218
 10
261.822723
 20
846.885254
 10
261.860413
 20
846.348267
 10
261.896973
 20
845.811218
 10
261.932343
 20
845.27417
 10
261.966522
 20
844.737
 10
261.999695
 20
844.199768
 10
262.032043
 20
843.662415
 10
262.06366
 20
843.124817
 10
262.093903
 20
842.58728
 10
262.121796
 20
842.050049
 10
262.147339
 20
841.513184
 10
262.173645
 20
840.975647
 10
262.204254
 20
840.436401
 10
262.236572
 20
839.89624
 10
262.257965
 20
839.35907
 10
262.256409
 20
838.828613
 10
262.252014
 20
838.298645
 10
262.294617
 20
837.753784
 10
262.417816
 20
837.183655
 10
262.506622
 20
836.623718
 10
262.367004
 20
836.127502
  0
ARC
  5
1D7
330
136
100
AcDbEntity
  8
0
  6
Continuous
 62
     0
370
    30
100
AcDbCircle
 10
260.02813
 20
796.217474
 30
0.0
 40
0.5000896921708122
100
AcDbArc
 50
270.009087
 51
352.988868
  0
ARC
  5
1D8
330
136
100
AcDbEntity
  8
0
  6
Continuous
 62
     0
370
    30
100
AcDbCircle
 10
260.02813
 20
860.217295
 30
0.0
 40
0.500089692166392
100
AcDbArc
 50
7.011132
 51
89.990913
  0
LINE
  5
1D9
330
136
100
AcDbEntity
  8
0
  6
Continuous
 62
     0
370
    30
100
AcDbLine
 10
297.750144
 20
825.950615
 30
0.0
 11
297.750178
 21
825.958525
 31
0.0
  0
ARC
  5
1DA
330
136
100
AcDbEntity
  8
0
  6
Continuous
 62
     0
370
    30
100
AcDbCircle
 10
296.750103
 20
825.835807
 30
0.0
 40
1.000077725541612
100
AcDbArc
 50
277.959796
 51
359.996125
  0
ARC
  5
1DB
330
136
100
AcDbEntity
  8
0
  6
Continuous
 62
     0
370
    30
100
AcDbCircle
 10
272.500145
 20
833.36742
 30
0.0
 40
0.2500359660525039
100
AcDbArc
 50
270.008236
 51
359.959348
  0
ARC
  5
1DC
330
136
100
AcDbEntity
  8
0
  6
Continuous
 62
     0
370
    30
100
AcDbCircle
 10
272.500145
 20
823.067348
 30
0.0
 40
0.2500359660715207
100
AcDbArc
 50
0.040652
 51
89.991764
  0
ARC
  5
1DD
330
136
100
AcDbEntity
  8
0
  6
Continuous
 62
     0
370
    30
100
AcDbCircle
 10
263.940826
 20
1060.61331
 30
0.0
 40
238.0589831044612
100
AcDbArc
 50
272.12071
 51
277.955365
  0
ARC
  5
1DE
330
136
100
AcDbEntity
  8
0
  6
Continuous
 62
     0
370
    30
100
AcDbCircle
 10
296.750104
 20
830.598962
 30
0.0
 40
1.000077320008617
100
AcDbArc
 50
0.003864
 51
82.040204
  0
ARC
  5
1DF
330
136
100
AcDbEntity
  8
0
  6
Continuous
 62
     0
370
    30
100
AcDbCircle
 10
263.940826
 20
595.82146
 30
0.0
 40
238.0589820408502
100
AcDbArc
 50
82.044626
 51
87.87929
  0
LINE
  5
1E0
330
136
100
AcDbEntity
  8
0
  6
Continuous
 62
     0
370
    30
100
AcDbLine
 10
267.750181
 20
823.317384
 30
0.0
 11
272.500181
 21
823.317384
 31
0.0
  0
LINE
  5
1E1
330
136
100
AcDbEntity
  8
0
  6
Continuous
 62
     0
370
    30
100
AcDbLine
 10
267.750181
 20
833.117384
 30
0.0
 11
272.500181
 21
833.117384
 31
0.0
  0
ENDBLK
  5
1E3
330
136
100
AcDbEntity
  8
0
100
AcDbBlockEnd
  0
BLOCK
  5
29A
330
1E5
100
AcDbEntity
  8
0
100
AcDbBlockBegin
  2
d
 70
     0
 10
67.213291
 20
118.797237
 30
0.0
  3
d
  1

  0
ELLIPSE
  5
1E6
330
1E5
100
AcDbEntity
  8
0
  6
Continuous
 62
     0
370
    30
100
AcDbEllipse
 10
298.4514
 20
204.169011
 30
0.0
 11
11.30685426018487
 21
-16.09092977788082
 31
0.0
210
0.0
220
0.0
230
1.0
 40
0.503122
 41
6.2806110886569
 42
8.470942952160758
  0
ELLIPSE
  5
1E7
330
1E5
100
AcDbEntity
  8
0
  6
Continuous
 62
     0
370
    30
100
AcDbEllipse
 10
298.4514
 20
204.169011
 30
0.0
 11
11.30685426018487
 21
-16.09092977788082
 31
0.0
210
0.0
220
0.0
230
1.0
 40
0.503122
 41
2.187757644981174
 42
3.144166992626626
  0
ELLIPSE
  5
1E8
330
1E5
100
AcDbEntity
  8
0
  6
Continuous
 62
     0
370
    30
100
AcDbEllipse
 10
305.749912
 20
209.297565
 30
0.0
 11
34.49581048394693
 21
-49.0914317418068
 31
0.0
210
0.0
220
0.0
230
1.0
 40
0.503122
 41
6.280611088656961
 42
8.470942952160822
  0
ELLIPSE
  5
1E9
330
1E5
100
AcDbEntity
  8
0
  6
Continuous
 62
     0
370
    30
100
AcDbEllipse
 10
305.749912
 20
209.297565
 30
0.0
 11
34.49581048394693
 21
-49.0914317418068
 31
0.0
210
0.0
220
0.0
230
1.0
 40
0.503122
 41
2.187757644981236
 42
3.14416699262669
  0
ELLIPSE
  5
1EA
330
1E5
100
AcDbEntity
  8
0
  6
Continuous
 62
     0
370
     0
100
AcDbEllipse
 10
298.680546
 20
204.330028
 30
0.0
 11
34.18292284375929
 21
-48.64615731526493
 31
0.0
210
0.0
220
0.0
230
0.9999999999999998
 40
0.503122
 41
5.046964922065226
 42
5.329350298571
  0
ELLIPSE
  5
1EB
330
1E5
100
AcDbEntity
  8
0
  6
Continuous
 62
     0
370
     0
100
AcDbEllipse
 10
298.680546
 20
204.330028
 30
0.0
 11
34.18292284375929
 21
-48.64615731526493
 31
0.0
210
0.0
220
0.0
230
0.9999999999999998
 40
0.503122
 41
2.187757644981207
 42
4.3778131592184
  0
ELLIPSE
  5
1EC
330
1E5
100
AcDbEntity
  8
0
  6
Continuous
 62
     0
370
     0
100
AcDbEllipse
 10
298.680546
 20
204.330028
 30
0.0
 11
34.18292284375929
 21
-48.64615731526493
 31
0.0
210
0.0
220
0.0
230
0.9999999999999998
 40
0.503122
 41
5.329350298571
 42
8.470942952160794
  0
ELLIPSE
  5
1ED
330
1E5
100
AcDbEntity
  8
0
  6
Continuous
 62
     0
370
     0
100
AcDbEllipse
 10
299.032529
 20
204.577361
 30
0.0
 11
34.47165905876819
 21
-49.05706153788567
 31
0.0
210
0.0
220
0.0
230
0.9999999999999999
 40
0.503122
 41
6.268169346850645
 42
8.470942952160804
  0
ELLIPSE
  5
1EE
330
1E5
100
AcDbEntity
  8
0
  6
Continuous
 62
     0
370
     0
100
AcDbEllipse
 10
299.032529
 20
204.577361
 30
0.0
 11
34.47165905876819
 21
-49.05706153788567
 31
0.0
210
0.0
220
0.0
230
0.9999999999999999
 40
0.503122
 41
2.187757644981218
 42
3.155053554912752
  0
ELLIPSE
  5
1EF
330
1E5
100
AcDbEntity
  8
0
  6
Continuous
 62
     0
370
     0
100
AcDbEllipse
 10
271.83093
 20
185.463207
 30
0.0
 11
10.92367331991517
 21
-15.54562005156895
 31
0.0
210
0.0
220
0.0
230
1.0
 40
0.503122
 41
2.187757644981216
 42
5.32935029857101
  0
ELLIPSE
  5
1F0
330
1E5
100
AcDbEntity
  8
0
  6
Continuous
 62
     0
370
     0
100
AcDbEllipse
 10
271.83093
 20
185.463207
 30
0.0
 11
10.92367331991517
 21
-15.54562005156895
 31
0.0
210
0.0
220
0.0
230
1.0
 40
0.503122
 41
5.32935029857101
 42
8.470942952160803
  0
LWPOLYLINE
  5
1F1
330
1E5
100
AcDbEntity
  8
0
  6
Continuous
 62
     0
370
    30
100
AcDbPolyline
 90
       13
 70
     0
 43
0.0
 10
276.78067
 20
202.751526
 10
277.38736
 20
202.388489
 10
278.078522
 20
202.095871
 10
278.826874
 20
201.888168
 10
279.604065
 20
201.777939
 10
280.381409
 20
201.775269
 10
281.13028
 20
201.886826
 10
281.822327
 20
202.114578
 10
282.430237
 20
202.453934
 10
282.929596
 20
202.893005
 10
283.30072
 20
203.412781
 10
283.529846
 20
203.988968
 10
283.609009
 20
204.606583
  0
ELLIPSE
  5
1F2
330
1E5
100
AcDbEntity
  8
0
  6
Continuous
 62
     0
370
     0
100
AcDbEllipse
 10
272.182913
 20
185.71054
 30
0.0
 11
11.21240953492196
 21
-15.95652427418673
 31
0.0
210
0.0
220
0.0
230
0.9999999999999999
 40
0.503122
 41
6.274129449750338
 42
8.47094295216084
  0
ELLIPSE
  5
1F3
330
1E5
100
AcDbEntity
  8
0
  6
Continuous
 62
     0
370
     0
100
AcDbEllipse
 10
272.182913
 20
185.71054
 30
0.0
 11
11.21240953492196
 21
-15.95652427418673
 31
0.0
210
0.0
220
0.0
230
0.9999999999999999
 40
0.503122
 41
2.187757644981254
 42
3.148539264948434
  0
ARC
  5
1F4
330
1E5
100
AcDbEntity
  8
0
  6
Continuous
 62
     0
370
    30
100
AcDbCircle
 10
278.756497
 20
205.604275
 30
0.0
 40
3.470164265497446
100
AcDbArc
 50
219.512873
 51
235.293452
  0
LWPOLYLINE
  5
1F5
330
1E5
100
AcDbEntity
  8
0
  6
Continuous
 62
     0
370
    30
100
AcDbPolyline
 90
        4
 70
     0
 43
0.0
 10
275.609192
 20
204.606781
 10
275.650757
 20
204.240967
 10
275.774963
 20
203.879669
 10
276.079315
 20
203.396378
  0
ELLIPSE
  5
1F6
330
1E5
100
AcDbEntity
  8
0
  6
Continuous
 62
     0
370
     0
100
AcDbEllipse
 10
279.609105
 20
209.701536
 30
0.0
 11
4.0
 21
0.0
 31
0.0
210
0.0
220
0.0
230
-1.0
 40
0.707107
 41
2.651828698699818
 42
3.158681405645726
  0
ELLIPSE
  5
1F7
330
1E5
100
AcDbEntity
  8
0
  6
Continuous
 62
     0
370
     0
100
AcDbEllipse
 10
279.609105
 20
209.701536
 30
0.0
 11
4.0
 21
0.0
 31
0.0
210
0.0
220
0.0
230
-1.0
 40
0.707107
 41
6.260148506565435
 42
8.935014005879404
  0
ELLIPSE
  5
1F8
330
1E5
100
AcDbEntity
  8
0
  6
Continuous
 62
     0
370
     0
100
AcDbEllipse
 10
279.609105
 20
210.05509
 30
0.0
 11
3.5
 21
0.0
 31
0.0
210
0.0
220
0.0
230
-1.0
 40
0.707107
 41
5.793421352289611
 42
8.935014005879403
  0
ELLIPSE
  5
1F9
330
1E5
100
AcDbEntity
  8
0
  6
Continuous
 62
     0
370
     0
100
AcDbEllipse
 10
279.609105
 20
210.05509
 30
0.0
 11
3.5
 21
0.0
 31
0.0
210
0.0
220
0.0
230
-1.0
 40
0.707107
 41
2.651828698699818
 42
5.793421352289611
  0
LWPOLYLINE
  5
1FA
330
1E5
100
AcDbEntity
  8
0
  6
Continuous
 62
     0
370
    30
100
AcDbPolyline
 90
       18
 70
     0
 43
0.0
 10
275.609161
 20
209.701416
 10
275.681061
 20
210.267868
 10
275.892944
 20
210.808975
 10
276.230713
 20
211.302567
 10
276.679474
 20
211.735046
 10
277.222656
 20
212.095062
 10
277.841888
 20
212.373764
 10
278.517426
 20
212.564697
 10
279.227783
 20
212.662842
 10
279.950378
 20
212.665588
 10
280.662079
 20
212.572784
 10
281.340027
 20
212.386871
 10
281.96286
 20
212.11261
 10
282.510773
 20
211.756653
 10
282.965668
 20
211.328339
 10
283.309967
 20
210.837753
 10
283.528717
 20
210.299057
 10
283.608948
 20
209.702957
  0
LINE
  5
1FB
330
1E5
100
AcDbEntity
  8
0
  6
Continuous
 62
     0
370
    30
100
AcDbLine
 10
275.609105
 20
209.701536
 30
0.0
 11
275.609105
 21
204.605967
 31
0.0
  0
LINE
  5
1FC
330
1E5
100
AcDbEntity
  8
0
  6
Continuous
 62
     0
370
    30
100
AcDbLine
 10
283.609105
 20
209.701536
 30
0.0
 11
283.609105
 21
204.606181
 31
0.0
  0
LWPOLYLINE
  5
1FD
330
1E5
100
AcDbEntity
  8
0
  6
Continuous
 62
     0
370
    30
100
AcDbPolyline
 90
       26
 70
     0
 43
0.0
 10
264.275665
 20
204.014969
 10
263.111328
 20
206.576675
 10
262.033813
 20
209.133362
 10
261.045746
 20
211.678879
 10
260.149506
 20
214.207108
 10
259.347443
 20
216.711899
 10
258.641418
 20
219.187302
 10
258.033112
 20
221.627396
 10
257.523987
 20
224.026382
 10
257.11554
 20
226.378464
 10
256.808777
 20
228.678055
 10
256.604401
 20
230.919815
 10
256.50293
 20
233.09845
 10
256.504944
 20
235.208755
 10
256.610748
 20
237.245789
 10
256.82016
 20
239.20488
 10
257.132874
 20
241.081497
 10
257.548431
 20
242.871124
 10
258.066315
 20
244.56926
 10
258.685699
 20
246.171616
 10
259.405426
 20
247.67421
 10
260.224182
 20
249.07309
 10
261.140472
 20
250.364471
 10
262.152039
 20
251.54451
 10
263.256134
 20
252.609344
 10
264.494629
 20
253.587433
  0
LWPOLYLINE
  5
1FE
330
1E5
100
AcDbEntity
  8
0
  6
Continuous
 62
     0
370
    30
100
AcDbPolyline
 90
       26
 70
     0
 43
0.0
 10
333.441925
 20
155.476852
 10
332.151062
 20
154.670166
 10
330.778198
 20
153.987213
 10
329.328033
 20
153.430161
 10
327.805237
 20
153.000549
 10
326.214172
 20
152.69928
 10
324.558899
 20
152.526215
 10
322.843597
 20
152.481262
 10
321.072418
 20
152.564423
 10
319.249664
 20
152.77507
 10
317.3797
 20
153.112015
 10
315.466949
 20
153.574097
 10
313.515778
 20
154.16011
 10
311.530701
 20
154.868668
 10
309.516266
 20
155.697754
 10
307.477173
 20
156.645294
 10
305.418091
 20
157.709076
 10
303.343872
 20
158.886337
 10
301.259491
 20
160.174072
 10
299.169891
 20
161.56929
 10
297.079956
 20
163.068848
 10
294.99472
 20
164.668869
 10
292.919159
 20
166.365295
 10
290.858276
 20
168.154114
 10
288.817047
 20
170.031219
 10
286.724487
 20
172.067932
  0
LWPOLYLINE
  5
1FF
330
1E5
100
AcDbEntity
  8
0
  6
Continuous
 62
     0
370
    30
100
AcDbPolyline
 90
       37
 70
     0
 43
0.0
 10
283.375061
 20
169.739883
 10
282.584167
 20
169.28511
 10
281.713318
 20
168.962662
 10
280.774628
 20
168.775284
 10
279.777039
 20
168.721939
 10
278.728394
 20
168.800415
 10
277.636353
 20
169.008209
 10
276.50824
 20
169.342148
 10
275.351257
 20
169.798782
 10
274.172791
 20
170.374268
 10
272.980652
 20
171.064102
 10
271.783112
 20
171.862991
 10
270.588715
 20
172.764709
 10
269.405884
 20
173.762787
 10
268.243225
 20
174.849792
 10
267.109222
 20
176.017365
 10
266.012421
 20
177.257034
 10
264.960815
 20
178.559418
 10
263.96228
 20
179.914612
 10
263.024475
 20
181.312622
 10
262.154236
 20
182.742874
 10
261.358154
 20
184.194611
 10
260.642487
 20
185.657028
 10
260.012207
 20
187.11937
 10
259.472107
 20
188.570847
 10
259.026642
 20
190.000748
 10
258.679077
 20
191.398788
 10
258.432312
 20
192.754791
 10
258.288422
 20
194.059509
 10
258.248779
 20
195.30423
 10
258.314819
 20
196.480316
 10
258.487396
 20
197.579651
 10
258.766998
 20
198.594467
 10
259.153351
 20
199.516785
 10
259.645691
 20
200.338348
 10
260.242188
 20
201.050507
 10
260.949432
 20
201.652161
  0
LINE
  5
200
330
1E5
100
AcDbEntity
  8
0
  6
Continuous
 62
     0
370
    30
100
AcDbLine
 10
309.737377
 20
188.06349
 30
0.0
 11
283.37462
 21
169.739547
 31
0.0
  0
LINE
  5
201
330
1E5
100
AcDbEntity
  8
0
  6
Continuous
 62
     0
370
    30
100
AcDbLine
 10
287.123742
 20
220.245243
 30
0.0
 11
260.949874
 21
201.652489
 31
0.0
  0
LINE
  5
202
330
1E5
100
AcDbEntity
  8
0
  6
Continuous
 62
     0
370
    30
100
AcDbLine
 10
340.182028
 20
160.161619
 30
0.0
 11
333.441962
 21
155.476806
 31
0.0
  0
LINE
  5
203
330
1E5
100
AcDbEntity
  8
0
  6
Continuous
 62
     0
370
    30
100
AcDbLine
 10
271.190633
 20
258.344155
 30
0.0
 11
264.497445
 21
253.589613
 31
0.0
  0
LINE
  5
204
330
1E5
100
AcDbEntity
  8
0
  6
Continuous
 62
     0
370
     0
100
AcDbLine
 10
298.410144
 20
305.273579
 30
0.0
 11
297.308945
 21
304.494913
 31
0.0
  0
ELLIPSE
  5
205
330
1E5
100
AcDbEntity
  8
0
  6
Continuous
 62
     0
370
    30
100
AcDbEllipse
 10
294.945321
 20
307.723579
 30
0.0
 11
-2.829016382379727
 21
4.000833201750247
 31
0.0
210
0.0
220
0.0
230
-0.9999999999999998
 40
0.5
 41
6.28318524711185
 42
8.809298240875883
  0
ELLIPSE
  5
206
330
1E5
100
AcDbEntity
  8
0
  6
Continuous
 62
     0
370
    30
100
AcDbEllipse
 10
294.945321
 20
307.723579
 30
0.0
 11
-2.829016382379727
 21
4.000833201750247
 31
0.0
210
0.0
220
0.0
230
-0.9999999999999998
 40
0.5
 41
2.526112933696297
 42
3.018220053588523
  0
LWPOLYLINE
  5
207
330
1E5
100
AcDbEntity
  8
0
  6
Continuous
 62
     0
370
     0
100
AcDbPolyline
 90
        5
 70
     0
 43
0.0
 10
278.391785
 20
292.682129
 10
282.262573
 20
295.842957
 10
286.140717
 20
298.927185
 10
290.0242
 20
301.933258
 10
295.468384
 20
306.009064
  0
LWPOLYLINE
  5
208
330
1E5
100
AcDbEntity
  8
0
  6
Continuous
 62
     0
370
    30
100
AcDbPolyline
 90
        5
 70
     0
 43
0.0
 10
295.468384
 20
306.009064
 10
293.541504
 20
307.540985
 10
291.612396
 20
308.968811
 10
289.683075
 20
310.291443
 10
287.351166
 20
311.74881
  0
LWPOLYLINE
  5
209
330
1E5
100
AcDbEntity
  8
0
  6
Continuous
 62
     0
370
     0
100
AcDbPolyline
 90
        5
 70
     0
 43
0.0
 10
287.351166
 20
311.74881
 10
283.447235
 20
308.835785
 10
279.548615
 20
305.839813
 10
275.657288
 20
302.762421
 10
270.313904
 20
298.394043
  0
ARC
  5
20A
330
1E5
100
AcDbEntity
  8
0
  6
Continuous
 62
     0
370
     0
100
AcDbCircle
 10
1427.192198
 20
1925.898028
 30
0.0
 40
1996.781551056278
100
AcDbArc
 50
234.593652
 51
234.877532
  0
LWPOLYLINE
  5
20B
330
1E5
100
AcDbEntity
  8
0
  6
Continuous
 62
     0
370
     0
100
AcDbPolyline
 90
        3
 70
     0
 43
0.0
 10
289.542206
 20
284.839783
 10
291.656525
 20
286.300781
 10
306.741943
 20
296.734711
  0
LINE
  5
20C
330
1E5
100
AcDbEntity
  8
0
  6
Continuous
 62
     0
370
    30
100
AcDbLine
 10
306.741929
 20
296.734722
 30
0.0
 11
295.468397
 21
306.009069
 31
0.0
  0
LINE
  5
20D
330
1E5
100
AcDbEntity
  8
0
  6
Continuous
 62
     0
370
     0
100
AcDbLine
 10
278.391787
 20
292.682127
 30
0.0
 11
289.542211
 21
284.839779
 31
0.0
  0
LWPOLYLINE
  5
20E
330
1E5
100
AcDbEntity
  8
0
  6
Continuous
 62
     0
370
    30
100
AcDbPolyline
 90
        3
 70
     0
 43
0.0
 10
307.234497
 20
291.970306
 10
307.312042
 20
292.053406
 10
307.367889
 20
292.289337
  0
LWPOLYLINE
  5
20F
330
1E5
100
AcDbEntity
  8
0
  6
Continuous
 62
     0
370
    30
100
AcDbPolyline
 90
        4
 70
     0
 43
0.0
 10
276.077637
 20
318.417633
 10
275.923279
 20
318.491089
 10
275.780731
 20
318.522705
 10
275.577881
 20
318.471741
  0
LINE
  5
210
330
1E5
100
AcDbEntity
  8
0
  6
Continuous
 62
     0
370
    30
100
AcDbLine
 10
287.351176
 20
311.748811
 30
0.0
 11
276.077644
 21
318.417646
 31
0.0
  0
LWPOLYLINE
  5
211
330
1E5
100
AcDbEntity
  8
0
  6
Continuous
 62
     0
370
    30
100
AcDbPolyline
 90
        5
 70
     0
 43
0.0
 10
307.367889
 20
295.589661
 10
307.327148
 20
295.855042
 10
307.209625
 20
296.14743
 10
307.02887
 20
296.433136
 10
306.741943
 20
296.734711
  0
LINE
  5
212
330
1E5
100
AcDbEntity
  8
0
  6
Continuous
 62
     0
370
    30
100
AcDbLine
 10
307.367894
 20
292.289329
 30
0.0
 11
307.367894
 21
295.589657
 31
0.0
  0
ARC
  5
213
330
1E5
100
AcDbEntity
  8
0
  6
Continuous
 62
     0
370
     0
100
AcDbCircle
 10
1108.622404
 20
-841.507585
 30
0.0
 40
1427.780557151097
100
AcDbArc
 50
125.669169
 51
126.5011
  0
LINE
  5
214
330
1E5
100
AcDbEntity
  8
0
  6
Continuous
 62
     0
370
     0
100
AcDbLine
 10
259.323959
 20
306.207306
 30
0.0
 11
270.313911
 21
298.394047
 31
0.0
  0
ARC
  5
215
330
1E5
100
AcDbEntity
  8
0
  6
Continuous
 62
     0
370
     0
100
AcDbCircle
 10
-565.072946
 20
-891.85253
 30
0.0
 40
1452.86171452881
100
AcDbArc
 50
54.540714
 51
54.930525
  0
LWPOLYLINE
  5
216
330
1E5
100
AcDbEntity
  8
0
  6
Continuous
 62
     0
370
     0
100
AcDbPolyline
 90
        5
 70
     0
 43
0.0
 10
278.391785
 20
292.682129
 10
278.16272
 20
292.451752
 10
277.969543
 20
292.175568
 10
277.833893
 20
291.884613
 10
277.767456
 20
291.543945
  0
LWPOLYLINE
  5
217
330
1E5
100
AcDbEntity
  8
0
  6
Continuous
 62
     0
370
     0
100
AcDbPolyline
 90
        5
 70
     0
 43
0.0
 10
269.696777
 20
297.250793
 10
269.736023
 20
297.515656
 10
269.850983
 20
297.806671
 10
270.028778
 20
298.091125
 10
270.313904
 20
298.394043
  0
LWPOLYLINE
  5
218
330
1E5
100
AcDbEntity
  8
0
  6
Continuous
 62
     0
370
     0
100
AcDbPolyline
 90
        5
 70
     0
 43
0.0
 10
290.243011
 20
283.637146
 10
290.191986
 20
283.929871
 10
290.050446
 20
284.252075
 10
289.838165
 20
284.558868
 10
289.542206
 20
284.839783
  0
ARC
  5
219
330
1E5
100
AcDbEntity
  8
0
  6
Continuous
 62
     0
370
     0
100
AcDbCircle
 10
2174.244761
 20
-2397.410372
 30
0.0
 40
3276.809178392
100
AcDbArc
 50
124.730982
 51
125.096138
  0
ARC
  5
21A
330
1E5
100
AcDbEntity
  8
0
  6
Continuous
 62
     0
370
     0
100
AcDbCircle
 10
-2948.986722
 20
-4239.284113
 30
0.0
 40
5562.40464440928
100
AcDbArc
 50
54.402303
 51
54.542383
  0
LWPOLYLINE
  5
21B
330
1E5
100
AcDbEntity
  8
0
  6
Continuous
 62
     0
370
     0
100
AcDbPolyline
 90
        5
 70
     0
 43
0.0
 10
289.542206
 20
284.839783
 10
289.282776
 20
284.605438
 10
289.05954
 20
284.306366
 10
288.903534
 20
283.984344
 10
288.834991
 20
283.641479
  0
LINE
  5
21C
330
1E5
100
AcDbEntity
  8
0
  6
Continuous
 62
     0
370
     0
100
AcDbLine
 10
290.243007
 20
280.442636
 30
0.0
 11
290.243007
 21
283.637144
 31
0.0
  0
ARC
  5
21D
330
1E5
100
AcDbEntity
  8
0
  6
Continuous
 62
     0
370
     0
100
AcDbCircle
 10
-1549.230891
 20
2957.77921
 30
0.0
 40
3248.352713525129
100
AcDbArc
 50
304.491154
 51
304.858443
  0
LWPOLYLINE
  5
21E
330
1E5
100
AcDbEntity
  8
0
  6
Continuous
 62
     0
370
     0
100
AcDbPolyline
 90
        4
 70
     0
 43
0.0
 10
258.739105
 20
306.302002
 10
258.874176
 20
306.357178
 10
259.047119
 20
306.342102
 10
259.323944
 20
306.207306
  0
LWPOLYLINE
  5
21F
330
1E5
100
AcDbEntity
  8
0
  6
Continuous
 62
     0
370
     0
100
AcDbPolyline
 90
        3
 70
     0
 43
0.0
 10
290.243011
 20
280.442627
 10
290.223053
 20
280.293304
 10
290.104462
 20
280.120148
  0
ARC
  5
220
330
1E5
100
AcDbEntity
  8
0
  6
Continuous
 62
     0
370
     0
100
AcDbCircle
 10
-2878.223735
 20
-4186.764472
 30
0.0
 40
5478.667384244704
100
AcDbArc
 50
54.929931
 51
55.071228
  0
LWPOLYLINE
  5
221
330
1E5
100
AcDbEntity
  8
0
  6
Continuous
 62
     0
370
     0
100
AcDbPolyline
 90
        5
 70
     0
 43
0.0
 10
258.629242
 20
305.000183
 10
258.676239
 20
305.296082
 10
258.815338
 20
305.620453
 10
259.027069
 20
305.92807
 10
259.323944
 20
306.207306
  0
ARC
  5
222
330
1E5
100
AcDbEntity
  8
0
  6
Continuous
 62
     0
370
     0
100
AcDbCircle
 10
3509.89409
 20
4843.560809
 30
0.0
 40
5585.54051801117
100
AcDbArc
 50
234.402606
 51
234.542106
  0
ARC
  5
223
330
1E5
100
AcDbEntity
  8
0
  6
Continuous
 62
     0
370
     0
100
AcDbCircle
 10
1112.473142
 20
1477.208135
 30
0.0
 40
1452.749990482334
100
AcDbArc
 50
234.540677
 51
234.930516
  0
ARC
  5
224
330
1E5
100
AcDbEntity
  8
0
  6
Continuous
 62
     0
370
     0
100
AcDbCircle
 10
3425.586465
 20
4772.071273
 30
0.0
 40
5478.494189345947
100
AcDbArc
 50
234.929956
 51
235.071257
  0
LINE
  5
225
330
1E5
100
AcDbEntity
  8
0
  6
Continuous
 62
     0
370
     0
100
AcDbLine
 10
288.834991
 20
283.641487
 30
0.0
 11
288.834991
 21
280.446982
 31
0.0
  0
LINE
  5
226
330
1E5
100
AcDbEntity
  8
0
  6
Continuous
 62
     0
370
     0
100
AcDbLine
 10
258.629244
 20
301.805666
 30
0.0
 11
258.629243
 21
305.000181
 31
0.0
  0
ELLIPSE
  5
227
330
1E5
100
AcDbEntity
  8
0
  6
Continuous
 62
     0
370
     0
100
AcDbEllipse
 10
289.542098
 20
280.94698
 30
0.0
 11
0.9999999999999992
 21
4.289181336230542E-8
 31
0.0
210
0.0
220
0.0
230
-1.0
 40
0.707107
 41
0.7941248399878121
 42
2.356194520521343
  0
ELLIPSE
  5
228
330
1E5
100
AcDbEntity
  8
0
  6
Continuous
 62
     0
370
     0
100
AcDbEllipse
 10
289.542098
 20
284.141489
 30
0.0
 11
-0.9999999999999992
 21
-4.289181336230542E-8
 31
0.0
210
0.0
220
0.0
230
1.0
 40
0.707107
 41
0.7853988038683832
 42
2.347467813601896
  0
ELLIPSE
  5
229
330
1E5
100
AcDbEntity
  8
0
  6
Continuous
 62
     0
370
     0
100
AcDbEllipse
 10
259.33635
 20
305.500176
 30
0.0
 11
-0.9999999999999991
 21
-4.289181298739870E-8
 31
0.0
210
0.0
220
0.0
230
1.0
 40
0.707107
 41
6.283185286277921
 42
7.068586581147988
  0
ELLIPSE
  5
22A
330
1E5
100
AcDbEntity
  8
0
  6
Continuous
 62
     0
370
     0
100
AcDbEllipse
 10
259.33635
 20
302.305668
 30
0.0
 11
0.9999999999999991
 21
4.289181298739870E-8
 31
0.0
210
0.0
220
0.0
230
-1.0
 40
0.707107
 41
2.356182033021375
 42
3.14159267449145
  0
LWPOLYLINE
  5
22B
330
1E5
100
AcDbEntity
  8
0
  6
Continuous
 62
     0
370
     0
100
AcDbPolyline
 90
        3
 70
     0
 43
0.0
 10
258.629242
 20
301.805664
 10
258.647095
 20
301.656891
 10
258.761536
 20
301.487335
  0
LWPOLYLINE
  5
22C
330
1E5
100
AcDbEntity
  8
0
  6
Continuous
 62
     0
370
     0
100
AcDbPolyline
 90
        3
 70
     0
 43
0.0
 10
269.823914
 20
293.588593
 10
269.751221
 20
293.668243
 10
269.696808
 20
293.903198
  0
LWPOLYLINE
  5
22D
330
1E5
100
AcDbEntity
  8
0
  6
Continuous
 62
     0
370
     0
100
AcDbPolyline
 90
        3
 70
     0
 43
0.0
 10
277.900177
 20
287.877838
 10
277.824982
 20
287.959259
 10
277.767456
 20
288.196381
  0
LWPOLYLINE
  5
22E
330
1E5
100
AcDbEntity
  8
0
  6
Continuous
 62
     0
370
     0
100
AcDbPolyline
 90
        3
 70
     0
 43
0.0
 10
288.980804
 20
280.11969
 10
288.89328
 20
280.20929
 10
288.834991
 20
280.446991
  0
LWPOLYLINE
  5
22F
330
1E5
100
AcDbEntity
  8
0
  6
Continuous
 62
     0
370
     0
100
AcDbPolyline
 90
        7
 70
     0
 43
0.0
 10
279.462311
 20
316.415436
 10
278.807037
 20
318.455658
 10
278.279968
 20
320.423553
 10
277.878967
 20
322.306213
 10
277.600037
 20
324.093079
 10
277.437408
 20
325.775909
 10
277.384155
 20
327.366913
  0
LWPOLYLINE
  5
230
330
1E5
100
AcDbEntity
  8
0
  6
Continuous
 62
     0
370
     0
100
AcDbPolyline
 90
       24
 70
     0
 43
0.0
 10
322.725189
 20
295.305939
 10
322.684631
 20
293.979248
 10
322.559326
 20
292.686035
 10
322.344299
 20
291.437103
 10
322.035309
 20
290.243622
 10
321.628998
 20
289.116852
 10
321.12323
 20
288.068054
 10
320.516998
 20
287.108002
 10
319.81073
 20
286.246979
 10
319.006287
 20
285.494202
 10
318.106934
 20
284.857758
 10
317.117523
 20
284.344299
 10
316.04422
 20
283.958801
 10
314.894409
 20
283.704468
 10
313.676636
 20
283.582581
 10
312.400299
 20
283.59259
 10
311.07547
 20
283.732086
 10
309.712585
 20
283.996826
 10
308.322235
 20
284.381134
 10
306.914856
 20
284.877899
 10
305.500641
 20
285.478882
 10
304.089172
 20
286.174988
 10
302.689331
 20
286.956543
 10
301.279358
 20
287.833038
  0
LWPOLYLINE
  5
231
330
1E5
100
AcDbEntity
  8
0
  6
Continuous
 62
     0
370
     0
100
AcDbPolyline
 90
       48
 70
     0
 43
0.0
 10
277.384155
 20
327.366913
 10
277.426208
 20
328.717285
 10
277.556152
 20
330.032745
 10
277.779327
 20
331.30191
 10
278.100067
 20
332.51297
 10
278.521881
 20
333.654053
 10
279.046906
 20
334.713287
 10
279.676086
 20
335.679321
 10
280.408783
 20
336.541504
 10
281.242828
 20
337.290161
 10
282.1745
 20
337.917053
 10
283.198486
 20
338.415405
 10
284.308014
 20
338.780365
 10
285.494965
 20
339.008911
 10
286.750153
 20
339.100128
 10
288.063446
 20
339.055115
 10
289.424103
 20
338.876953
 10
290.821014
 20
338.570496
 10
292.243073
 20
338.142242
 10
293.679291
 20
337.600128
 10
295.119141
 20
336.953125
 10
296.552704
 20
336.21109
 10
297.970917
 20
335.384399
 10
299.365601
 20
334.483704
 10
300.738037
 20
333.513428
 10
302.132599
 20
332.442169
 10
303.550751
 20
331.263641
 10
304.984283
 20
329.978729
 10
306.424103
 20
328.589905
 10
307.860352
 20
327.101318
 10
309.282501
 20
325.518829
 10
310.679565
 20
323.850067
 10
312.040375
 20
322.104309
 10
313.353882
 20
320.292267
 10
314.609344
 20
318.426147
 10
315.7966
 20
316.519135
 10
316.906464
 20
314.585175
 10
317.930786
 20
312.638702
 10
318.862854
 20
310.694214
 10
319.697327
 20
308.7659
 10
320.43045
 20
306.867401
 10
321.060028
 20
305.011383
 10
321.58551
 20
303.209351
 10
322.007721
 20
301.471497
 10
322.328888
 20
299.806488
 10
322.552429
 20
298.221405
 10
322.68277
 20
296.721771
 10
322.725189
 20
295.305939
  0
LWPOLYLINE
  5
232
330
1E5
100
AcDbEntity
  8
0
  6
Continuous
 62
     0
370
     0
100
AcDbPolyline
 90
       39
 70
     0
 43
0.0
 10
323.386536
 20
295.334564
 10
323.344696
 20
296.750641
 10
323.215302
 20
298.255829
 10
322.993225
 20
299.846191
 10
322.674072
 20
301.516327
 10
322.254395
 20
303.259338
 10
321.731964
 20
305.066681
 10
321.105835
 20
306.928436
 10
320.376556
 20
308.833282
 10
319.546143
 20
310.768799
 10
318.618134
 20
312.721619
 10
317.597687
 20
314.677704
 10
316.491333
 20
316.622803
 10
315.306946
 20
318.542664
 10
314.053528
 20
320.423431
 10
312.740936
 20
322.251923
 10
311.379761
 20
324.016052
 10
309.980865
 20
325.704956
 10
308.555267
 20
327.309235
 10
307.113892
 20
328.821167
 10
305.667145
 20
330.234619
 10
304.224976
 20
331.545227
 10
302.796448
 20
332.750214
 10
301.389862
 20
333.84845
 10
300.009674
 20
334.842072
 10
298.614624
 20
335.762024
 10
297.194458
 20
336.610687
 10
295.757019
 20
337.377502
 10
294.311035
 20
338.052155
 10
292.86615
 20
338.624786
 10
291.432526
 20
339.086243
 10
290.020966
 20
339.428436
 10
288.642456
 20
339.644531
 10
287.307922
 20
339.729248
 10
286.028137
 20
339.678986
 10
284.813293
 20
339.492096
 10
283.672821
 20
339.168854
 10
282.615051
 20
338.711609
 10
281.641693
 20
338.120697
  0
LWPOLYLINE
  5
233
330
1E5
100
AcDbEntity
  8
0
  6
Continuous
 62
     0
370
     0
100
AcDbPolyline
 90
       11
 70
     0
 43
0.0
 10
319.169464
 20
285.048431
 10
319.986633
 20
285.709229
 10
320.716919
 20
286.471741
 10
321.358032
 20
287.328613
 10
321.908813
 20
288.271729
 10
322.369293
 20
289.292206
 10
322.74054
 20
290.380798
 10
323.024597
 20
291.527893
 10
323.224396
 20
292.723938
 10
323.343536
 20
293.959503
 10
323.386536
 20
295.334564
  0
LWPOLYLINE
  5
234
330
1E5
100
AcDbEntity
  8
0
  6
Continuous
 62
     0
370
     0
100
AcDbPolyline
 90
        3
 70
     0
 43
0.0
 10
293.36377
 20
312.728973
 10
293.220245
 20
313.496033
 10
293.158752
 20
314.370056
  0
LWPOLYLINE
  5
235
330
1E5
100
AcDbEntity
  8
0
  6
Continuous
 62
     0
370
     0
100
AcDbPolyline
 90
       12
 70
     0
 43
0.0
 10
304.344849
 20
306.460266
 10
304.29364
 20
305.735962
 10
304.135742
 20
305.097717
 10
303.880035
 20
304.559296
 10
303.532074
 20
304.128601
 10
303.092651
 20
303.816895
 10
302.57019
 20
303.63031
 10
301.979492
 20
303.565918
 10
301.329559
 20
303.628082
 10
300.630707
 20
303.818268
 10
299.897125
 20
304.131104
 10
299.136353
 20
304.563354
  0
LWPOLYLINE
  5
236
330
1E5
100
AcDbEntity
  8
0
  6
Continuous
 62
     0
370
     0
100
AcDbPolyline
 90
       24
 70
     0
 43
0.0
 10
293.158752
 20
314.370056
 10
293.210083
 20
315.094849
 10
293.368073
 20
315.733368
 10
293.624084
 20
316.271973
 10
293.972687
 20
316.702789
 10
294.412659
 20
317.014313
 10
294.935608
 20
317.20047
 10
295.527008
 20
317.264374
 10
296.177734
 20
317.201599
 10
296.877289
 20
317.010529
 10
297.611511
 20
316.696655
 10
298.36673
 20
316.267303
 10
299.129028
 20
315.728821
 10
299.884369
 20
315.091095
 10
300.618927
 20
314.367401
 10
301.318909
 20
313.569855
 10
301.970123
 20
312.712952
 10
302.562134
 20
311.813019
 10
303.086029
 20
310.88736
 10
303.526947
 20
309.953613
 10
303.876312
 20
309.029785
 10
304.133301
 20
308.128784
 10
304.29245
 20
307.266235
 10
304.344849
 20
306.460266
  0
ELLIPSE
  5
237
330
1E5
100
AcDbEntity
  8
0
  6
Continuous
 62
     0
370
    30
100
AcDbEllipse
 10
305.749912
 20
315.363579
 30
0.0
 11
18.76388416884513
 21
-26.53613858303735
 31
0.0
210
0.0
220
0.0
230
1.0
 40
0.5
 41
0.6154796770017041
 42
3.141592713657523
  0
ELLIPSE
  5
238
330
1E5
100
AcDbEntity
  8
0
  6
Continuous
 62
     0
370
    30
100
AcDbEllipse
 10
305.749912
 20
315.363579
 30
0.0
 11
18.76388416884513
 21
-26.53613858303735
 31
0.0
210
0.0
220
0.0
230
1.0
 40
0.5
 41
0.0000000600677303
 42
0.6154796770017041
  0
ELLIPSE
  5
239
330
1E5
100
AcDbEntity
  8
0
  6
Continuous
 62
     0
370
     0
100
AcDbEllipse
 10
296.631433
 20
308.91584
 30
0.0
 11
2.886751410591557
 21
-4.082482858928822
 31
0.0
210
0.0
220
0.0
230
0.9999999999999998
 40
0.5
 41
0.6154796770017059
 42
3.141592713657527
  0
ELLIPSE
  5
23A
330
1E5
100
AcDbEntity
  8
0
  6
Continuous
 62
     0
370
     0
100
AcDbEllipse
 10
296.631433
 20
308.91584
 30
0.0
 11
2.886751410591557
 21
-4.082482858928822
 31
0.0
210
0.0
220
0.0
230
0.9999999999999998
 40
0.5
 41
0.0000000562002782
 42
0.6154796770017059
  0
ELLIPSE
  5
23B
330
1E5
100
AcDbEntity
  8
0
  6
Continuous
 62
     0
370
    30
100
AcDbEllipse
 10
294.945321
 20
307.723579
 30
0.0
 11
-2.886751410591557
 21
4.082482858928822
 31
0.0
210
0.0
220
0.0
230
-0.9999999999999998
 40
0.5
 41
2.526112976588089
 42
3.010312230459612
  0
ELLIPSE
  5
23C
330
1E5
100
AcDbEntity
  8
0
  6
Continuous
 62
     0
370
    30
100
AcDbEllipse
 10
294.945321
 20
307.723579
 30
0.0
 11
-2.886751410591557
 21
4.082482858928822
 31
0.0
210
0.0
220
0.0
230
-0.9999999999999998
 40
0.5
 41
6.082850404788763
 42
8.809298283767676
  0
LWPOLYLINE
  5
23D
330
1E5
100
AcDbEntity
  8
0
  6
Continuous
 62
     0
370
    30
100
AcDbPolyline
 90
        4
 70
     0
 43
0.0
 10
294.016785
 20
313.305145
 10
293.993011
 20
313.258514
 10
293.911957
 20
313.148132
 10
293.74469
 20
312.998322
  0
LWPOLYLINE
  5
23E
330
1E5
100
AcDbEntity
  8
0
  6
Continuous
 62
     0
370
    30
100
AcDbPolyline
 90
        4
 70
     0
 43
0.0
 10
299.518188
 20
304.833344
 10
299.682678
 20
304.927368
 10
299.824158
 20
304.975922
 10
299.898132
 20
304.98761
  0
LINE
  5
23F
330
1E5
100
AcDbEntity
  8
0
  6
Continuous
 62
     0
370
    30
100
AcDbLine
 10
298.108883
 20
303.836831
 30
0.0
 11
299.518184
 21
304.833358
 31
0.0
  0
LINE
  5
240
330
1E5
100
AcDbEntity
  8
0
  6
Continuous
 62
     0
370
    30
100
AcDbLine
 10
292.058569
 20
311.806062
 30
0.0
 11
293.744681
 21
312.998323
 31
0.0
  0
LINE
  5
241
330
1E5
100
AcDbEntity
  8
0
  6
Continuous
 62
     0
370
    30
100
AcDbLine
 10
319.169464
 20
285.048427
 30
0.0
 11
324.513797
 21
288.827441
 31
0.0
  0
LINE
  5
242
330
1E5
100
AcDbEntity
  8
0
  6
Continuous
 62
     0
370
    30
100
AcDbLine
 10
281.641694
 20
338.120703
 30
0.0
 11
286.986027
 21
341.899717
 31
0.0
  0
LWPOLYLINE
  5
243
330
1E5
100
AcDbEntity
  8
0
  6
Continuous
 62
     0
370
    30
100
AcDbPolyline
 90
       15
 70
     0
 43
0.0
 10
301.222809
 20
287.793823
 10
302.701233
 20
286.867706
 10
304.170563
 20
286.043732
 10
305.625061
 20
285.325226
 10
307.059113
 20
284.715179
 10
308.467194
 20
284.216278
 10
309.843994
 20
283.830994
 10
311.184357
 20
283.561096
 10
312.483185
 20
283.408447
 10
313.735413
 20
283.374512
 10
314.935944
 20
283.460571
 10
316.079315
 20
283.667023
 10
317.159851
 20
283.993927
 10
318.171783
 20
284.44101
 10
319.169464
 20
285.048431
  0
LWPOLYLINE
  5
244
330
1E5
100
AcDbEntity
  8
0
  6
Continuous
 62
     0
370
    30
100
AcDbPolyline
 90
       17
 70
     0
 43
0.0
 10
281.641693
 20
338.120697
 10
280.781525
 20
337.424438
 10
280.009094
 20
336.615112
 10
279.329102
 20
335.698303
 10
278.743927
 20
334.679504
 10
278.255524
 20
333.56427
 10
277.865295
 20
332.358154
 10
277.573792
 20
331.066498
 10
277.381287
 20
329.694824
 10
277.287903
 20
328.248627
 10
277.293427
 20
326.733734
 10
277.39743
 20
325.156128
 10
277.599152
 20
323.522156
 10
277.897614
 20
321.838287
 10
278.291199
 20
320.111542
 10
278.778168
 20
318.348969
 10
279.391449
 20
316.457367
  0
LWPOLYLINE
  5
245
330
1E5
100
AcDbEntity
  8
0
  6
Continuous
 62
     0
370
    30
100
AcDbPolyline
 90
        5
 70
     0
 43
0.0
 10
258.74649
 20
301.498199
 10
258.590179
 20
301.639954
 10
258.467041
 20
301.811371
 10
258.382751
 20
302.004883
 10
258.336365
 20
302.30545
  0
ARC
  5
246
330
1E5
100
AcDbEntity
  8
0
  6
Continuous
 62
     0
370
    30
100
AcDbCircle
 10
259.335664
 20
305.500268
 30
0.0
 40
0.9993239308139655
100
AcDbArc
 50
125.996965
 51
180.040844
  0
ARC
  5
247
330
1E5
100
AcDbEntity
  8
0
  6
Continuous
 62
     0
370
    30
100
AcDbCircle
 10
289.54218
 20
280.94605
 30
0.0
 40
0.9989916491727296
100
AcDbArc
 50
235.056081
 51
304.513792
  0
ARC
  5
248
330
1E5
100
AcDbEntity
  8
0
  6
Continuous
 62
     0
370
    30
100
AcDbCircle
 10
3425.94498
 20
4772.074847
 30
0.0
 40
5478.887584936392
100
AcDbArc
 50
234.929957
 51
235.071274
  0
ARC
  5
249
330
1E5
100
AcDbEntity
  8
0
  6
Continuous
 62
     0
370
    30
100
AcDbCircle
 10
1112.500379
 20
1476.746383
 30
0.0
 40
1452.572169061148
100
AcDbArc
 50
234.540519
 51
234.930677
  0
ARC
  5
24A
330
1E5
100
AcDbEntity
  8
0
  6
Continuous
 62
     0
370
    30
100
AcDbCircle
 10
3512.73178
 20
4847.046075
 30
0.0
 40
5590.208090564862
100
AcDbArc
 50
234.402659
 51
234.542067
  0
LINE
  5
24B
330
1E5
100
AcDbEntity
  8
0
  6
Continuous
 62
     0
370
    30
100
AcDbLine
 10
258.33635
 20
305.500176
 30
0.0
 11
258.33635
 21
302.305668
 31
0.0
  0
ARC
  5
24C
330
1E5
100
AcDbEntity
  8
0
  6
Continuous
 62
     0
370
    30
100
AcDbCircle
 10
-1551.633317
 20
2960.743116
 30
0.0
 40
3252.343437441811
100
AcDbArc
 50
304.491316
 51
304.858234
  0
ARC
  5
24D
330
1E5
100
AcDbEntity
  8
0
  6
Continuous
 62
     0
370
    30
100
AcDbCircle
 10
2189.107317
 20
-2346.99629
 30
0.0
 40
3281.206306016419
100
AcDbArc
 50
125.674381
 51
126.037026
  0
LINE
  5
24E
330
1E5
100
AcDbEntity
  8
0
  6
Continuous
 62
     0
370
    30
100
AcDbLine
 10
292.116304
 20
311.724412
 30
0.0
 11
289.893255
 21
310.152479
 31
0.0
  0
LINE
  5
24F
330
1E5
100
AcDbEntity
  8
0
  6
Continuous
 62
     0
370
     0
100
AcDbLine
 10
298.410144
 20
375.984255
 30
0.0
 11
297.308945
 21
375.205589
 31
0.0
  0
ELLIPSE
  5
250
330
1E5
100
AcDbEntity
  8
0
  6
Continuous
 62
     0
370
    30
100
AcDbEllipse
 10
294.945321
 20
378.434255
 30
0.0
 11
-2.829016382379727
 21
4.000833201750247
 31
0.0
210
0.0
220
0.0
230
-0.9999999999999998
 40
0.5
 41
6.28318524711185
 42
8.809298240875892
  0
ELLIPSE
  5
251
330
1E5
100
AcDbEntity
  8
0
  6
Continuous
 62
     0
370
    30
100
AcDbEllipse
 10
294.945321
 20
378.434255
 30
0.0
 11
-2.829016382379727
 21
4.000833201750247
 31
0.0
210
0.0
220
0.0
230
-0.9999999999999998
 40
0.5
 41
2.526112933696306
 42
3.018220053588512
  0
LWPOLYLINE
  5
252
330
1E5
100
AcDbEntity
  8
0
  6
Continuous
 62
     0
370
     0
100
AcDbPolyline
 90
        5
 70
     0
 43
0.0
 10
278.391785
 20
363.392792
 10
282.262573
 20
366.55365
 10
286.140717
 20
369.637848
 10
290.0242
 20
372.643951
 10
295.468384
 20
376.719757
  0
LWPOLYLINE
  5
253
330
1E5
100
AcDbEntity
  8
0
  6
Continuous
 62
     0
370
    30
100
AcDbPolyline
 90
        5
 70
     0
 43
0.0
 10
295.468384
 20
376.719757
 10
293.541504
 20
378.251648
 10
291.612396
 20
379.679504
 10
289.683075
 20
381.002136
 10
287.351166
 20
382.459473
  0
LWPOLYLINE
  5
254
330
1E5
100
AcDbEntity
  8
0
  6
Continuous
 62
     0
370
     0
100
AcDbPolyline
 90
        5
 70
     0
 43
0.0
 10
287.351166
 20
382.459473
 10
283.447235
 20
379.546478
 10
279.548615
 20
376.550476
 10
275.657288
 20
373.473083
 10
270.313904
 20
369.104736
  0
ARC
  5
255
330
1E5
100
AcDbEntity
  8
0
  6
Continuous
 62
     0
370
     0
100
AcDbCircle
 10
1427.192198
 20
1996.608703
 30
0.0
 40
1996.781551034875
100
AcDbArc
 50
234.593652
 51
234.877532
  0
LWPOLYLINE
  5
256
330
1E5
100
AcDbEntity
  8
0
  6
Continuous
 62
     0
370
     0
100
AcDbPolyline
 90
        3
 70
     0
 43
0.0
 10
289.542206
 20
355.550446
 10
291.656525
 20
357.011444
 10
306.741943
 20
367.445404
  0
LINE
  5
257
330
1E5
100
AcDbEntity
  8
0
  6
Continuous
 62
     0
370
    30
100
AcDbLine
 10
306.741929
 20
367.445398
 30
0.0
 11
295.468397
 21
376.719744
 31
0.0
  0
LINE
  5
258
330
1E5
100
AcDbEntity
  8
0
  6
Continuous
 62
     0
370
     0
100
AcDbLine
 10
278.391787
 20
363.392803
 30
0.0
 11
289.542211
 21
355.550454
 31
0.0
  0
LWPOLYLINE
  5
259
330
1E5
100
AcDbEntity
  8
0
  6
Continuous
 62
     0
370
    30
100
AcDbPolyline
 90
        3
 70
     0
 43
0.0
 10
307.234497
 20
362.680969
 10
307.312042
 20
362.764069
 10
307.367889
 20
363.0
  0
LWPOLYLINE
  5
25A
330
1E5
100
AcDbEntity
  8
0
  6
Continuous
 62
     0
370
    30
100
AcDbPolyline
 90
        4
 70
     0
 43
0.0
 10
276.077637
 20
389.128326
 10
275.923279
 20
389.201752
 10
275.780731
 20
389.233368
 10
275.577881
 20
389.182434
  0
LINE
  5
25B
330
1E5
100
AcDbEntity
  8
0
  6
Continuous
 62
     0
370
    30
100
AcDbLine
 10
287.351176
 20
382.459486
 30
0.0
 11
276.077644
 21
389.128322
 31
0.0
  0
LWPOLYLINE
  5
25C
330
1E5
100
AcDbEntity
  8
0
  6
Continuous
 62
     0
370
    30
100
AcDbPolyline
 90
        5
 70
     0
 43
0.0
 10
307.367889
 20
366.300323
 10
307.327148
 20
366.565735
 10
307.209625
 20
366.858093
 10
307.02887
 20
367.143829
 10
306.741943
 20
367.445404
  0
LINE
  5
25D
330
1E5
100
AcDbEntity
  8
0
  6
Continuous
 62
     0
370
    30
100
AcDbLine
 10
307.367894
 20
363.000005
 30
0.0
 11
307.367894
 21
366.300333
 31
0.0
  0
ARC
  5
25E
330
1E5
100
AcDbEntity
  8
0
  6
Continuous
 62
     0
370
     0
100
AcDbCircle
 10
1108.622404
 20
-770.796909
 30
0.0
 40
1427.780557150367
100
AcDbArc
 50
125.669169
 51
126.5011
  0
LINE
  5
25F
330
1E5
100
AcDbEntity
  8
0
  6
Continuous
 62
     0
370
     0
100
AcDbLine
 10
259.323959
 20
376.917982
 30
0.0
 11
270.313911
 21
369.104723
 31
0.0
  0
ARC
  5
260
330
1E5
100
AcDbEntity
  8
0
  6
Continuous
 62
     0
370
     0
100
AcDbCircle
 10
-565.072946
 20
-821.141854
 30
0.0
 40
1452.861714534943
100
AcDbArc
 50
54.540714
 51
54.930525
  0
LWPOLYLINE
  5
261
330
1E5
100
AcDbEntity
  8
0
  6
Continuous
 62
     0
370
     0
100
AcDbPolyline
 90
        5
 70
     0
 43
0.0
 10
278.391785
 20
363.392792
 10
278.16272
 20
363.162445
 10
277.969543
 20
362.886261
 10
277.833893
 20
362.595276
 10
277.767456
 20
362.254639
  0
LWPOLYLINE
  5
262
330
1E5
100
AcDbEntity
  8
0
  6
Continuous
 62
     0
370
     0
100
AcDbPolyline
 90
        5
 70
     0
 43
0.0
 10
269.696777
 20
367.961456
 10
269.736023
 20
368.226318
 10
269.850983
 20
368.517334
 10
270.028778
 20
368.801788
 10
270.313904
 20
369.104736
  0
LWPOLYLINE
  5
263
330
1E5
100
AcDbEntity
  8
0
  6
Continuous
 62
     0
370
     0
100
AcDbPolyline
 90
        5
 70
     0
 43
0.0
 10
290.243011
 20
354.347809
 10
290.191986
 20
354.640564
 10
290.050446
 20
354.962738
 10
289.838165
 20
355.269562
 10
289.542206
 20
355.550446
  0
ARC
  5
264
330
1E5
100
AcDbEntity
  8
0
  6
Continuous
 62
     0
370
     0
100
AcDbCircle
 10
2174.244761
 20
-2326.699696
 30
0.0
 40
3276.809178393543
100
AcDbArc
 50
124.730982
 51
125.096138
  0
ARC
  5
265
330
1E5
100
AcDbEntity
  8
0
  6
Continuous
 62
     0
370
     0
100
AcDbCircle
 10
-2948.986722
 20
-4168.573438
 30
0.0
 40
5562.404644419034
100
AcDbArc
 50
54.402303
 51
54.542383
  0
LWPOLYLINE
  5
266
330
1E5
100
AcDbEntity
  8
0
  6
Continuous
 62
     0
370
     0
100
AcDbPolyline
 90
        5
 70
     0
 43
0.0
 10
289.542206
 20
355.550446
 10
289.282776
 20
355.316101
 10
289.05954
 20
355.017059
 10
288.903534
 20
354.695007
 10
288.834991
 20
354.352173
  0
LINE
  5
267
330
1E5
100
AcDbEntity
  8
0
  6
Continuous
 62
     0
370
     0
100
AcDbLine
 10
290.243007
 20
351.153312
 30
0.0
 11
290.243007
 21
354.34782
 31
0.0
  0
ARC
  5
268
330
1E5
100
AcDbEntity
  8
0
  6
Continuous
 62
     0
370
     0
100
AcDbCircle
 10
-1549.230891
 20
3028.489886
 30
0.0
 40
3248.352713516992
100
AcDbArc
 50
304.491154
 51
304.858443
  0
LWPOLYLINE
  5
269
330
1E5
100
AcDbEntity
  8
0
  6
Continuous
 62
     0
370
     0
100
AcDbPolyline
 90
        4
 70
     0
 43
0.0
 10
258.739105
 20
377.012695
 10
258.874176
 20
377.067871
 10
259.047119
 20
377.052765
 10
259.323944
 20
376.917969
  0
LWPOLYLINE
  5
26A
330
1E5
100
AcDbEntity
  8
0
  6
Continuous
 62
     0
370
     0
100
AcDbPolyline
 90
        3
 70
     0
 43
0.0
 10
290.243011
 20
351.15332
 10
290.223053
 20
351.003998
 10
290.104462
 20
350.830811
  0
ARC
  5
26B
330
1E5
100
AcDbEntity
  8
0
  6
Continuous
 62
     0
370
     0
100
AcDbCircle
 10
-2878.223735
 20
-4116.053796
 30
0.0
 40
5478.667384277023
100
AcDbArc
 50
54.929931
 51
55.071228
  0
LWPOLYLINE
  5
26C
330
1E5
100
AcDbEntity
  8
0
  6
Continuous
 62
     0
370
     0
100
AcDbPolyline
 90
        5
 70
     0
 43
0.0
 10
258.629242
 20
375.710846
 10
258.676239
 20
376.006775
 10
258.815338
 20
376.331116
 10
259.027069
 20
376.638733
 10
259.323944
 20
376.917999
  0
ARC
  5
26D
330
1E5
100
AcDbEntity
  8
0
  6
Continuous
 62
     0
370
     0
100
AcDbCircle
 10
3509.89409
 20
4914.271485
 30
0.0
 40
5585.540518032095
100
AcDbArc
 50
234.402606
 51
234.542106
  0
ARC
  5
26E
330
1E5
100
AcDbEntity
  8
0
  6
Continuous
 62
     0
370
     0
100
AcDbCircle
 10
1112.473142
 20
1547.91881
 30
0.0
 40
1452.749990484166
100
AcDbArc
 50
234.540677
 51
234.930516
  0
ARC
  5
26F
330
1E5
100
AcDbEntity
  8
0
  6
Continuous
 62
     0
370
     0
100
AcDbCircle
 10
3425.586465
 20
4842.781949
 30
0.0
 40
5478.494189356294
100
AcDbArc
 50
234.929956
 51
235.071257
  0
LINE
  5
270
330
1E5
100
AcDbEntity
  8
0
  6
Continuous
 62
     0
370
     0
100
AcDbLine
 10
288.834991
 20
354.352162
 30
0.0
 11
288.834991
 21
351.157658
 31
0.0
  0
LINE
  5
271
330
1E5
100
AcDbEntity
  8
0
  6
Continuous
 62
     0
370
     0
100
AcDbLine
 10
258.629244
 20
372.516342
 30
0.0
 11
258.629243
 21
375.710857
 31
0.0
  0
ELLIPSE
  5
272
330
1E5
100
AcDbEntity
  8
0
  6
Continuous
 62
     0
370
     0
100
AcDbEllipse
 10
289.542098
 20
351.657656
 30
0.0
 11
0.9999999999999992
 21
4.289181336230542E-8
 31
0.0
210
0.0
220
0.0
230
-1.0
 40
0.707107
 41
0.7941248399878063
 42
2.356194520521343
  0
ELLIPSE
  5
273
330
1E5
100
AcDbEntity
  8
0
  6
Continuous
 62
     0
370
     0
100
AcDbEllipse
 10
289.542098
 20
354.852164
 30
0.0
 11
-0.9999999999999992
 21
-4.289181336230542E-8
 31
0.0
210
0.0
220
0.0
230
1.0
 40
0.707107
 41
0.7853988038683788
 42
2.347467813601898
  0
ELLIPSE
  5
274
330
1E5
100
AcDbEntity
  8
0
  6
Continuous
 62
     0
370
     0
100
AcDbEllipse
 10
259.33635
 20
376.210852
 30
0.0
 11
-0.9999999999999991
 21
-4.289181298739870E-8
 31
0.0
210
0.0
220
0.0
230
1.0
 40
0.707107
 41
6.283185286277915
 42
7.068586581147988
  0
ELLIPSE
  5
275
330
1E5
100
AcDbEntity
  8
0
  6
Continuous
 62
     0
370
     0
100
AcDbEllipse
 10
259.33635
 20
373.016344
 30
0.0
 11
0.9999999999999991
 21
4.289181298739870E-8
 31
0.0
210
0.0
220
0.0
230
-1.0
 40
0.707107
 41
2.356182033021399
 42
3.141592674491445
  0
LWPOLYLINE
  5
276
330
1E5
100
AcDbEntity
  8
0
  6
Continuous
 62
     0
370
     0
100
AcDbPolyline
 90
        3
 70
     0
 43
0.0
 10
258.629242
 20
372.516327
 10
258.647095
 20
372.367554
 10
258.761536
 20
372.198029
  0
LWPOLYLINE
  5
277
330
1E5
100
AcDbEntity
  8
0
  6
Continuous
 62
     0
370
     0
100
AcDbPolyline
 90
        3
 70
     0
 43
0.0
 10
269.823914
 20
364.299255
 10
269.751221
 20
364.378906
 10
269.696808
 20
364.613861
  0
LWPOLYLINE
  5
278
330
1E5
100
AcDbEntity
  8
0
  6
Continuous
 62
     0
370
     0
100
AcDbPolyline
 90
        3
 70
     0
 43
0.0
 10
277.900177
 20
358.588531
 10
277.824982
 20
358.669952
 10
277.767456
 20
358.907074
  0
LWPOLYLINE
  5
279
330
1E5
100
AcDbEntity
  8
0
  6
Continuous
 62
     0
370
     0
100
AcDbPolyline
 90
        3
 70
     0
 43
0.0
 10
288.980804
 20
350.830383
 10
288.89328
 20
350.919983
 10
288.834991
 20
351.157654
  0
LWPOLYLINE
  5
27A
330
1E5
100
AcDbEntity
  8
0
  6
Continuous
 62
     0
370
     0
100
AcDbPolyline
 90
        7
 70
     0
 43
0.0
 10
279.462311
 20
387.126129
 10
278.807037
 20
389.166321
 10
278.279968
 20
391.134247
 10
277.878967
 20
393.016907
 10
277.600037
 20
394.803741
 10
277.437408
 20
396.486572
 10
277.384155
 20
398.077576
  0
LWPOLYLINE
  5
27B
330
1E5
100
AcDbEntity
  8
0
  6
Continuous
 62
     0
370
     0
100
AcDbPolyline
 90
       24
 70
     0
 43
0.0
 10
322.725189
 20
366.016632
 10
322.684631
 20
364.689911
 10
322.559326
 20
363.396729
 10
322.344299
 20
362.147797
 10
322.035309
 20
360.954285
 10
321.628998
 20
359.827545
 10
321.12323
 20
358.778717
 10
320.516998
 20
357.818695
 10
319.81073
 20
356.957642
 10
319.006287
 20
356.204865
 10
318.106934
 20
355.568451
 10
317.117523
 20
355.054993
 10
316.04422
 20
354.669495
 10
314.894409
 20
354.415131
 10
313.676636
 20
354.293274
 10
312.400299
 20
354.303284
 10
311.07547
 20
354.442749
 10
309.712585
 20
354.70752
 10
308.322235
 20
355.091827
 10
306.914856
 20
355.588562
 10
305.500641
 20
356.189545
 10
304.089172
 20
356.885651
 10
302.689331
 20
357.667206
 10
301.279358
 20
358.543701
  0
LWPOLYLINE
  5
27C
330
1E5
100
AcDbEntity
  8
0
  6
Continuous
 62
     0
370
     0
100
AcDbPolyline
 90
       48
 70
     0
 43
0.0
 10
277.384155
 20
398.077576
 10
277.426208
 20
399.427948
 10
277.556152
 20
400.743439
 10
277.779327
 20
402.012573
 10
278.100067
 20
403.223663
 10
278.521881
 20
404.364716
 10
279.046906
 20
405.42395
 10
279.676086
 20
406.390015
 10
280.408783
 20
407.252167
 10
281.242828
 20
408.000854
 10
282.1745
 20
408.627716
 10
283.198486
 20
409.126099
 10
284.308014
 20
409.491028
 10
285.494965
 20
409.719574
 10
286.750153
 20
409.810791
 10
288.063446
 20
409.765808
 10
289.424103
 20
409.587616
 10
290.821014
 20
409.281158
 10
292.243073
 20
408.852905
 10
293.679291
 20
408.310791
 10
295.119141
 20
407.663788
 10
296.552704
 20
406.921783
 10
297.970917
 20
406.095093
 10
299.365601
 20
405.194366
 10
300.738037
 20
404.224091
 10
302.132599
 20
403.152863
 10
303.550751
 20
401.974335
 10
304.984283
 20
400.689392
 10
306.424103
 20
399.300568
 10
307.860352
 20
397.811981
 10
309.282501
 20
396.229523
 10
310.679565
 20
394.56076
 10
312.040375
 20
392.814972
 10
313.353882
 20
391.00296
 10
314.609344
 20
389.136841
 10
315.7966
 20
387.229797
 10
316.906464
 20
385.295837
 10
317.930786
 20
383.349365
 10
318.862854
 20
381.404877
 10
319.697327
 20
379.476562
 10
320.43045
 20
377.578064
 10
321.060028
 20
375.722046
 10
321.58551
 20
373.920044
 10
322.007721
 20
372.18219
 10
322.328888
 20
370.517181
 10
322.552429
 20
368.932098
 10
322.68277
 20
367.432465
 10
322.725189
 20
366.016632
  0
LWPOLYLINE
  5
27D
330
1E5
100
AcDbEntity
  8
0
  6
Continuous
 62
     0
370
     0
100
AcDbPolyline
 90
       39
 70
     0
 43
0.0
 10
323.386536
 20
366.045227
 10
323.344696
 20
367.461334
 10
323.215302
 20
368.966492
 10
322.993225
 20
370.556854
 10
322.674072
 20
372.22702
 10
322.254395
 20
373.970001
 10
321.731964
 20
375.777374
 10
321.105835
 20
377.639099
 10
320.376556
 20
379.543976
 10
319.546143
 20
381.479492
 10
318.618134
 20
383.432281
 10
317.597687
 20
385.388367
 10
316.491333
 20
387.333496
 10
315.306946
 20
389.253357
 10
314.053528
 20
391.134094
 10
312.740936
 20
392.962616
 10
311.379761
 20
394.726715
 10
309.980865
 20
396.415619
 10
308.555267
 20
398.019928
 10
307.113892
 20
399.53183
 10
305.667145
 20
400.945282
 10
304.224976
 20
402.25589
 10
302.796448
 20
403.460907
 10
301.389862
 20
404.559143
 10
300.009674
 20
405.552765
 10
298.614624
 20
406.472717
 10
297.194458
 20
407.32135
 10
295.757019
 20
408.088165
 10
294.311035
 20
408.762817
 10
292.86615
 20
409.335449
 10
291.432526
 20
409.796936
 10
290.020966
 20
410.13913
 10
288.642456
 20
410.355225
 10
287.307922
 20
410.439911
 10
286.028137
 20
410.389648
 10
284.813293
 20
410.202759
 10
283.672821
 20
409.879547
 10
282.615051
 20
409.422272
 10
281.641693
 20
408.83136
  0
LWPOLYLINE
  5
27E
330
1E5
100
AcDbEntity
  8
0
  6
Continuous
 62
     0
370
     0
100
AcDbPolyline
 90
       11
 70
     0
 43
0.0
 10
319.169464
 20
355.759094
 10
319.986633
 20
356.419922
 10
320.716919
 20
357.182404
 10
321.358032
 20
358.039307
 10
321.908813
 20
358.982422
 10
322.369293
 20
360.002899
 10
322.74054
 20
361.091461
 10
323.024597
 20
362.238556
 10
323.224396
 20
363.434631
 10
323.343536
 20
364.670166
 10
323.386536
 20
366.045227
  0
LWPOLYLINE
  5
27F
330
1E5
100
AcDbEntity
  8
0
  6
Continuous
 62
     0
370
     0
100
AcDbPolyline
 90
        3
 70
     0
 43
0.0
 10
293.36377
 20
383.439636
 10
293.220245
 20
384.206726
 10
293.158752
 20
385.080719
  0
LWPOLYLINE
  5
280
330
1E5
100
AcDbEntity
  8
0
  6
Continuous
 62
     0
370
     0
100
AcDbPolyline
 90
       12
 70
     0
 43
0.0
 10
304.344849
 20
377.170959
 10
304.29364
 20
376.446655
 10
304.135742
 20
375.80838
 10
303.880035
 20
375.269958
 10
303.532074
 20
374.839294
 10
303.092651
 20
374.527588
 10
302.57019
 20
374.340973
 10
301.979492
 20
374.276611
 10
301.329559
 20
374.338745
 10
300.630707
 20
374.528931
 10
299.897125
 20
374.841797
 10
299.136353
 20
375.274017
  0
LWPOLYLINE
  5
281
330
1E5
100
AcDbEntity
  8
0
  6
Continuous
 62
     0
370
     0
100
AcDbPolyline
 90
       24
 70
     0
 43
0.0
 10
293.158752
 20
385.080719
 10
293.210083
 20
385.805511
 10
293.368073
 20
386.444061
 10
293.624084
 20
386.982666
 10
293.972687
 20
387.413483
 10
294.412659
 20
387.724976
 10
294.935608
 20
387.911133
 10
295.527008
 20
387.975067
 10
296.177734
 20
387.912262
 10
296.877289
 20
387.721222
 10
297.611511
 20
387.407349
 10
298.36673
 20
386.977966
 10
299.129028
 20
386.439484
 10
299.884369
 20
385.801758
 10
300.618927
 20
385.078094
 10
301.318909
 20
384.280518
 10
301.970123
 20
383.423615
 10
302.562134
 20
382.523712
 10
303.086029
 20
381.598053
 10
303.526947
 20
380.664307
 10
303.876312
 20
379.740448
 10
304.133301
 20
378.839478
 10
304.29245
 20
377.976898
 10
304.344849
 20
377.170959
  0
ELLIPSE
  5
282
330
1E5
100
AcDbEntity
  8
0
  6
Continuous
 62
     0
370
    30
100
AcDbEllipse
 10
305.749912
 20
386.074255
 30
0.0
 11
18.76388416884513
 21
-26.53613858303735
 31
0.0
210
0.0
220
0.0
230
1.0
 40
0.5
 41
0.6154796770017033
 42
3.141592713657524
  0
ELLIPSE
  5
283
330
1E5
100
AcDbEntity
  8
0
  6
Continuous
 62
     0
370
    30
100
AcDbEllipse
 10
305.749912
 20
386.074255
 30
0.0
 11
18.76388416884513
 21
-26.53613858303735
 31
0.0
210
0.0
220
0.0
230
1.0
 40
0.5
 41
0.0000000600677277
 42
0.6154796770017033
  0
ELLIPSE
  5
284
330
1E5
100
AcDbEntity
  8
0
  6
Continuous
 62
     0
370
     0
100
AcDbEllipse
 10
296.631433
 20
379.626516
 30
0.0
 11
2.886751410591557
 21
-4.082482858928822
 31
0.0
210
0.0
220
0.0
230
0.9999999999999998
 40
0.5
 41
0.6154796770017024
 42
3.141592713657527
  0
ELLIPSE
  5
285
330
1E5
100
AcDbEntity
  8
0
  6
Continuous
 62
     0
370
     0
100
AcDbEllipse
 10
296.631433
 20
379.626516
 30
0.0
 11
2.886751410591557
 21
-4.082482858928822
 31
0.0
210
0.0
220
0.0
230
0.9999999999999998
 40
0.5
 41
0.0000000559093634
 42
0.6154796770017024
  0
ELLIPSE
  5
286
330
1E5
100
AcDbEntity
  8
0
  6
Continuous
 62
     0
370
    30
100
AcDbEllipse
 10
294.945321
 20
378.434255
 30
0.0
 11
-2.886751410591557
 21
4.082482858928822
 31
0.0
210
0.0
220
0.0
230
-0.9999999999999998
 40
0.5
 41
2.526112976588093
 42
3.010312230459595
  0
ELLIPSE
  5
287
330
1E5
100
AcDbEntity
  8
0
  6
Continuous
 62
     0
370
    30
100
AcDbEllipse
 10
294.945321
 20
378.434255
 30
0.0
 11
-2.886751410591557
 21
4.082482858928822
 31
0.0
210
0.0
220
0.0
230
-0.9999999999999998
 40
0.5
 41
6.082850404788818
 42
8.80929828376768
  0
LWPOLYLINE
  5
288
330
1E5
100
AcDbEntity
  8
0
  6
Continuous
 62
     0
370
    30
100
AcDbPolyline
 90
        4
 70
     0
 43
0.0
 10
294.016785
 20
384.015808
 10
293.993011
 20
383.969208
 10
293.911957
 20
383.858826
 10
293.74469
 20
383.709015
  0
LWPOLYLINE
  5
289
330
1E5
100
AcDbEntity
  8
0
  6
Continuous
 62
     0
370
    30
100
AcDbPolyline
 90
        4
 70
     0
 43
0.0
 10
299.518188
 20
375.544037
 10
299.682678
 20
375.638062
 10
299.824158
 20
375.686584
 10
299.898132
 20
375.698273
  0
LINE
  5
28A
330
1E5
100
AcDbEntity
  8
0
  6
Continuous
 62
     0
370
    30
100
AcDbLine
 10
298.108883
 20
374.547507
 30
0.0
 11
299.518184
 21
375.544033
 31
0.0
  0
LINE
  5
28B
330
1E5
100
AcDbEntity
  8
0
  6
Continuous
 62
     0
370
    30
100
AcDbLine
 10
292.058569
 20
382.516737
 30
0.0
 11
293.744681
 21
383.708999
 31
0.0
  0
LINE
  5
28C
330
1E5
100
AcDbEntity
  8
0
  6
Continuous
 62
     0
370
    30
100
AcDbLine
 10
319.169464
 20
355.759103
 30
0.0
 11
324.513797
 21
359.538117
 31
0.0
  0
LINE
  5
28D
330
1E5
100
AcDbEntity
  8
0
  6
Continuous
 62
     0
370
    30
100
AcDbLine
 10
281.641694
 20
408.831379
 30
0.0
 11
286.986027
 21
412.610393
 31
0.0
  0
LWPOLYLINE
  5
28E
330
1E5
100
AcDbEntity
  8
0
  6
Continuous
 62
     0
370
    30
100
AcDbPolyline
 90
       15
 70
     0
 43
0.0
 10
301.222809
 20
358.504486
 10
302.701233
 20
357.578369
 10
304.170563
 20
356.754425
 10
305.625061
 20
356.035889
 10
307.059113
 20
355.425842
 10
308.467194
 20
354.926971
 10
309.843994
 20
354.541656
 10
311.184357
 20
354.27179
 10
312.483185
 20
354.11911
 10
313.735413
 20
354.085205
 10
314.935944
 20
354.171265
 10
316.079315
 20
354.377716
 10
317.159851
 20
354.70459
 10
318.171783
 20
355.151672
 10
319.169464
 20
355.759094
  0
LWPOLYLINE
  5
28F
330
1E5
100
AcDbEntity
  8
0
  6
Continuous
 62
     0
370
    30
100
AcDbPolyline
 90
       17
 70
     0
 43
0.0
 10
281.641693
 20
408.83139
 10
280.781525
 20
408.135101
 10
280.009094
 20
407.325806
 10
279.329102
 20
406.408966
 10
278.743927
 20
405.390167
 10
278.255524
 20
404.274963
 10
277.865295
 20
403.068817
 10
277.573792
 20
401.777161
 10
277.381287
 20
400.405487
 10
277.287903
 20
398.95932
 10
277.293427
 20
397.444397
 10
277.39743
 20
395.866791
 10
277.599152
 20
394.232819
 10
277.897614
 20
392.548981
 10
278.291199
 20
390.822205
 10
278.778168
 20
389.059631
 10
279.391449
 20
387.16806
  0
LWPOLYLINE
  5
290
330
1E5
100
AcDbEntity
  8
0
  6
Continuous
 62
     0
370
    30
100
AcDbPolyline
 90
        5
 70
     0
 43
0.0
 10
258.74649
 20
372.208862
 10
258.590179
 20
372.350616
 10
258.467041
 20
372.522064
 10
258.382751
 20
372.715546
 10
258.336365
 20
373.016113
  0
ARC
  5
291
330
1E5
100
AcDbEntity
  8
0
  6
Continuous
 62
     0
370
    30
100
AcDbCircle
 10
259.335664
 20
376.210944
 30
0.0
 40
0.999323930812708
100
AcDbArc
 50
125.996965
 51
180.040844
  0
ARC
  5
292
330
1E5
100
AcDbEntity
  8
0
  6
Continuous
 62
     0
370
    30
100
AcDbCircle
 10
289.54218
 20
351.656726
 30
0.0
 40
0.9989916491798115
100
AcDbArc
 50
235.056081
 51
304.513792
  0
ARC
  5
293
330
1E5
100
AcDbEntity
  8
0
  6
Continuous
 62
     0
370
    30
100
AcDbCircle
 10
3425.94498
 20
4842.785522
 30
0.0
 40
5478.887584961961
100
AcDbArc
 50
234.929957
 51
235.071274
  0
ARC
  5
294
330
1E5
100
AcDbEntity
  8
0
  6
Continuous
 62
     0
370
    30
100
AcDbCircle
 10
1112.500379
 20
1547.457059
 30
0.0
 40
1452.572169064331
100
AcDbArc
 50
234.540519
 51
234.930677
  0
ARC
  5
295
330
1E5
100
AcDbEntity
  8
0
  6
Continuous
 62
     0
370
    30
100
AcDbCircle
 10
3512.73178
 20
4917.75675
 30
0.0
 40
5590.208090532234
100
AcDbArc
 50
234.402659
 51
234.542067
  0
LINE
  5
296
330
1E5
100
AcDbEntity
  8
0
  6
Continuous
 62
     0
370
    30
100
AcDbLine
 10
258.33635
 20
376.210852
 30
0.0
 11
258.33635
 21
373.016344
 31
0.0
  0
ARC
  5
297
330
1E5
100
AcDbEntity
  8
0
  6
Continuous
 62
     0
370
    30
100
AcDbCircle
 10
-1551.633317
 20
3031.453792
 30
0.0
 40
3252.343437440009
100
AcDbArc
 50
304.491316
 51
304.858234
  0
ARC
  5
298
330
1E5
100
AcDbEntity
  8
0
  6
Continuous
 62
     0
370
    30
100
AcDbCircle
 10
2189.107317
 20
-2276.285614
 30
0.0
 40
3281.206306011907
100
AcDbArc
 50
125.674381
 51
126.037026
  0
LINE
  5
299
330
1E5
100
AcDbEntity
  8
0
  6
Continuous
 62
     0
370
    30
100
AcDbLine
 10
292.116304
 20
382.435088
 30
0.0
 11
289.893255
 21
380.863154
 31
0.0
  0
ENDBLK
  5
29B
330
1E5
100
AcDbEntity
  8
0
100
AcDbBlockEnd
  0
BLOCK
  5
345
330
29D
100
AcDbEntity
  8
0
100
AcDbBlockBegin
  2
e
 70
     0
 10
-35.092728
 20
0.0
 30
0.0
  3
e
  1

  0
LINE
  5
29E
330
29D
100
AcDbEntity
  8
0
  6
Continuous
 62
     0
370
    30
100
AcDbLine
 10
-74.923621
 20
597.929161
 30
0.0
 11
-74.923621
 21
582.929161
 31
0.0
  0
LINE
  5
29F
330
29D
100
AcDbEntity
  8
0
  6
Continuous
 62
     0
370
    30
100
AcDbLine
 10
-74.964889
 20
573.596379
 30
0.0
 11
-74.923621
 21
582.929161
 31
0.0
  0
LINE
  5
2A0
330
29D
100
AcDbEntity
  8
0
  6
Continuous
 62
     0
370
    30
100
AcDbLine
 10
-75.097542
 20
558.596965
 30
0.0
 11
-74.923621
 21
597.929161
 31
0.0
  0
LINE
  5
2A1
330
29D
100
AcDbEntity
  8
0
  6
Continuous
 62
     0
370
    30
100
AcDbLine
 10
-74.923621
 20
582.929161
 30
0.0
 11
-74.665881
 21
582.929161
 31
0.0
  0
LINE
  5
2A2
330
29D
100
AcDbEntity
  8
0
  6
Continuous
 62
     0
370
    30
100
AcDbLine
 10
-64.423621
 20
638.216249
 30
0.0
 11
-64.423621
 21
578.216249
 31
0.0
  0
LINE
  5
2A3
330
29D
100
AcDbEntity
  8
0
  6
Continuous
 62
     0
370
    30
100
AcDbLine
 10
-64.954233
 20
518.218596
 30
0.0
 11
-64.423621
 21
638.216249
 31
0.0
  0
LINE
  5
2A4
330
29D
100
AcDbEntity
  8
0
  6
Continuous
 62
     0
370
     0
100
AcDbLine
 10
-74.94942
 20
518.807011
 30
0.0
 11
-74.423621
 21
637.716249
 31
0.0
  0
LINE
  5
2A5
330
29D
100
AcDbEntity
  8
0
  6
Continuous
 62
     0
370
    30
100
AcDbLine
 10
-73.923621
 20
638.216249
 30
0.0
 11
-64.423621
 21
638.216249
 31
0.0
  0
LINE
  5
2A6
330
29D
100
AcDbEntity
  8
0
  6
Continuous
 62
     0
370
     0
100
AcDbLine
 10
-74.453861
 20
518.302609
 30
0.0
 11
-73.923621
 21
638.216249
 31
0.0
  0
LINE
  5
2A7
330
29D
100
AcDbEntity
  8
0
  6
Continuous
 62
     0
370
     0
100
AcDbLine
 10
-112.574049
 20
597.327099
 30
0.0
 11
-112.573598
 21
597.429161
 31
0.0
  0
LINE
  5
2A8
330
29D
100
AcDbEntity
  8
0
  6
Continuous
 62
     0
370
     0
100
AcDbLine
 10
-112.741625
 20
559.429904
 30
0.0
 11
-112.741174
 21
559.531984
 31
0.0
  0
LINE
  5
2A9
330
29D
100
AcDbEntity
  8
0
  6
Continuous
 62
     0
370
    30
100
AcDbLine
 10
-97.657611
 20
597.929161
 30
0.0
 11
-74.923621
 21
597.929161
 31
0.0
  0
LWPOLYLINE
  5
2AA
330
29D
100
AcDbEntity
  8
0
  6
Continuous
 62
     0
370
    30
100
AcDbPolyline
 90
       17
 70
     0
 43
0.0
 10
-105.657608
 20
597.929138
 10
-105.580467
 20
597.913513
 10
-105.352432
 20
597.868958
 10
-104.983215
 20
597.802307
 10
-104.487328
 20
597.723511
 10
-103.883377
 20
597.644409
 10
-103.193428
 20
597.576965
 10
-102.443108
 20
597.531616
 10
-101.661461
 20
597.515564
 10
-100.879654
 20
597.531433
 10
-100.128876
 20
597.57666
 10
-99.438194
 20
597.643982
 10
-98.833366
 20
597.722961
 10
-98.33625
 20
597.801758
 10
-97.96582
 20
597.868408
 10
-97.736244
 20
597.913208
 10
-97.657608
 20
597.929138
  0
LINE
  5
2AB
330
29D
100
AcDbEntity
  8
0
  6
Continuous
 62
     0
370
    30
100
AcDbLine
 10
-112.073598
 20
597.929161
 30
0.0
 11
-105.657611
 21
597.929161
 31
0.0
  0
LINE
  5
2AC
330
29D
100
AcDbEntity
  8
0
  6
Continuous
 62
     0
370
     0
100
AcDbLine
 10
-112.246066
 20
558.925502
 30
0.0
 11
-112.073598
 21
597.929161
 31
0.0
  0
ARC
  5
2AD
330
29D
100
AcDbEntity
  8
0
  6
Continuous
 62
     0
370
    30
100
AcDbCircle
 10
-112.073598
 20
597.429161
 30
0.0
 40
0.5
100
AcDbArc
 50
90.0
 51
180.0
  0
ARC
  5
2AE
330
29D
100
AcDbEntity
  8
0
  6
Continuous
 62
     0
370
    30
100
AcDbCircle
 10
-73.923621
 20
637.716249
 30
0.0
 40
0.5
100
AcDbArc
 50
90.0
 51
180.0
  0
LINE
  5
2AF
330
29D
100
AcDbEntity
  8
0
  6
Continuous
 62
     0
370
     0
100
AcDbLine
 10
-97.657611
 20
604.929533
 30
0.0
 11
-97.831141
 21
604.929533
 31
0.0
  0
LINE
  5
2B0
330
29D
100
AcDbEntity
  8
0
  6
Continuous
 62
     0
370
     0
100
AcDbLine
 10
-97.831141
 20
604.929533
 30
0.0
 11
-105.657611
 21
604.929533
 31
0.0
  0
LINE
  5
2B1
330
29D
100
AcDbEntity
  8
0
  6
Continuous
 62
     0
370
    30
100
AcDbLine
 10
-98.30945
 20
605.429533
 30
0.0
 11
-105.157611
 21
605.429533
 31
0.0
  0
LINE
  5
2B2
330
29D
100
AcDbEntity
  8
0
  6
Continuous
 62
     0
370
    30
100
AcDbLine
 10
-98.157611
 20
605.429533
 30
0.0
 11
-98.30945
 21
605.429533
 31
0.0
  0
ARC
  5
2B3
330
29D
100
AcDbEntity
  8
0
  6
Continuous
 62
     0
370
    30
100
AcDbCircle
 10
-105.15762
 20
604.929529
 30
0.0
 40
0.500003533445875
100
AcDbArc
 50
90.010106
 51
179.999595
  0
ARC
  5
2B4
330
29D
100
AcDbEntity
  8
0
  6
Continuous
 62
     0
370
    30
100
AcDbCircle
 10
-98.157746
 20
604.929539
 30
0.0
 40
0.49999399232341
100
AcDbArc
 50
359.999311
 51
89.985859
  0
LINE
  5
2B5
330
29D
100
AcDbEntity
  8
0
  6
Continuous
 62
     0
370
    30
100
AcDbLine
 10
-97.657611
 20
604.929533
 30
0.0
 11
-97.657611
 21
597.929161
 31
0.0
  0
LINE
  5
2B6
330
29D
100
AcDbEntity
  8
0
  6
Continuous
 62
     0
370
    30
100
AcDbLine
 10
-105.657611
 20
604.929533
 30
0.0
 11
-105.657611
 21
597.929161
 31
0.0
  0
ARC
  5
2B7
330
29D
100
AcDbEntity
  8
0
  6
Continuous
 62
     0
370
    30
100
AcDbCircle
 10
-74.449437
 20
518.802592
 30
0.0
 40
0.5000027409869732
100
AcDbArc
 50
179.493611
 51
269.492982
  0
ARC
  5
2B8
330
29D
100
AcDbEntity
  8
0
  6
Continuous
 62
     0
370
    30
100
AcDbCircle
 10
-112.241641
 20
559.425486
 30
0.0
 40
0.5000033410513881
100
AcDbArc
 50
179.726677
 51
269.492916
  0
LINE
  5
2B9
330
29D
100
AcDbEntity
  8
0
  6
Continuous
 62
     0
370
    30
100
AcDbLine
 10
-112.741639
 20
559.427871
 30
0.0
 11
-112.573593
 21
597.431319
 31
0.0
  0
LINE
  5
2BA
330
29D
100
AcDbEntity
  8
0
  6
Continuous
 62
     0
370
    30
100
AcDbLine
 10
-75.097542
 20
558.596965
 30
0.0
 11
-112.246066
 21
558.925502
 31
0.0
  0
LINE
  5
2BB
330
29D
100
AcDbEntity
  8
0
  6
Continuous
 62
     0
370
    30
100
AcDbLine
 10
-64.954233
 20
518.218596
 30
0.0
 11
-74.453861
 21
518.302609
 31
0.0
  0
LINE
  5
2BC
330
29D
100
AcDbEntity
  8
0
  6
Continuous
 62
     0
370
    30
100
AcDbLine
 10
-64.954233
 20
518.218596
 30
0.0
 11
-64.423621
 21
578.216249
 31
0.0
  0
LINE
  5
2BD
330
29D
100
AcDbEntity
  8
0
  6
Continuous
 62
     0
370
    30
100
AcDbLine
 10
-74.964889
 20
573.596379
 30
0.0
 11
-74.707159
 21
573.594099
 31
0.0
  0
LINE
  5
2BE
330
29D
100
AcDbEntity
  8
0
  6
Continuous
 62
     0
370
    30
100
AcDbLine
 10
-75.097542
 20
558.596965
 30
0.0
 11
-74.964889
 21
573.596379
 31
0.0
  0
LINE
  5
2BF
330
29D
100
AcDbEntity
  8
0
  6
Continuous
 62
     0
370
     0
100
AcDbLine
 10
-79.968927
 20
728.217423
 30
0.0
 11
-84.718927
 21
728.217423
 31
0.0
  0
LINE
  5
2C0
330
29D
100
AcDbEntity
  8
0
  6
Continuous
 62
     0
370
     0
100
AcDbLine
 10
-84.718927
 20
728.217423
 30
0.0
 11
-84.718927
 21
733.117422
 31
0.0
  0
LINE
  5
2C1
330
29D
100
AcDbEntity
  8
0
  6
Continuous
 62
     0
370
     0
100
AcDbLine
 10
-84.718927
 20
723.317422
 30
0.0
 11
-84.718927
 21
728.217423
 31
0.0
  0
ARC
  5
2C2
330
29D
100
AcDbEntity
  8
0
  6
Continuous
 62
     0
370
     0
100
AcDbCircle
 10
-78.013566
 20
479.029621
 30
0.0
 40
254.4523415791034
100
AcDbArc
 50
91.566354
 51
97.01533
  0
LINE
  5
2C3
330
29D
100
AcDbEntity
  8
0
  6
Continuous
 62
     0
370
    30
100
AcDbLine
 10
-84.968927
 20
733.386884
 30
0.0
 11
-84.968927
 21
733.71743
 31
0.0
  0
LINE
  5
2C4
330
29D
100
AcDbEntity
  8
0
  6
Continuous
 62
     0
370
     0
100
AcDbLine
 10
-109.105536
 20
731.588059
 30
0.0
 11
-109.104521
 21
731.587298
 31
0.0
  0
LINE
  5
2C5
330
29D
100
AcDbEntity
  8
0
  6
Continuous
 62
     0
370
     0
100
AcDbLine
 10
-109.104521
 20
731.587298
 30
0.0
 11
-109.09108
 21
731.577007
 31
0.0
  0
LWPOLYLINE
  5
2C6
330
29D
100
AcDbEntity
  8
0
  6
Continuous
 62
     0
370
     0
100
AcDbPolyline
 90
        3
 70
     0
 43
0.0
 10
-108.977608
 20
731.476196
 10
-100.816963
 20
731.526184
 10
-84.968925
 20
731.544495
  0
LINE
  5
2C7
330
29D
100
AcDbEntity
  8
0
  6
Continuous
 62
     0
370
    30
100
AcDbLine
 10
-84.968928
 20
731.54451
 30
0.0
 11
-84.968927
 21
733.386884
 31
0.0
  0
ARC
  5
2C8
330
29D
100
AcDbEntity
  8
0
  6
Continuous
 62
     0
370
     0
100
AcDbCircle
 10
-109.835828
 20
730.624409
 30
0.0
 40
1.209171183579235
100
AcDbArc
 50
44.784667
 51
51.981428
  0
LINE
  5
2C9
330
29D
100
AcDbEntity
  8
0
  6
Continuous
 62
     0
370
    30
100
AcDbLine
 10
-84.968928
 20
724.890337
 30
0.0
 11
-84.968928
 21
725.883739
 31
0.0
  0
LINE
  5
2CA
330
29D
100
AcDbEntity
  8
0
  6
Continuous
 62
     0
370
    30
100
AcDbLine
 10
-84.968927
 20
723.047962
 30
0.0
 11
-84.968928
 21
724.890337
 31
0.0
  0
LWPOLYLINE
  5
2CB
330
29D
100
AcDbEntity
  8
0
  6
Continuous
 62
     0
370
    30
100
AcDbPolyline
 90
        4
 70
     0
 43
0.0
 10
-84.968925
 20
722.717407
 10
-84.968925
 20
722.73877
 10
-84.968925
 20
722.802856
 10
-84.968925
 20
723.047974
  0
LINE
  5
2CC
330
29D
100
AcDbEntity
  8
0
  6
Continuous
 62
     0
370
    30
100
AcDbLine
 10
-84.968928
 20
730.551107
 30
0.0
 11
-84.968928
 21
731.54451
 31
0.0
  0
LINE
  5
2CD
330
29D
100
AcDbEntity
  8
0
  6
Continuous
 62
     0
370
    30
100
AcDbLine
 10
-84.968928
 20
725.883739
 30
0.0
 11
-84.968928
 21
730.551107
 31
0.0
  0
ARC
  5
2CE
330
29D
100
AcDbEntity
  8
0
  6
Continuous
 62
     0
370
     0
100
AcDbCircle
 10
-108.968882
 20
730.584457
 30
0.0
 40
1.000044577735699
100
AcDbArc
 50
97.018613
 51
179.996987
  0
LWPOLYLINE
  5
2CF
330
29D
100
AcDbEntity
  8
0
  6
Continuous
 62
     0
370
     0
100
AcDbPolyline
 90
        5
 70
     0
 43
0.0
 10
-108.977654
 20
730.476257
 10
-108.980255
 20
730.85376
 10
-108.981186
 20
731.175354
 10
-108.980301
 20
731.393555
 10
-108.977608
 20
731.476196
  0
LWPOLYLINE
  5
2D0
330
29D
100
AcDbEntity
  8
0
  6
Continuous
 62
     0
370
     0
100
AcDbPolyline
 90
        8
 70
     0
 43
0.0
 10
-84.968925
 20
730.551086
 10
-88.364113
 20
730.553101
 10
-91.774803
 20
730.551819
 10
-95.103935
 20
730.546875
 10
-98.420197
 20
730.537903
 10
-101.736351
 20
730.524353
 10
-105.052368
 20
730.505737
 10
-108.977654
 20
730.476257
  0
LINE
  5
2D1
330
29D
100
AcDbEntity
  8
0
  6
Continuous
 62
     0
370
    30
100
AcDbLine
 10
-109.968928
 20
730.476279
 30
0.0
 11
-109.968927
 21
730.584509
 31
0.0
  0
ARC
  5
2D2
330
29D
100
AcDbEntity
  8
0
  6
Continuous
 62
     0
370
     0
100
AcDbCircle
 10
-108.968879
 20
730.476192
 30
0.0
 40
1.000048611279989
100
AcDbArc
 50
90.500116
 51
179.995
  0
LINE
  5
2D3
330
29D
100
AcDbEntity
  8
0
  6
Continuous
 62
     0
370
     0
100
AcDbLine
 10
-108.977654
 20
725.958565
 30
0.0
 11
-108.977654
 21
730.476282
 31
0.0
  0
LWPOLYLINE
  5
2D4
330
29D
100
AcDbEntity
  8
0
  6
Continuous
 62
     0
370
     0
100
AcDbPolyline
 90
        8
 70
     0
 43
0.0
 10
-84.968925
 20
725.883728
 10
-88.371567
 20
725.881714
 10
-91.789375
 20
725.883057
 10
-95.125481
 20
725.888
 10
-98.448959
 20
725.897034
 10
-101.772331
 20
725.910645
 10
-105.095558
 20
725.929382
 10
-108.977654
 20
725.958557
  0
LINE
  5
2D5
330
29D
100
AcDbEntity
  8
0
  6
Continuous
 62
     0
370
     0
100
AcDbLine
 10
-109.105525
 20
724.846785
 30
0.0
 11
-109.104514
 21
724.847546
 31
0.0
  0
LINE
  5
2D6
330
29D
100
AcDbEntity
  8
0
  6
Continuous
 62
     0
370
     0
100
AcDbLine
 10
-109.104514
 20
724.847546
 30
0.0
 11
-109.09108
 21
724.857838
 31
0.0
  0
ARC
  5
2D7
330
29D
100
AcDbEntity
  8
0
  6
Continuous
 62
     0
370
     0
100
AcDbCircle
 10
-78.013566
 20
977.405225
 30
0.0
 40
254.4523419088407
100
AcDbArc
 50
262.98467
 51
268.433646
  0
ARC
  5
2D8
330
29D
100
AcDbEntity
  8
0
  6
Continuous
 62
     0
370
     0
100
AcDbCircle
 10
-109.839296
 20
725.81433
 30
0.0
 40
1.21437340752891
100
AcDbArc
 50
308.03431
 51
315.200249
  0
LWPOLYLINE
  5
2D9
330
29D
100
AcDbEntity
  8
0
  6
Continuous
 62
     0
370
     0
100
AcDbPolyline
 90
        3
 70
     0
 43
0.0
 10
-108.977608
 20
724.958618
 10
-100.816963
 20
724.90863
 10
-84.968925
 20
724.89032
  0
LWPOLYLINE
  5
2DA
330
29D
100
AcDbEntity
  8
0
  6
Continuous
 62
     0
370
     0
100
AcDbPolyline
 90
        5
 70
     0
 43
0.0
 10
-108.977654
 20
725.958557
 10
-108.980255
 20
725.581055
 10
-108.981186
 20
725.25946
 10
-108.980301
 20
725.04126
 10
-108.977608
 20
724.958618
  0
LINE
  5
2DB
330
29D
100
AcDbEntity
  8
0
  6
Continuous
 62
     0
370
     0
100
AcDbLine
 10
-84.718927
 20
728.217423
 30
0.0
 11
-84.968927
 21
728.217423
 31
0.0
  0
LINE
  5
2DC
330
29D
100
AcDbEntity
  8
0
  6
Continuous
 62
     0
370
    30
100
AcDbLine
 10
-109.968928
 20
725.958568
 30
0.0
 11
-109.968927
 21
725.850334
 31
0.0
  0
LINE
  5
2DD
330
29D
100
AcDbEntity
  8
0
  6
Continuous
 62
     0
370
    30
100
AcDbLine
 10
-109.968928
 20
730.476279
 30
0.0
 11
-109.968928
 21
725.958568
 31
0.0
  0
LINE
  5
2DE
330
29D
100
AcDbEntity
  8
0
  6
Continuous
 62
     0
370
     0
100
AcDbLine
 10
-108.977654
 20
725.958565
 30
0.0
 11
-109.968928
 21
725.958565
 31
0.0
  0
LINE
  5
2DF
330
29D
100
AcDbEntity
  8
0
  6
Continuous
 62
     0
370
     0
100
AcDbLine
 10
-109.968928
 20
730.476282
 30
0.0
 11
-108.977654
 21
730.476282
 31
0.0
  0
ARC
  5
2E0
330
29D
100
AcDbEntity
  8
0
  6
Continuous
 62
     0
370
     0
100
AcDbCircle
 10
-108.968882
 20
725.850389
 30
0.0
 40
1.000044581501818
100
AcDbArc
 50
180.003147
 51
262.981389
  0
ARC
  5
2E1
330
29D
100
AcDbEntity
  8
0
  6
Continuous
 62
     0
370
     0
100
AcDbCircle
 10
-108.968879
 20
725.958655
 30
0.0
 40
1.000048610991218
100
AcDbArc
 50
180.005
 51
269.499793
  0
LINE
  5
2E2
330
29D
100
AcDbEntity
  8
0
  6
Continuous
 62
     0
370
     0
100
AcDbLine
 10
-72.743227
 20
728.217422
 30
0.0
 11
-72.743226
 21
696.15647
 31
0.0
  0
LINE
  5
2E3
330
29D
100
AcDbEntity
  8
0
  6
Continuous
 62
     0
370
     0
100
AcDbLine
 10
-72.743226
 20
760.278375
 30
0.0
 11
-72.743227
 21
728.217422
 31
0.0
  0
LINE
  5
2E4
330
29D
100
AcDbEntity
  8
0
  6
Continuous
 62
     0
370
     0
100
AcDbLine
 10
-72.246956
 20
728.217422
 30
0.0
 11
-72.246955
 21
760.717422
 31
0.0
  0
LINE
  5
2E5
330
29D
100
AcDbEntity
  8
0
  6
Continuous
 62
     0
370
     0
100
AcDbLine
 10
-72.246955
 20
695.717422
 30
0.0
 11
-72.246956
 21
728.217422
 31
0.0
  0
LINE
  5
2E6
330
29D
100
AcDbEntity
  8
0
  6
Continuous
 62
     0
370
     0
100
AcDbLine
 10
-74.585761
 20
728.217422
 30
0.0
 11
-74.585748
 21
720.307233
 31
0.0
  0
LINE
  5
2E7
330
29D
100
AcDbEntity
  8
0
  6
Continuous
 62
     0
370
     0
100
AcDbLine
 10
-74.585748
 20
736.127612
 30
0.0
 11
-74.585761
 21
728.217422
 31
0.0
  0
LINE
  5
2E8
330
29D
100
AcDbEntity
  8
0
  6
Continuous
 62
     0
370
    30
100
AcDbLine
 10
-64.688927
 20
728.217422
 30
0.0
 11
-64.688927
 21
760.717422
 31
0.0
  0
LINE
  5
2E9
330
29D
100
AcDbEntity
  8
0
  6
Continuous
 62
     0
370
    30
100
AcDbLine
 10
-64.688927
 20
695.717422
 30
0.0
 11
-64.688927
 21
728.217422
 31
0.0
  0
LWPOLYLINE
  5
2EA
330
29D
100
AcDbEntity
  8
0
  6
Continuous
 62
     0
370
     0
100
AcDbPolyline
 90
       12
 70
     0
 43
0.0
 10
-69.809929
 20
695.717407
 10
-69.744659
 20
695.720642
 10
-69.552773
 20
695.729248
 10
-69.251465
 20
695.740479
 10
-68.863319
 20
695.750854
 10
-68.42131
 20
695.757019
 10
-67.960526
 20
695.75708
 10
-67.518303
 20
695.750916
 10
-67.129204
 20
695.740601
 10
-66.827271
 20
695.729309
 10
-66.635696
 20
695.720703
 10
-66.567924
 20
695.717407
  0
LINE
  5
2EB
330
29D
100
AcDbEntity
  8
0
  6
Continuous
 62
     0
370
     0
100
AcDbLine
 10
-77.584404
 20
728.217422
 30
0.0
 11
-77.584404
 21
733.217422
 31
0.0
  0
LINE
  5
2EC
330
29D
100
AcDbEntity
  8
0
  6
Continuous
 62
     0
370
     0
100
AcDbLine
 10
-77.584404
 20
723.217422
 30
0.0
 11
-77.584404
 21
728.217422
 31
0.0
  0
LINE
  5
2ED
330
29D
100
AcDbEntity
  8
0
  6
Continuous
 62
     0
370
    30
100
AcDbLine
 10
-79.968927
 20
728.217422
 30
0.0
 11
-79.968927
 21
723.217422
 31
0.0
  0
LINE
  5
2EE
330
29D
100
AcDbEntity
  8
0
  6
Continuous
 62
     0
370
    30
100
AcDbLine
 10
-79.968927
 20
733.217422
 30
0.0
 11
-79.968927
 21
728.217422
 31
0.0
  0
LINE
  5
2EF
330
29D
100
AcDbEntity
  8
0
  6
Continuous
 62
     0
370
    30
100
AcDbLine
 10
-66.567927
 20
695.717422
 30
0.0
 11
-69.809927
 21
695.717422
 31
0.0
  0
ARC
  5
2F0
330
29D
100
AcDbEntity
  8
0
  6
Continuous
 62
     0
370
    30
100
AcDbCircle
 10
-77.584404
 20
720.217422
 30
0.0
 40
3.000000042507338
100
AcDbArc
 50
1.736703
 51
90.0
  0
ARC
  5
2F1
330
29D
100
AcDbEntity
  8
0
  6
Continuous
 62
     0
370
    30
100
AcDbCircle
 10
-77.584404
 20
736.217423
 30
0.0
 40
3.000000042538946
100
AcDbArc
 50
270.0
 51
358.263296
  0
LINE
  5
2F2
330
29D
100
AcDbEntity
  8
0
  6
Continuous
 62
     0
370
    30
100
AcDbLine
 10
-79.968927
 20
723.217422
 30
0.0
 11
-77.584404
 21
723.217422
 31
0.0
  0
LINE
  5
2F3
330
29D
100
AcDbEntity
  8
0
  6
Continuous
 62
     0
370
    30
100
AcDbLine
 10
-79.968927
 20
733.217422
 30
0.0
 11
-77.584404
 21
733.217422
 31
0.0
  0
LINE
  5
2F4
330
29D
100
AcDbEntity
  8
0
  6
Continuous
 62
     0
370
    30
100
AcDbLine
 10
-72.246955
 20
695.717422
 30
0.0
 11
-69.809927
 21
695.717422
 31
0.0
  0
LINE
  5
2F5
330
29D
100
AcDbEntity
  8
0
  6
Continuous
 62
     0
370
    30
100
AcDbLine
 10
-66.567927
 20
695.717422
 30
0.0
 11
-64.688927
 21
695.717422
 31
0.0
  0
LINE
  5
2F6
330
29D
100
AcDbEntity
  8
0
  6
Continuous
 62
     0
370
    30
100
AcDbLine
 10
-72.246955
 20
760.717422
 30
0.0
 11
-64.688927
 21
760.717422
 31
0.0
  0
LWPOLYLINE
  5
2F7
330
29D
100
AcDbEntity
  8
0
  6
Continuous
 62
     0
370
    30
100
AcDbPolyline
 90
       46
 70
     0
 43
0.0
 10
-72.743233
 20
760.27832
 10
-72.808304
 20
759.743958
 10
-72.872284
 20
759.209473
 10
-72.935173
 20
758.674866
 10
-72.996964
 20
758.140137
 10
-73.057655
 20
757.605286
 10
-73.117264
 20
757.070312
 10
-73.175766
 20
756.535217
 10
-73.233177
 20
756.0
 10
-73.28949
 20
755.464661
 10
-73.344711
 20
754.929199
 10
-73.398834
 20
754.393677
 10
-73.451859
 20
753.857971
 10
-73.503792
 20
753.322205
 10
-73.554626
 20
752.786316
 10
-73.60437
 20
752.250366
 10
-73.653015
 20
751.714233
 10
-73.700562
 20
751.178101
 10
-73.747002
 20
750.641785
 10
-73.792351
 20
750.105408
 10
-73.836594
 20
749.56897
 10
-73.87973
 20
749.03241
 10
-73.921783
 20
748.495789
 10
-73.962761
 20
747.959045
 10
-74.00267
 20
747.42218
 10
-74.041481
 20
746.885315
 10
-74.07917
 20
746.348328
 10
-74.115715
 20
745.811279
 10
-74.151093
 20
745.27417
 10
-74.18528
 20
744.737061
 10
-74.21843
 20
744.199829
 10
-74.250778
 20
743.662415
 10
-74.282417
 20
743.124878
 10
-74.31266
 20
742.587341
 10
-74.340538
 20
742.05011
 10
-74.366096
 20
741.513245
 10
-74.392403
 20
740.975708
 10
-74.423004
 20
740.436462
 10
-74.45533
 20
739.896301
 10
-74.476715
 20
739.359131
 10
-74.475159
 20
738.828674
 10
-74.470764
 20
738.298706
 10
-74.513367
 20
737.753784
 10
-74.636551
 20
737.183655
 10
-74.725365
 20
736.623779
 10
-74.585754
 20
736.127563
  0
ARC
  5
2F8
330
29D
100
AcDbEntity
  8
0
  6
Continuous
 62
     0
370
    30
100
AcDbCircle
 10
-72.246875
 20
696.217512
 30
0.0
 40
0.500089692180822
100
AcDbArc
 50
187.011132
 51
269.990913
  0
ARC
  5
2F9
330
29D
100
AcDbEntity
  8
0
  6
Continuous
 62
     0
370
    30
100
AcDbCircle
 10
-72.246875
 20
760.217333
 30
0.0
 40
0.5000896921783209
100
AcDbArc
 50
90.009087
 51
172.988868
  0
ARC
  5
2FA
330
29D
100
AcDbEntity
  8
0
  6
Continuous
 62
     0
370
    30
100
AcDbCircle
 10
-108.968849
 20
725.835845
 30
0.0
 40
1.000077725547773
100
AcDbArc
 50
180.003875
 51
262.040204
  0
ARC
  5
2FB
330
29D
100
AcDbEntity
  8
0
  6
Continuous
 62
     0
370
    30
100
AcDbCircle
 10
-84.718891
 20
733.367458
 30
0.0
 40
0.2500359660579673
100
AcDbArc
 50
180.040652
 51
269.991764
  0
ARC
  5
2FC
330
29D
100
AcDbEntity
  8
0
  6
Continuous
 62
     0
370
    30
100
AcDbCircle
 10
-84.718891
 20
723.067387
 30
0.0
 40
0.250035966054821
100
AcDbArc
 50
90.008236
 51
179.959348
  0
ARC
  5
2FD
330
29D
100
AcDbEntity
  8
0
  6
Continuous
 62
     0
370
    30
100
AcDbCircle
 10
-76.159571
 20
960.613348
 30
0.0
 40
238.0589831043499
100
AcDbArc
 50
262.044635
 51
267.87929
  0
ARC
  5
2FE
330
29D
100
AcDbEntity
  8
0
  6
Continuous
 62
     0
370
    30
100
AcDbCircle
 10
-108.968849
 20
730.599
 30
0.0
 40
1.00007732001737
100
AcDbArc
 50
97.959796
 51
179.996136
  0
ARC
  5
2FF
330
29D
100
AcDbEntity
  8
0
  6
Continuous
 62
     0
370
    30
100
AcDbCircle
 10
-76.159571
 20
495.821498
 30
0.0
 40
238.0589820409683
100
AcDbArc
 50
92.12071
 51
97.955374
  0
LINE
  5
300
330
29D
100
AcDbEntity
  8
0
  6
Continuous
 62
     0
370
    30
100
AcDbLine
 10
-79.968927
 20
723.317422
 30
0.0
 11
-84.718927
 21
723.317422
 31
0.0
  0
LINE
  5
301
330
29D
100
AcDbEntity
  8
0
  6
Continuous
 62
     0
370
    30
100
AcDbLine
 10
-79.968927
 20
733.117422
 30
0.0
 11
-84.718927
 21
733.117422
 31
0.0
  0
LINE
  5
302
330
29D
100
AcDbEntity
  8
0
  6
Continuous
 62
     0
370
     0
100
AcDbLine
 10
-79.968927
 20
828.217423
 30
0.0
 11
-84.718927
 21
828.217423
 31
0.0
  0
LINE
  5
303
330
29D
100
AcDbEntity
  8
0
  6
Continuous
 62
     0
370
     0
100
AcDbLine
 10
-84.718927
 20
828.217423
 30
0.0
 11
-84.718927
 21
833.117422
 31
0.0
  0
LINE
  5
304
330
29D
100
AcDbEntity
  8
0
  6
Continuous
 62
     0
370
     0
100
AcDbLine
 10
-84.718927
 20
823.317422
 30
0.0
 11
-84.718927
 21
828.217423
 31
0.0
  0
ARC
  5
305
330
29D
100
AcDbEntity
  8
0
  6
Continuous
 62
     0
370
     0
100
AcDbCircle
 10
-78.013566
 20
579.029621
 30
0.0
 40
254.452341579135
100
AcDbArc
 50
91.566354
 51
97.01533
  0
LINE
  5
306
330
29D
100
AcDbEntity
  8
0
  6
Continuous
 62
     0
370
    30
100
AcDbLine
 10
-84.968927
 20
833.386884
 30
0.0
 11
-84.968927
 21
833.71743
 31
0.0
  0
LINE
  5
307
330
29D
100
AcDbEntity
  8
0
  6
Continuous
 62
     0
370
     0
100
AcDbLine
 10
-109.105536
 20
831.588059
 30
0.0
 11
-109.104521
 21
831.587298
 31
0.0
  0
LINE
  5
308
330
29D
100
AcDbEntity
  8
0
  6
Continuous
 62
     0
370
     0
100
AcDbLine
 10
-109.104521
 20
831.587298
 30
0.0
 11
-109.09108
 21
831.577007
 31
0.0
  0
LWPOLYLINE
  5
309
330
29D
100
AcDbEntity
  8
0
  6
Continuous
 62
     0
370
     0
100
AcDbPolyline
 90
        3
 70
     0
 43
0.0
 10
-108.977608
 20
831.476196
 10
-100.816963
 20
831.526184
 10
-84.968925
 20
831.544495
  0
LINE
  5
30A
330
29D
100
AcDbEntity
  8
0
  6
Continuous
 62
     0
370
    30
100
AcDbLine
 10
-84.968928
 20
831.54451
 30
0.0
 11
-84.968927
 21
833.386884
 31
0.0
  0
ARC
  5
30B
330
29D
100
AcDbEntity
  8
0
  6
Continuous
 62
     0
370
     0
100
AcDbCircle
 10
-109.835828
 20
830.624409
 30
0.0
 40
1.209171186018443
100
AcDbArc
 50
44.784667
 51
51.981428
  0
LINE
  5
30C
330
29D
100
AcDbEntity
  8
0
  6
Continuous
 62
     0
370
    30
100
AcDbLine
 10
-84.968928
 20
824.890337
 30
0.0
 11
-84.968928
 21
825.883739
 31
0.0
  0
LINE
  5
30D
330
29D
100
AcDbEntity
  8
0
  6
Continuous
 62
     0
370
    30
100
AcDbLine
 10
-84.968927
 20
823.047962
 30
0.0
 11
-84.968928
 21
824.890337
 31
0.0
  0
LWPOLYLINE
  5
30E
330
29D
100
AcDbEntity
  8
0
  6
Continuous
 62
     0
370
    30
100
AcDbPolyline
 90
        4
 70
     0
 43
0.0
 10
-84.968925
 20
822.717407
 10
-84.968925
 20
822.73877
 10
-84.968925
 20
822.802856
 10
-84.968925
 20
823.047974
  0
LINE
  5
30F
330
29D
100
AcDbEntity
  8
0
  6
Continuous
 62
     0
370
    30
100
AcDbLine
 10
-84.968928
 20
830.551107
 30
0.0
 11
-84.968928
 21
831.54451
 31
0.0
  0
LINE
  5
310
330
29D
100
AcDbEntity
  8
0
  6
Continuous
 62
     0
370
    30
100
AcDbLine
 10
-84.968928
 20
825.883739
 30
0.0
 11
-84.968928
 21
830.551107
 31
0.0
  0
ARC
  5
311
330
29D
100
AcDbEntity
  8
0
  6
Continuous
 62
     0
370
     0
100
AcDbCircle
 10
-108.968882
 20
830.584457
 30
0.0
 40
1.000044577736543
100
AcDbArc
 50
97.018613
 51
179.996987
  0
LWPOLYLINE
  5
312
330
29D
100
AcDbEntity
  8
0
  6
Continuous
 62
     0
370
     0
100
AcDbPolyline
 90
        5
 70
     0
 43
0.0
 10
-108.977654
 20
830.476257
 10
-108.980255
 20
830.85376
 10
-108.981186
 20
831.175354
 10
-108.980301
 20
831.393555
 10
-108.977608
 20
831.476196
  0
LWPOLYLINE
  5
313
330
29D
100
AcDbEntity
  8
0
  6
Continuous
 62
     0
370
     0
100
AcDbPolyline
 90
        8
 70
     0
 43
0.0
 10
-84.968925
 20
830.551086
 10
-88.364113
 20
830.553101
 10
-91.774803
 20
830.551819
 10
-95.103935
 20
830.546875
 10
-98.420197
 20
830.537903
 10
-101.736351
 20
830.524353
 10
-105.052368
 20
830.505737
 10
-108.977654
 20
830.476257
  0
LINE
  5
314
330
29D
100
AcDbEntity
  8
0
  6
Continuous
 62
     0
370
    30
100
AcDbLine
 10
-109.968928
 20
830.476279
 30
0.0
 11
-109.968927
 21
830.584509
 31
0.0
  0
ARC
  5
315
330
29D
100
AcDbEntity
  8
0
  6
Continuous
 62
     0
370
     0
100
AcDbCircle
 10
-108.968879
 20
830.476192
 30
0.0
 40
1.000048611277215
100
AcDbArc
 50
90.500116
 51
179.995
  0
LINE
  5
316
330
29D
100
AcDbEntity
  8
0
  6
Continuous
 62
     0
370
     0
100
AcDbLine
 10
-108.977654
 20
825.958565
 30
0.0
 11
-108.977654
 21
830.476282
 31
0.0
  0
LWPOLYLINE
  5
317
330
29D
100
AcDbEntity
  8
0
  6
Continuous
 62
     0
370
     0
100
AcDbPolyline
 90
        8
 70
     0
 43
0.0
 10
-84.968925
 20
825.883728
 10
-88.371567
 20
825.881714
 10
-91.789375
 20
825.883057
 10
-95.125481
 20
825.888
 10
-98.448959
 20
825.897034
 10
-101.772331
 20
825.910645
 10
-105.095558
 20
825.929382
 10
-108.977654
 20
825.958557
  0
LINE
  5
318
330
29D
100
AcDbEntity
  8
0
  6
Continuous
 62
     0
370
     0
100
AcDbLine
 10
-109.105525
 20
824.846785
 30
0.0
 11
-109.104514
 21
824.847546
 31
0.0
  0
LINE
  5
319
330
29D
100
AcDbEntity
  8
0
  6
Continuous
 62
     0
370
     0
100
AcDbLine
 10
-109.104514
 20
824.847546
 30
0.0
 11
-109.09108
 21
824.857838
 31
0.0
  0
ARC
  5
31A
330
29D
100
AcDbEntity
  8
0
  6
Continuous
 62
     0
370
     0
100
AcDbCircle
 10
-78.013566
 20
1077.405225
 30
0.0
 40
254.4523419088434
100
AcDbArc
 50
262.98467
 51
268.433646
  0
ARC
  5
31B
330
29D
100
AcDbEntity
  8
0
  6
Continuous
 62
     0
370
     0
100
AcDbCircle
 10
-109.839296
 20
825.81433
 30
0.0
 40
1.214373405252711
100
AcDbArc
 50
308.03431
 51
315.200249
  0
LWPOLYLINE
  5
31C
330
29D
100
AcDbEntity
  8
0
  6
Continuous
 62
     0
370
     0
100
AcDbPolyline
 90
        3
 70
     0
 43
0.0
 10
-108.977608
 20
824.958618
 10
-100.816963
 20
824.90863
 10
-84.968925
 20
824.89032
  0
LWPOLYLINE
  5
31D
330
29D
100
AcDbEntity
  8
0
  6
Continuous
 62
     0
370
     0
100
AcDbPolyline
 90
        5
 70
     0
 43
0.0
 10
-108.977654
 20
825.958557
 10
-108.980255
 20
825.581055
 10
-108.981186
 20
825.25946
 10
-108.980301
 20
825.04126
 10
-108.977608
 20
824.958618
  0
LINE
  5
31E
330
29D
100
AcDbEntity
  8
0
  6
Continuous
 62
     0
370
     0
100
AcDbLine
 10
-84.718927
 20
828.217423
 30
0.0
 11
-84.968927
 21
828.217423
 31
0.0
  0
LINE
  5
31F
330
29D
100
AcDbEntity
  8
0
  6
Continuous
 62
     0
370
    30
100
AcDbLine
 10
-109.968928
 20
825.958568
 30
0.0
 11
-109.968927
 21
825.850334
 31
0.0
  0
LINE
  5
320
330
29D
100
AcDbEntity
  8
0
  6
Continuous
 62
     0
370
    30
100
AcDbLine
 10
-109.968928
 20
830.476279
 30
0.0
 11
-109.968928
 21
825.958568
 31
0.0
  0
LINE
  5
321
330
29D
100
AcDbEntity
  8
0
  6
Continuous
 62
     0
370
     0
100
AcDbLine
 10
-108.977654
 20
825.958565
 30
0.0
 11
-109.968928
 21
825.958565
 31
0.0
  0
LINE
  5
322
330
29D
100
AcDbEntity
  8
0
  6
Continuous
 62
     0
370
     0
100
AcDbLine
 10
-109.968928
 20
830.476282
 30
0.0
 11
-108.977654
 21
830.476282
 31
0.0
  0
ARC
  5
323
330
29D
100
AcDbEntity
  8
0
  6
Continuous
 62
     0
370
     0
100
AcDbCircle
 10
-108.968882
 20
825.850389
 30
0.0
 40
1.00004458148951
100
AcDbArc
 50
180.003147
 51
262.981389
  0
ARC
  5
324
330
29D
100
AcDbEntity
  8
0
  6
Continuous
 62
     0
370
     0
100
AcDbCircle
 10
-108.968879
 20
825.958655
 30
0.0
 40
1.00004861098403
100
AcDbArc
 50
180.005
 51
269.499793
  0
LINE
  5
325
330
29D
100
AcDbEntity
  8
0
  6
Continuous
 62
     0
370
     0
100
AcDbLine
 10
-72.743227
 20
828.217422
 30
0.0
 11
-72.743226
 21
796.15647
 31
0.0
  0
LINE
  5
326
330
29D
100
AcDbEntity
  8
0
  6
Continuous
 62
     0
370
     0
100
AcDbLine
 10
-72.743226
 20
860.278375
 30
0.0
 11
-72.743227
 21
828.217422
 31
0.0
  0
LINE
  5
327
330
29D
100
AcDbEntity
  8
0
  6
Continuous
 62
     0
370
     0
100
AcDbLine
 10
-72.246956
 20
828.217422
 30
0.0
 11
-72.246955
 21
860.717422
 31
0.0
  0
LINE
  5
328
330
29D
100
AcDbEntity
  8
0
  6
Continuous
 62
     0
370
     0
100
AcDbLine
 10
-72.246955
 20
795.717422
 30
0.0
 11
-72.246956
 21
828.217422
 31
0.0
  0
LINE
  5
329
330
29D
100
AcDbEntity
  8
0
  6
Continuous
 62
     0
370
     0
100
AcDbLine
 10
-74.585761
 20
828.217422
 30
0.0
 11
-74.585748
 21
820.307233
 31
0.0
  0
LINE
  5
32A
330
29D
100
AcDbEntity
  8
0
  6
Continuous
 62
     0
370
     0
100
AcDbLine
 10
-74.585748
 20
836.127612
 30
0.0
 11
-74.585761
 21
828.217422
 31
0.0
  0
LINE
  5
32B
330
29D
100
AcDbEntity
  8
0
  6
Continuous
 62
     0
370
    30
100
AcDbLine
 10
-64.688927
 20
828.217422
 30
0.0
 11
-64.688927
 21
860.717422
 31
0.0
  0
LINE
  5
32C
330
29D
100
AcDbEntity
  8
0
  6
Continuous
 62
     0
370
    30
100
AcDbLine
 10
-64.688927
 20
795.717422
 30
0.0
 11
-64.688927
 21
828.217422
 31
0.0
  0
LWPOLYLINE
  5
32D
330
29D
100
AcDbEntity
  8
0
  6
Continuous
 62
     0
370
     0
100
AcDbPolyline
 90
       12
 70
     0
 43
0.0
 10
-69.809929
 20
795.717407
 10
-69.744659
 20
795.720642
 10
-69.552773
 20
795.729248
 10
-69.251465
 20
795.740479
 10
-68.863319
 20
795.750854
 10
-68.42131
 20
795.757019
 10
-67.960526
 20
795.75708
 10
-67.518303
 20
795.750916
 10
-67.129204
 20
795.740601
 10
-66.827271
 20
795.729309
 10
-66.635696
 20
795.720703
 10
-66.567924
 20
795.717407
  0
LINE
  5
32E
330
29D
100
AcDbEntity
  8
0
  6
Continuous
 62
     0
370
     0
100
AcDbLine
 10
-77.584404
 20
828.217422
 30
0.0
 11
-77.584404
 21
833.217422
 31
0.0
  0
LINE
  5
32F
330
29D
100
AcDbEntity
  8
0
  6
Continuous
 62
     0
370
     0
100
AcDbLine
 10
-77.584404
 20
823.217422
 30
0.0
 11
-77.584404
 21
828.217422
 31
0.0
  0
LINE
  5
330
330
29D
100
AcDbEntity
  8
0
  6
Continuous
 62
     0
370
    30
100
AcDbLine
 10
-79.968927
 20
828.217422
 30
0.0
 11
-79.968927
 21
823.217422
 31
0.0
  0
LINE
  5
331
330
29D
100
AcDbEntity
  8
0
  6
Continuous
 62
     0
370
    30
100
AcDbLine
 10
-79.968927
 20
833.217422
 30
0.0
 11
-79.968927
 21
828.217422
 31
0.0
  0
LINE
  5
332
330
29D
100
AcDbEntity
  8
0
  6
Continuous
 62
     0
370
    30
100
AcDbLine
 10
-66.567927
 20
795.717422
 30
0.0
 11
-69.809927
 21
795.717422
 31
0.0
  0
ARC
  5
333
330
29D
100
AcDbEntity
  8
0
  6
Continuous
 62
     0
370
    30
100
AcDbCircle
 10
-77.584404
 20
820.217422
 30
0.0
 40
3.000000042507347
100
AcDbArc
 50
1.736703
 51
90.0
  0
ARC
  5
334
330
29D
100
AcDbEntity
  8
0
  6
Continuous
 62
     0
370
    30
100
AcDbCircle
 10
-77.584404
 20
836.217423
 30
0.0
 40
3.000000042538124
100
AcDbArc
 50
270.0
 51
358.263296
  0
LINE
  5
335
330
29D
100
AcDbEntity
  8
0
  6
Continuous
 62
     0
370
    30
100
AcDbLine
 10
-79.968927
 20
823.217422
 30
0.0
 11
-77.584404
 21
823.217422
 31
0.0
  0
LINE
  5
336
330
29D
100
AcDbEntity
  8
0
  6
Continuous
 62
     0
370
    30
100
AcDbLine
 10
-79.968927
 20
833.217422
 30
0.0
 11
-77.584404
 21
833.217422
 31
0.0
  0
LINE
  5
337
330
29D
100
AcDbEntity
  8
0
  6
Continuous
 62
     0
370
    30
100
AcDbLine
 10
-72.246955
 20
795.717422
 30
0.0
 11
-69.809927
 21
795.717422
 31
0.0
  0
LINE
  5
338
330
29D
100
AcDbEntity
  8
0
  6
Continuous
 62
     0
370
    30
100
AcDbLine
 10
-66.567927
 20
795.717422
 30
0.0
 11
-64.688927
 21
795.717422
 31
0.0
  0
LINE
  5
339
330
29D
100
AcDbEntity
  8
0
  6
Continuous
 62
     0
370
    30
100
AcDbLine
 10
-72.246955
 20
860.717422
 30
0.0
 11
-64.688927
 21
860.717422
 31
0.0
  0
LWPOLYLINE
  5
33A
330
29D
100
AcDbEntity
  8
0
  6
Continuous
 62
     0
370
    30
100
AcDbPolyline
 90
       46
 70
     0
 43
0.0
 10
-72.743233
 20
860.27832
 10
-72.808304
 20
859.743958
 10
-72.872284
 20
859.209473
 10
-72.935173
 20
858.674866
 10
-72.996964
 20
858.140137
 10
-73.057655
 20
857.605286
 10
-73.117264
 20
857.070312
 10
-73.175766
 20
856.535217
 10
-73.233177
 20
856.0
 10
-73.28949
 20
855.464661
 10
-73.344711
 20
854.929199
 10
-73.398834
 20
854.393677
 10
-73.451859
 20
853.857971
 10
-73.503792
 20
853.322205
 10
-73.554626
 20
852.786316
 10
-73.60437
 20
852.250366
 10
-73.653015
 20
851.714233
 10
-73.700562
 20
851.178101
 10
-73.747002
 20
850.641785
 10
-73.792351
 20
850.105408
 10
-73.836594
 20
849.56897
 10
-73.87973
 20
849.03241
 10
-73.921783
 20
848.495789
 10
-73.962761
 20
847.959045
 10
-74.00267
 20
847.42218
 10
-74.041481
 20
846.885315
 10
-74.07917
 20
846.348328
 10
-74.115715
 20
845.811279
 10
-74.151093
 20
845.27417
 10
-74.18528
 20
844.737061
 10
-74.21843
 20
844.199829
 10
-74.250778
 20
843.662415
 10
-74.282417
 20
843.124878
 10
-74.31266
 20
842.587341
 10
-74.340538
 20
842.05011
 10
-74.366096
 20
841.513245
 10
-74.392403
 20
840.975708
 10
-74.423004
 20
840.436462
 10
-74.45533
 20
839.896301
 10
-74.476715
 20
839.359131
 10
-74.475159
 20
838.828674
 10
-74.470764
 20
838.298706
 10
-74.513367
 20
837.753784
 10
-74.636551
 20
837.183655
 10
-74.725365
 20
836.623779
 10
-74.585754
 20
836.127563
  0
ARC
  5
33B
330
29D
100
AcDbEntity
  8
0
  6
Continuous
 62
     0
370
    30
100
AcDbCircle
 10
-72.246875
 20
796.217512
 30
0.0
 40
0.5000896921708122
100
AcDbArc
 50
187.011132
 51
269.990913
  0
ARC
  5
33C
330
29D
100
AcDbEntity
  8
0
  6
Continuous
 62
     0
370
    30
100
AcDbCircle
 10
-72.246875
 20
860.217333
 30
0.0
 40
0.500089692166392
100
AcDbArc
 50
90.009087
 51
172.988868
  0
ARC
  5
33D
330
29D
100
AcDbEntity
  8
0
  6
Continuous
 62
     0
370
    30
100
AcDbCircle
 10
-108.968849
 20
825.835845
 30
0.0
 40
1.000077725541394
100
AcDbArc
 50
180.003875
 51
262.040204
  0
ARC
  5
33E
330
29D
100
AcDbEntity
  8
0
  6
Continuous
 62
     0
370
    30
100
AcDbCircle
 10
-84.718891
 20
833.367458
 30
0.0
 40
0.2500359660518925
100
AcDbArc
 50
180.040652
 51
269.991764
  0
ARC
  5
33F
330
29D
100
AcDbEntity
  8
0
  6
Continuous
 62
     0
370
    30
100
AcDbCircle
 10
-84.718891
 20
823.067387
 30
0.0
 40
0.2500359660715207
100
AcDbArc
 50
90.008236
 51
179.959348
  0
ARC
  5
340
330
29D
100
AcDbEntity
  8
0
  6
Continuous
 62
     0
370
    30
100
AcDbCircle
 10
-76.159571
 20
1060.613348
 30
0.0
 40
238.0589831043772
100
AcDbArc
 50
262.044635
 51
267.87929
  0
ARC
  5
341
330
29D
100
AcDbEntity
  8
0
  6
Continuous
 62
     0
370
    30
100
AcDbCircle
 10
-108.968849
 20
830.599
 30
0.0
 40
1.000077320017968
100
AcDbArc
 50
97.959796
 51
179.996136
  0
ARC
  5
342
330
29D
100
AcDbEntity
  8
0
  6
Continuous
 62
     0
370
    30
100
AcDbCircle
 10
-76.159571
 20
595.821498
 30
0.0
 40
238.0589820409213
100
AcDbArc
 50
92.12071
 51
97.955374
  0
LINE
  5
343
330
29D
100
AcDbEntity
  8
0
  6
Continuous
 62
     0
370
    30
100
AcDbLine
 10
-79.968927
 20
823.317422
 30
0.0
 11
-84.718927
 21
823.317422
 31
0.0
  0
LINE
  5
344
330
29D
100
AcDbEntity
  8
0
  6
Continuous
 62
     0
370
    30
100
AcDbLine
 10
-79.968927
 20
833.117422
 30
0.0
 11
-84.718927
 21
833.117422
 31
0.0
  0
ENDBLK
  5
346
330
29D
100
AcDbEntity
  8
0
100
AcDbBlockEnd
  0
ENDSEC
  0
SECTION
  2
ENTITIES
  0
INSERT
  5
EB
330
1F
100
AcDbEntity
  8
0
  6
Continuous
 62
   250
370
     0
100
AcDbBlockReference
  2
a
 10
10.760319
 20
87.502983
 30
0.0
  0
INSERT
  5
135
330
1F
100
AcDbEntity
  8
0
  6
Continuous
 62
   250
370
     0
100
AcDbBlockReference
  2
b
 10
48.034054
 20
243.883812
 30
0.0
  0
INSERT
  5
1E4
330
1F
100
AcDbEntity
  8
0
  6
Continuous
 62
   250
370
     0
100
AcDbBlockReference
  2
c
 10
39.043369
 20
91.952385
 30
0.0
  0
INSERT
  5
29C
330
1F
100
AcDbEntity
  8
0
  6
Continuous
 62
   250
370
     0
100
AcDbBlockReference
  2
d
 10
67.213291
 20
118.797237
 30
0.0
  0
INSERT
  5
347
330
1F
100
AcDbEntity
  8
0
  6
Continuous
 62
   250
370
     0
100
AcDbBlockReference
  2
e
 10
-35.092728
 20
0.0
 30
0.0
  0
ENDSEC
  0
SECTION
  2
OBJECTS
  0
DICTIONARY
  5
C
330
0
100
AcDbDictionary
281
     1
  3
ACAD_GROUP
350
D
  3
ACAD_LAYOUT
350
1A
  3
ACAD_MLEADERSTYLE
350
34A
  3
ACAD_MLINESTYLE
350
17
  3
ACAD_PLOTSETTINGS
350
19
  3
ACAD_PLOTSTYLENAME
350
E
  3
ACAD_VISUALSTYLE
350
2A
  3
AcDbVariableDictionary
350
348
  0
DICTIONARY
  5
D
102
{ACAD_REACTORS
330
C
102
}
330
C
100
AcDbDictionary
281
     1
  0
DICTIONARY
  5
1A
102
{ACAD_REACTORS
330
C
102
}
330
C
100
AcDbDictionary
281
     1
  3
Layout1
350
1E
  3
Layout2
350
26
  3
Model
350
22
  0
DICTIONARY
  5
34A
102
{ACAD_REACTORS
330
C
102
}
330
C
100
AcDbDictionary
281
     1
  0
DICTIONARY
  5
17
102
{ACAD_REACTORS
330
C
102
}
330
C
100
AcDbDictionary
281
     1
  3
Standard
350
18
  0
DICTIONARY
  5
19
102
{ACAD_REACTORS
330
C
102
}
330
C
100
AcDbDictionary
281
     1
  0
ACDBDICTIONARYWDFLT
  5
E
102
{ACAD_REACTORS
330
C
102
}
330
C
100
AcDbDictionary
281
     1
  3
Normal
350
F
100
AcDbDictionaryWithDefault
340
F
  0
DICTIONARY
  5
2A
102
{ACAD_REACTORS
330
C
102
}
330
C
100
AcDbDictionary
281
     1
  3
2dWireframe
350
2F
  3
3D Hidden
350
31
  3
3dWireframe
350
30
  3
Basic
350
32
  3
Brighten
350
36
  3
ColorChange
350
3A
  3
Conceptual
350
34
  3
Dim
350
35
  3
Facepattern
350
39
  3
Flat
350
2B
  3
FlatWithEdges
350
2C
  3
Gouraud
350
2D
  3
GouraudWithEdges
350
2E
  3
Linepattern
350
38
  3
Realistic
350
33
  3
Thicken
350
37
  0
DICTIONARY
  5
348
102
{ACAD_REACTORS
330
C
102
}
330
C
100
AcDbDictionary
281
     1
  3
PSOLHEIGHT
350
34C
  3
PSOLWIDTH
350
34B
  0
LAYOUT
  5
1E
102
{ACAD_REACTORS
330
1A
102
}
330
1A
100
AcDbPlotSettings
  1

  2
none_device
  4

  6

 40
0.0
 41
0.0
 42
0.0
 43
0.0
 44
0.0
 45
0.0
 46
0.0
 47
0.0
 48
0.0
 49
0.0
140
0.0
141
0.0
142
1.0
143
1.0
 70
   688
 72
     0
 73
     0
 74
     5
  7

 75
    16
147
1.0
148
0.0
149
0.0
100
AcDbLayout
  1
Layout1
 70
     1
 71
     1
 10
0.0
 20
0.0
 11
420.0
 21
297.0
 12
0.0
 22
0.0
 32
0.0
 14
1.000000E+20
 24
1.000000E+20
 34
1.000000E+20
 15
-1.000000E+20
 25
-1.000000E+20
 35
-1.000000E+20
146
0.0
 13
0.0
 23
0.0
 33
0.0
 16
1.0
 26
0.0
 36
0.0
 17
0.0
 27
1.0
 37
0.0
 76
     0
330
1B
  0
LAYOUT
  5
26
102
{ACAD_REACTORS
330
1A
102
}
330
1A
100
AcDbPlotSettings
  1

  2
none_device
  4

  6

 40
0.0
 41
0.0
 42
0.0
 43
0.0
 44
0.0
 45
0.0
 46
0.0
 47
0.0
 48
0.0
 49
0.0
140
0.0
141
0.0
142
1.0
143
1.0
 70
   688
 72
     0
 73
     0
 74
     5
  7

 75
    16
147
1.0
148
0.0
149
0.0
100
AcDbLayout
  1
Layout2
 70
     1
 71
     2
 10
0.0
 20
0.0
 11
0.0
 21
0.0
 12
0.0
 22
0.0
 32
0.0
 14
0.0
 24
0.0
 34
0.0
 15
0.0
 25
0.0
 35
0.0
146
0.0
 13
0.0
 23
0.0
 33
0.0
 16
1.0
 26
0.0
 36
0.0
 17
0.0
 27
1.0
 37
0.0
 76
     0
330
23
  0
LAYOUT
  5
22
102
{ACAD_REACTORS
330
1A
102
}
330
1A
100
AcDbPlotSettings
  1

  2
none_device
  4

  6

 40
0.0
 41
0.0
 42
0.0
 43
0.0
 44
0.0
 45
0.0
 46
0.0
 47
0.0
 48
0.0
 49
0.0
140
0.0
141
0.0
142
1.0
143
1.0
 70
  1712
 72
     0
 73
     0
 74
     0
  7

 75
     0
147
1.0
148
0.0
149
0.0
100
AcDbLayout
  1
Model
 70
     1
 71
     0
 10
-112.741638
 20
119.020683
 11
348.172882
 21
860.717407
 12
0.0
 22
0.0
 32
0.0
 14
-112.741638
 24
119.020683
 34
0.0
 15
348.172882
 25
860.717407
 35
0.0
146
0.0
 13
0.0
 23
0.0
 33
0.0
 16
1.0
 26
0.0
 36
0.0
 17
0.0
 27
1.0
 37
0.0
 76
     0
330
1F
331
29
  0
MLINESTYLE
  5
18
102
{ACAD_REACTORS
330
17
102
}
330
17
100
AcDbMlineStyle
  2
Standard
 70
     0
  3

 62
   256
 51
90.0
 52
90.0
 71
     2
 49
0.5
 62
   256
  6
BYLAYER
 49
-0.5
 62
   256
  6
BYLAYER
  0
ACDBPLACEHOLDER
  5
F
102
{ACAD_REACTORS
330
E
102
}
330
E
  0
VISUALSTYLE
  5
2F
102
{ACAD_REACTORS
330
2A
102
}
330
2A
100
AcDbVisualStyle
  2
2dWireframe
 70
     4
 71
     0
 72
     2
 73
     0
 90
        0
 40
-0.6
 41
-30.0
 62
     5
 63
     7
 74
     1
 91
        4
 64
     7
 65
   257
 75
     1
175
     1
 42
1.0
 92
        0
 66
   257
 43
1.0
 76
     1
 77
     6
 78
     2
 67
     7
 79
     5
170
     0
171
     0
290
     0
174
     0
 93
        1
 44
0.0
173
     0
291
     0
 45
0.0
1001
ACAD
1000
AcDbSavedByObjectVersion
1070
     0
  0
VISUALSTYLE
  5
31
102
{ACAD_REACTORS
330
2A
102
}
330
2A
100
AcDbVisualStyle
  2
3D Hidden
 70
     6
 71
     1
 72
     2
 73
     2
 90
        0
 40
-0.6
 41
-30.0
 62
     5
 63
     7
 74
     2
 91
        2
 64
     7
 65
   257
 75
     2
175
     1
 42
40.0
 92
        0
 66
   257
 43
1.0
 76
     1
 77
     6
 78
     2
 67
     7
 79
     3
170
     0
171
     0
290
     0
174
     0
 93
        1
 44
0.0
173
     0
291
     0
 45
0.0
1001
ACAD
1000
AcDbSavedByObjectVersion
1070
     0
  0
VISUALSTYLE
  5
30
102
{ACAD_REACTORS
330
2A
102
}
330
2A
100
AcDbVisualStyle
  2
3dWireframe
 70
     5
 71
     0
 72
     2
 73
     0
 90
        0
 40
-0.6
 41
-30.0
 62
     5
 63
     7
 74
     1
 91
        4
 64
     7
 65
   257
 75
     1
175
     1
 42
1.0
 92
        0
 66
   257
 43
1.0
 76
     1
 77
     6
 78
     2
 67
     7
 79
     5
170
     0
171
     0
290
     0
174
     0
 93
        1
 44
0.0
173
     0
291
     0
 45
0.0
1001
ACAD
1000
AcDbSavedByObjectVersion
1070
     0
  0
VISUALSTYLE
  5
32
102
{ACAD_REACTORS
330
2A
102
}
330
2A
100
AcDbVisualStyle
  2
Basic
 70
     7
 71
     1
 72
     0
 73
     1
 90
        0
 40
-0.6
 41
-30.0
 62
     5
 63
     7
 74
     0
 91
        4
 64
     7
 65
   257
 75
     1
175
     1
 42
1.0
 92
        8
 66
     7
 43
1.0
 76
     1
 77
     6
 78
     2
 67
     7
 79
     5
170
     0
171
     0
290
     0
174
     0
 93
        1
 44
0.0
173
     0
291
     1
 45
0.0
1001
ACAD
1000
AcDbSavedByObjectVersion
1070
     0
  0
VISUALSTYLE
  5
36
102
{ACAD_REACTORS
330
2A
102
}
330
2A
100
AcDbVisualStyle
  2
Brighten
 70
    12
 71
     2
 72
     2
 73
     0
 90
        0
 40
-0.6
 41
-30.0
 62
     5
 63
     7
 74
     1
 91
        4
 64
     7
 65
   257
 75
     1
175
     1
 42
1.0
 92
        8
 66
     7
 43
1.0
 76
     1
 77
     6
 78
     2
 67
     7
 79
     5
170
     0
171
     0
290
     0
174
     0
 93
        1
 44
50.0
173
     0
291
     1
 45
0.0
1001
ACAD
1000
AcDbSavedByObjectVersion
1070
     0
  0
VISUALSTYLE
  5
3A
102
{ACAD_REACTORS
330
2A
102
}
330
2A
100
AcDbVisualStyle
  2
ColorChange
 70
    16
 71
     2
 72
     2
 73
     3
 90
        0
 40
-0.6
 41
-30.0
 62
     5
 63
     8
 74
     1
 91
        4
 64
     7
 65
   257
 75
     1
175
     1
 42
1.0
 92
        8
 66
     8
 43
1.0
 76
     1
 77
     6
 78
     2
 67
     7
 79
     5
170
     0
171
     0
290
     0
174
     0
 93
        1
 44
0.0
173
     0
291
     1
 45
0.0
1001
ACAD
1000
AcDbSavedByObjectVersion
1070
     0
  0
VISUALSTYLE
  5
34
102
{ACAD_REACTORS
330
2A
102
}
330
2A
100
AcDbVisualStyle
  2
Conceptual
 70
     9
 71
     3
 72
     2
 73
     0
 90
        0
 40
-0.6
 41
-30.0
 62
     5
 63
     7
 74
     2
 91
        2
 64
     7
 65
   257
 75
     1
175
     1
 42
40.0
 92
        8
 66
     7
 43
1.0
 76
     1
 77
     6
 78
     2
 67
     7
 79
     3
170
     0
171
     0
290
     0
174
     0
 93
        1
 44
0.0
173
     0
291
     0
 45
0.0
1001
ACAD
1000
AcDbSavedByObjectVersion
1070
     0
  0
VISUALSTYLE
  5
35
102
{ACAD_REACTORS
330
2A
102
}
330
2A
100
AcDbVisualStyle
  2
Dim
 70
    11
 71
     2
 72
     2
 73
     0
 90
        0
 40
-0.6
 41
-30.0
 62
     5
 63
     7
 74
     1
 91
        4
 64
     7
 65
   257
 75
     1
175
     1
 42
1.0
 92
        8
 66
     7
 43
1.0
 76
     1
 77
     6
 78
     2
 67
     7
 79
     5
170
     0
171
     0
290
     0
174
     0
 93
        1
 44
-50.0
173
     0
291
     1
 45
0.0
1001
ACAD
1000
AcDbSavedByObjectVersion
1070
     0
  0
VISUALSTYLE
  5
39
102
{ACAD_REACTORS
330
2A
102
}
330
2A
100
AcDbVisualStyle
  2
Facepattern
 70
    15
 71
     2
 72
     2
 73
     0
 90
        0
 40
-0.6
 41
-30.0
 62
     5
 63
     7
 74
     1
 91
        4
 64
     7
 65
   257
 75
     1
175
     1
 42
1.0
 92
        8
 66
     7
 43
1.0
 76
     1
 77
     6
 78
     2
 67
     7
 79
     5
170
     0
171
     0
290
     0
174
     0
 93
        1
 44
0.0
173
     0
291
     1
 45
0.0
1001
ACAD
1000
AcDbSavedByObjectVersion
1070
     0
  0
VISUALSTYLE
  5
2B
102
{ACAD_REACTORS
330
2A
102
}
330
2A
100
AcDbVisualStyle
  2
Flat
 70
     0
 71
     2
 72
     1
 73
     1
 90
        2
 40
-0.6
 41
30.0
 62
     5
 63
     7
 74
     0
 91
        4
 64
     7
 65
   257
 75
     1
175
     1
 42
1.0
 92
        8
 66
     7
 43
1.0
 76
     1
 77
     6
 78
     2
 67
     7
 79
     5
170
     0
171
     0
290
     0
174
     0
 93
       13
 44
0.0
173
     0
291
     1
 45
0.0
1001
ACAD
1000
AcDbSavedByObjectVersion
1070
     0
  0
VISUALSTYLE
  5
2C
102
{ACAD_REACTORS
330
2A
102
}
330
2A
100
AcDbVisualStyle
  2
FlatWithEdges
 70
     1
 71
     2
 72
     1
 73
     1
 90
        2
 40
-0.6
 41
30.0
 62
     5
 63
     7
 74
     1
 91
        4
 64
     7
 65
   257
 75
     1
175
     1
 42
1.0
 92
        0
 66
   257
 43
1.0
 76
     1
 77
     6
 78
     2
 67
     7
 79
     5
170
     0
171
     0
290
     0
174
     0
 93
       13
 44
0.0
173
     0
291
     1
 45
0.0
1001
ACAD
1000
AcDbSavedByObjectVersion
1070
     0
  0
VISUALSTYLE
  5
2D
102
{ACAD_REACTORS
330
2A
102
}
330
2A
100
AcDbVisualStyle
  2
Gouraud
 70
     2
 71
     2
 72
     2
 73
     1
 90
        2
 40
-0.6
 41
30.0
 62
     5
 63
     7
 74
     0
 91
        4
 64
     7
 65
   257
 75
     1
175
     1
 42
1.0
 92
        0
 66
     7
 43
1.0
 76
     1
 77
     6
 78
     2
 67
     7
 79
     5
170
     0
171
     0
290
     0
174
     0
 93
       13
 44
0.0
173
     0
291
     1
 45
0.0
1001
ACAD
1000
AcDbSavedByObjectVersion
1070
     0
  0
VISUALSTYLE
  5
2E
102
{ACAD_REACTORS
330
2A
102
}
330
2A
100
AcDbVisualStyle
  2
GouraudWithEdges
 70
     3
 71
     2
 72
     2
 73
     1
 90
        2
 40
-0.6
 41
30.0
 62
     5
 63
     7
 74
     1
 91
        4
 64
     7
 65
   257
 75
     1
175
     1
 42
1.0
 92
        0
 66
   257
 43
1.0
 76
     1
 77
     6
 78
     2
 67
     7
 79
     5
170
     0
171
     0
290
     0
174
     0
 93
       13
 44
0.0
173
     0
291
     1
 45
0.0
1001
ACAD
1000
AcDbSavedByObjectVersion
1070
     0
  0
VISUALSTYLE
  5
38
102
{ACAD_REACTORS
330
2A
102
}
330
2A
100
AcDbVisualStyle
  2
Linepattern
 70
    14
 71
     2
 72
     2
 73
     0
 90
        0
 40
-0.6
 41
-30.0
 62
     5
 63
     7
 74
     1
 91
        4
 64
     7
 65
   257
 75
     7
175
     7
 42
1.0
 92
        8
 66
     7
 43
1.0
 76
     1
 77
     6
 78
     2
 67
     7
 79
     5
170
     0
171
     0
290
     0
174
     0
 93
        1
 44
0.0
173
     0
291
     1
 45
0.0
1001
ACAD
1000
AcDbSavedByObjectVersion
1070
     0
  0
VISUALSTYLE
  5
33
102
{ACAD_REACTORS
330
2A
102
}
330
2A
100
AcDbVisualStyle
  2
Realistic
 70
     8
 71
     2
 72
     2
 73
     0
 90
        0
 40
-0.6
 41
-30.0
 62
     5
 63
     7
 74
     1
 91
        0
 64
     7
 65
   257
 75
     1
175
     1
 42
1.0
 92
        8
 66
     8
 43
1.0
 76
     1
 77
     6
 78
     2
 67
     7
 79
     5
170
     0
171
     0
290
     0
174
     0
 93
       13
 44
0.0
173
     0
291
     0
 45
0.0
1001
ACAD
1000
AcDbSavedByObjectVersion
1070
     0
  0
VISUALSTYLE
  5
37
102
{ACAD_REACTORS
330
2A
102
}
330
2A
100
AcDbVisualStyle
  2
Thicken
 70
    13
 71
     2
 72
     2
 73
     0
 90
        0
 40
-0.6
 41
-30.0
 62
     5
 63
     7
 74
     1
 91
        4
 64
     7
 65
   257
 75
     1
175
     1
 42
1.0
 92
       12
 66
     7
 43
1.0
 76
     1
 77
     6
 78
     2
 67
     7
 79
     5
170
     0
171
     0
290
     0
174
     0
 93
        1
 44
0.0
173
     0
291
     1
 45
0.0
1001
ACAD
1000
AcDbSavedByObjectVersion
1070
     0
  0
DICTIONARYVAR
  5
34C
102
{ACAD_REACTORS
330
348
102
}
330
348
100
DictionaryVariables
280
     0
  1
80.000000
  0
DICTIONARYVAR
  5
34B
102
{ACAD_REACTORS
330
348
102
}
330
348
100
DictionaryVariables
280
     0
  1
5.000000
  0
ENDSEC
  0
EOF
