  0
SECTION
  2
HEADER
  9
$ACADVER
  1
AC1015
  9
$ACADMAINTVER
 70
     6
  9
$DWGCODEPAGE
  3
ANSI_1252
  9
$INSBASE
 10
0.0
 20
0.0
 30
0.0
  9
$EXTMIN
 10
-129.813354
 20
153.791153
 30
0.0
  9
$EXTMAX
 10
344.808685
 20
1100.619751
 30
0.0
  9
$LIMMIN
 10
-129.813354
 20
153.791153
  9
$LIMMAX
 10
344.808685
 20
1100.619751
  9
$ORTHOMODE
 70
     0
  9
$REGENMODE
 70
     1
  9
$FILLMODE
 70
     1
  9
$QTEXTMODE
 70
     0
  9
$MIRRTEXT
 70
     1
  9
$LTSCALE
 40
1.0
  9
$ATTMODE
 70
     1
  9
$TEXTSIZE
 40
2.5
  9
$TRACEWID
 40
1.0
  9
$TEXTSTYLE
  7
Standard
  9
$CLAYER
  8
0
  9
$CELTYPE
  6
ByLayer
  9
$CECOLOR
 62
   256
  9
$CELTSCALE
 40
1.0
  9
$DISPSILH
 70
     0
  9
$DIMSCALE
 40
1.0
  9
$DIMASZ
 40
2.5
  9
$DIMEXO
 40
0.625
  9
$DIMDLI
 40
3.75
  9
$DIMRND
 40
0.0
  9
$DIMDLE
 40
0.0
  9
$DIMEXE
 40
1.25
  9
$DIMTP
 40
0.0
  9
$DIMTM
 40
0.0
  9
$DIMTXT
 40
2.5
  9
$DIMCEN
 40
2.5
  9
$DIMTSZ
 40
0.0
  9
$DIMTOL
 70
     0
  9
$DIMLIM
 70
     0
  9
$DIMTIH
 70
     0
  9
$DIMTOH
 70
     0
  9
$DIMSE1
 70
     0
  9
$DIMSE2
 70
     0
  9
$DIMTAD
 70
     1
  9
$DIMZIN
 70
     8
  9
$DIMBLK
  1

  9
$DIMASO
 70
     1
  9
$DIMSHO
 70
     1
  9
$DIMPOST
  1

  9
$DIMAPOST
  1

  9
$DIMALT
 70
     0
  9
$DIMALTD
 70
     3
  9
$DIMALTF
 40
0.03937
  9
$DIMLFAC
 40
1.0
  9
$DIMTOFL
 70
     1
  9
$DIMTVP
 40
0.0
  9
$DIMTIX
 70
     0
  9
$DIMSOXD
 70
     0
  9
$DIMSAH
 70
     0
  9
$DIMBLK1
  1

  9
$DIMBLK2
  1

  9
$DIMSTYLE
  2
ISO-25
  9
$DIMCLRD
 70
     0
  9
$DIMCLRE
 70
     0
  9
$DIMCLRT
 70
     0
  9
$DIMTFAC
 40
1.0
  9
$DIMGAP
 40
0.625
  9
$DIMJUST
 70
     0
  9
$DIMSD1
 70
     0
  9
$DIMSD2
 70
     0
  9
$DIMTOLJ
 70
     0
  9
$DIMTZIN
 70
     8
  9
$DIMALTZ
 70
     0
  9
$DIMALTTZ
 70
     0
  9
$DIMUPT
 70
     0
  9
$DIMDEC
 70
     2
  9
$DIMTDEC
 70
     2
  9
$DIMALTU
 70
     2
  9
$DIMALTTD
 70
     3
  9
$DIMTXSTY
  7
Standard
  9
$DIMAUNIT
 70
     0
  9
$DIMADEC
 70
     0
  9
$DIMALTRND
 40
0.0
  9
$DIMAZIN
 70
     0
  9
$DIMDSEP
 70
    44
  9
$DIMATFIT
 70
     3
  9
$DIMFRAC
 70
     0
  9
$DIMLDRBLK
  1

  9
$DIMLUNIT
 70
     2
  9
$DIMLWD
 70
    -2
  9
$DIMLWE
 70
    -2
  9
$DIMTMOVE
 70
     0
  9
$LUNITS
 70
     2
  9
$LUPREC
 70
     4
  9
$SKETCHINC
 40
1.0
  9
$FILLETRAD
 40
10.0
  9
$AUNITS
 70
     0
  9
$AUPREC
 70
     0
  9
$MENU
  1
.
  9
$ELEVATION
 40
0.0
  9
$PELEVATION
 40
0.0
  9
$THICKNESS
 40
0.0
  9
$LIMCHECK
 70
     0
  9
$CHAMFERA
 40
10.0
  9
$CHAMFERB
 40
10.0
  9
$CHAMFERC
 40
20.0
  9
$CHAMFERD
 40
0.0
  9
$SKPOLY
 70
     0
  9
$TDCREATE
 40
2455572.601770255
  9
$TDUCREATE
 40
2455572.560103588
  9
$TDUPDATE
 40
2455572.601770266
  9
$TDUUPDATE
 40
2455572.560103599
  9
$TDINDWG
 40
0.0000000116
  9
$TDUSRTIMER
 40
0.0000000116
  9
$USRTIMER
 70
     1
  9
$ANGBASE
 50
0.0
  9
$ANGDIR
 70
     0
  9
$PDMODE
 70
     0
  9
$PDSIZE
 40
0.0
  9
$PLINEWID
 40
0.0
  9
$SPLFRAME
 70
     0
  9
$SPLINETYPE
 70
     6
  9
$SPLINESEGS
 70
     8
  9
$HANDSEED
  5
21D
  9
$SURFTAB1
 70
     6
  9
$SURFTAB2
 70
     6
  9
$SURFTYPE
 70
     6
  9
$SURFU
 70
     6
  9
$SURFV
 70
     6
  9
$UCSBASE
  2

  9
$UCSNAME
  2

  9
$UCSORG
 10
0.0
 20
0.0
 30
0.0
  9
$UCSXDIR
 10
1.0
 20
0.0
 30
0.0
  9
$UCSYDIR
 10
0.0
 20
1.0
 30
0.0
  9
$UCSORTHOREF
  2

  9
$UCSORTHOVIEW
 70
     0
  9
$UCSORGTOP
 10
0.0
 20
0.0
 30
0.0
  9
$UCSORGBOTTOM
 10
0.0
 20
0.0
 30
0.0
  9
$UCSORGLEFT
 10
0.0
 20
0.0
 30
0.0
  9
$UCSORGRIGHT
 10
0.0
 20
0.0
 30
0.0
  9
$UCSORGFRONT
 10
0.0
 20
0.0
 30
0.0
  9
$UCSORGBACK
 10
0.0
 20
0.0
 30
0.0
  9
$PUCSBASE
  2

  9
$PUCSNAME
  2

  9
$PUCSORG
 10
0.0
 20
0.0
 30
0.0
  9
$PUCSXDIR
 10
1.0
 20
0.0
 30
0.0
  9
$PUCSYDIR
 10
0.0
 20
1.0
 30
0.0
  9
$PUCSORTHOREF
  2

  9
$PUCSORTHOVIEW
 70
     0
  9
$PUCSORGTOP
 10
0.0
 20
0.0
 30
0.0
  9
$PUCSORGBOTTOM
 10
0.0
 20
0.0
 30
0.0
  9
$PUCSORGLEFT
 10
0.0
 20
0.0
 30
0.0
  9
$PUCSORGRIGHT
 10
0.0
 20
0.0
 30
0.0
  9
$PUCSORGFRONT
 10
0.0
 20
0.0
 30
0.0
  9
$PUCSORGBACK
 10
0.0
 20
0.0
 30
0.0
  9
$USERI1
 70
     0
  9
$USERI2
 70
     0
  9
$USERI3
 70
     0
  9
$USERI4
 70
     0
  9
$USERI5
 70
     0
  9
$USERR1
 40
0.0
  9
$USERR2
 40
0.0
  9
$USERR3
 40
0.0
  9
$USERR4
 40
0.0
  9
$USERR5
 40
0.0
  9
$WORLDVIEW
 70
     1
  9
$SHADEDGE
 70
     3
  9
$SHADEDIF
 70
    70
  9
$TILEMODE
 70
     1
  9
$MAXACTVP
 70
    64
  9
$PINSBASE
 10
0.0
 20
0.0
 30
0.0
  9
$PLIMCHECK
 70
     0
  9
$PEXTMIN
 10
1.000000E+20
 20
1.000000E+20
 30
1.000000E+20
  9
$PEXTMAX
 10
-1.000000E+20
 20
-1.000000E+20
 30
-1.000000E+20
  9
$PLIMMIN
 10
0.0
 20
0.0
  9
$PLIMMAX
 10
420.0
 20
297.0
  9
$UNITMODE
 70
     0
  9
$VISRETAIN
 70
     1
  9
$PLINEGEN
 70
     0
  9
$PSLTSCALE
 70
     1
  9
$TREEDEPTH
 70
  3020
  9
$CMLSTYLE
  2
Standard
  9
$CMLJUST
 70
     0
  9
$CMLSCALE
 40
20.0
  9
$PROXYGRAPHICS
 70
     1
  9
$MEASUREMENT
 70
     1
  9
$CELWEIGHT
370
    -1
  9
$ENDCAPS
280
     0
  9
$JOINSTYLE
280
     0
  9
$LWDISPLAY
290
     0
  9
$INSUNITS
 70
     4
  9
$HYPERLINKBASE
  1

  9
$STYLESHEET
  1

  9
$XEDIT
290
     1
  9
$CEPSNTYPE
380
     0
  9
$PSTYLEMODE
290
     1
  9
$FINGERPRINTGUID
  2
{833A427A-9131-4DE3-9B45-14AFE3B1C214}
  9
$VERSIONGUID
  2
{FAEB1C32-E019-11D5-929B-00C0DF256EC4}
  9
$EXTNAMES
290
     1
  9
$PSVPSCALE
 40
0.0
  9
$OLESTARTUP
290
     0
  0
ENDSEC
  0
SECTION
  2
CLASSES
  0
CLASS
  1
ACDBDICTIONARYWDFLT
  2
AcDbDictionaryWithDefault
  3
ObjectDBX Classes
 90
        0
280
     0
281
     0
  0
CLASS
  1
VISUALSTYLE
  2
AcDbVisualStyle
  3
ObjectDBX Classes
 90
     4095
280
     0
281
     0
  0
CLASS
  1
DICTIONARYVAR
  2
AcDbDictionaryVar
  3
ObjectDBX Classes
 90
        0
280
     0
281
     0
  0
CLASS
  1
ACDBPLACEHOLDER
  2
AcDbPlaceHolder
  3
ObjectDBX Classes
 90
        0
280
     0
281
     0
  0
CLASS
  1
LAYOUT
  2
AcDbLayout
  3
ObjectDBX Classes
 90
        0
280
     0
281
     0
  0
ENDSEC
  0
SECTION
  2
TABLES
  0
TABLE
  2
VPORT
  5
8
330
0
100
AcDbSymbolTable
 70
     1
  0
VPORT
  5
29
330
8
100
AcDbSymbolTableRecord
100
AcDbViewportTableRecord
  2
*Active
 70
     0
 10
0.0
 20
0.0
 11
1.0
 21
1.0
 12
344.186916
 22
148.5
 13
0.0
 23
0.0
 14
10.0
 24
10.0
 15
10.0
 25
10.0
 16
0.0
 26
0.0
 36
1.0
 17
0.0
 27
0.0
 37
0.0
 40
297.0
 41
1.972973
 42
50.0
 43
0.0
 44
0.0
 50
0.0
 51
0.0
 71
     0
 72
   100
 73
     1
 74
     3
 75
     0
 76
     0
 77
     0
 78
     0
281
     0
 65
     1
110
0.0
120
0.0
130
0.0
111
1.0
121
0.0
131
0.0
112
0.0
122
1.0
132
0.0
 79
     0
146
0.0
  0
ENDTAB
  0
TABLE
  2
LTYPE
  5
5
330
0
100
AcDbSymbolTable
 70
     1
  0
LTYPE
  5
14
330
5
100
AcDbSymbolTableRecord
100
AcDbLinetypeTableRecord
  2
ByBlock
 70
     0
  3

 72
    65
 73
     0
 40
0.0
  0
LTYPE
  5
15
330
5
100
AcDbSymbolTableRecord
100
AcDbLinetypeTableRecord
  2
ByLayer
 70
     0
  3

 72
    65
 73
     0
 40
0.0
  0
LTYPE
  5
16
330
5
100
AcDbSymbolTableRecord
100
AcDbLinetypeTableRecord
  2
Continuous
 70
     0
  3
Solid line
 72
    65
 73
     0
 40
0.0
  0
ENDTAB
  0
TABLE
  2
LAYER
  5
2
330
0
100
AcDbSymbolTable
 70
     1
  0
LAYER
  5
10
330
2
100
AcDbSymbolTableRecord
100
AcDbLayerTableRecord
  2
0
 70
     0
 62
   106
  6
Continuous
370
     0
390
F
  0
ENDTAB
  0
TABLE
  2
STYLE
  5
3
330
0
100
AcDbSymbolTable
 70
     4
  0
STYLE
  5
11
330
3
100
AcDbSymbolTableRecord
100
AcDbTextStyleTableRecord
  2
Standard
 70
     0
 40
0.0
 41
1.0
 50
0.0
 71
     0
 42
2.5
  3
txt
  4

  0
STYLE
  5
3B
330
3
100
AcDbSymbolTableRecord
100
AcDbTextStyleTableRecord
  2
Default
 70
     0
 40
0.0
 41
1.0
 50
0.0
 71
     0
 42
0.2
  3

  4

1001
ACAD
1000
txt
1071
        0
  0
STYLE
  5
3C
330
3
100
AcDbSymbolTableRecord
100
AcDbTextStyleTableRecord
  2
ISO
 70
     0
 40
0.0
 41
1.0
 50
0.0
 71
     0
 42
0.2
  3

  4

1001
ACAD
1000
txt
1071
        0
  0
STYLE
  5
3D
330
3
100
AcDbSymbolTableRecord
100
AcDbTextStyleTableRecord
  2
GIANLU
 70
     0
 40
0.0
 41
1.0
 50
0.0
 71
     0
 42
0.2
  3

  4

1001
ACAD
1000
Arial
1071
        0
  0
ENDTAB
  0
TABLE
  2
VIEW
  5
6
330
0
100
AcDbSymbolTable
 70
     0
  0
ENDTAB
  0
TABLE
  2
UCS
  5
7
330
0
100
AcDbSymbolTable
 70
     0
  0
ENDTAB
  0
TABLE
  2
APPID
  5
9
330
0
100
AcDbSymbolTable
 70
     1
  0
APPID
  5
12
330
9
100
AcDbSymbolTableRecord
100
AcDbRegAppTableRecord
  2
ACAD
 70
     0
  0
ENDTAB
  0
TABLE
  2
DIMSTYLE
  5
A
330
0
100
AcDbSymbolTable
 70
     4
100
AcDbDimStyleTable
  0
DIMSTYLE
105
27
330
A
100
AcDbSymbolTableRecord
100
AcDbDimStyleTableRecord
  2
ISO-25
 70
     0
 41
2.5
 42
0.625
 43
3.75
 44
1.25
 73
     0
 74
     0
 77
     1
 78
     8
140
2.5
141
2.5
143
0.03937
147
0.625
171
     3
172
     1
271
     2
272
     2
274
     3
278
    44
283
     0
284
     8
340
11
  0
DIMSTYLE
105
3E
330
A
100
AcDbSymbolTableRecord
100
AcDbDimStyleTableRecord
  2
Default
 70
     0
  3
<>
 41
4.375
 42
1.05
 44
2.1
 73
     0
 74
     0
 77
     1
 78
     8
140
3.5
146
0.4
147
1.75
178
     3
271
     2
272
     3
284
     8
340
3B
341
3F
342
3F
  0
DIMSTYLE
105
46
330
A
100
AcDbSymbolTableRecord
100
AcDbDimStyleTableRecord
  2
ISO
 70
     0
  3
<>
 41
4.375
 42
1.05
 44
2.1
 73
     0
 74
     0
 77
     1
 78
     8
140
3.5
146
0.4
147
1.75
178
     3
271
     2
272
     3
284
     8
340
3C
341
3F
342
3F
  0
DIMSTYLE
105
47
330
A
100
AcDbSymbolTableRecord
100
AcDbDimStyleTableRecord
  2
zucchetti_unico
 70
     0
  3
<>
 41
3.0
 42
0.9
 44
1.8
 73
     0
 74
     0
 77
     1
 78
     8
140
3.0
146
0.6
147
1.5
176
   104
177
     3
178
     3
271
     2
272
     2
284
     8
340
3D
  0
ENDTAB
  0
TABLE
  2
BLOCK_RECORD
  5
1
330
0
100
AcDbSymbolTable
 70
     7
  0
BLOCK_RECORD
  5
1F
330
1
100
AcDbSymbolTableRecord
100
AcDbBlockTableRecord
  2
*Model_Space
340
22
  0
BLOCK_RECORD
  5
1B
330
1
100
AcDbSymbolTableRecord
100
AcDbBlockTableRecord
  2
*Paper_Space
340
1E
  0
BLOCK_RECORD
  5
23
330
1
100
AcDbSymbolTableRecord
100
AcDbBlockTableRecord
  2
*Paper_Space0
340
26
  0
BLOCK_RECORD
  5
3F
330
1
100
AcDbSymbolTableRecord
100
AcDbBlockTableRecord
  2
_CLOSED
340
0
  0
BLOCK_RECORD
  5
48
330
1
100
AcDbSymbolTableRecord
100
AcDbBlockTableRecord
  2
a
340
0
102
{BLKREFS
331
97
102
}
  0
BLOCK_RECORD
  5
98
330
1
100
AcDbSymbolTableRecord
100
AcDbBlockTableRecord
  2
b
340
0
102
{BLKREFS
331
B9
102
}
  0
BLOCK_RECORD
  5
BA
330
1
100
AcDbSymbolTableRecord
100
AcDbBlockTableRecord
  2
c
340
0
102
{BLKREFS
331
126
102
}
  0
BLOCK_RECORD
  5
127
330
1
100
AcDbSymbolTableRecord
100
AcDbBlockTableRecord
  2
d
340
0
102
{BLKREFS
331
1AA
102
}
  0
BLOCK_RECORD
  5
1AB
330
1
100
AcDbSymbolTableRecord
100
AcDbBlockTableRecord
  2
e
340
0
102
{BLKREFS
331
217
102
}
  0
ENDTAB
  0
ENDSEC
  0
SECTION
  2
BLOCKS
  0
BLOCK
  5
20
330
1F
100
AcDbEntity
  8
0
100
AcDbBlockBegin
  2
*Model_Space
 70
     0
 10
0.0
 20
0.0
 30
0.0
  3
*Model_Space
  1

  0
ENDBLK
  5
21
330
1F
100
AcDbEntity
  8
0
100
AcDbBlockEnd
  0
BLOCK
  5
1C
330
1B
100
AcDbEntity
 67
     1
  8
0
100
AcDbBlockBegin
  2
*Paper_Space
 70
     0
 10
0.0
 20
0.0
 30
0.0
  3
*Paper_Space
  1

  0
ENDBLK
  5
1D
330
1B
100
AcDbEntity
 67
     1
  8
0
100
AcDbBlockEnd
  0
BLOCK
  5
24
330
23
100
AcDbEntity
  8
0
100
AcDbBlockBegin
  2
*Paper_Space0
 70
     0
 10
0.0
 20
0.0
 30
0.0
  3
*Paper_Space0
  1

  0
ENDBLK
  5
25
330
23
100
AcDbEntity
  8
0
100
AcDbBlockEnd
  0
BLOCK
  5
40
330
3F
100
AcDbEntity
  8
0
100
AcDbBlockBegin
  2
_CLOSED
 70
     0
 10
0.0
 20
0.0
 30
0.0
  3
_CLOSED
  1

  0
LINE
  5
42
330
3F
100
AcDbEntity
  8
0
  6
ByBlock
 62
     0
370
    -2
100
AcDbLine
 10
-1.0
 20
0.166667
 30
0.0
 11
0.0
 21
0.0
 31
0.0
  0
LINE
  5
43
330
3F
100
AcDbEntity
  8
0
  6
ByBlock
 62
     0
370
    -2
100
AcDbLine
 10
0.0
 20
0.0
 30
0.0
 11
-1.0
 21
-0.166667
 31
0.0
  0
LINE
  5
44
330
3F
100
AcDbEntity
  8
0
  6
ByBlock
 62
     0
370
    -2
100
AcDbLine
 10
-1.0
 20
0.166667
 30
0.0
 11
-1.0
 21
-0.166667
 31
0.0
  0
LINE
  5
45
330
3F
100
AcDbEntity
  8
0
  6
ByBlock
 62
     0
370
    -2
100
AcDbLine
 10
0.0
 20
0.0
 30
0.0
 11
-1.0
 21
0.0
 31
0.0
  0
ENDBLK
  5
41
330
3F
100
AcDbEntity
  8
0
100
AcDbBlockEnd
  0
BLOCK
  5
95
330
48
100
AcDbEntity
  8
0
100
AcDbBlockBegin
  2
a
 70
     0
 10
17.644943
 20
99.022972
 30
0.0
  3
a
  1

  0
LWPOLYLINE
  5
49
330
48
100
AcDbEntity
  8
0
  6
Continuous
 62
     0
370
     0
100
AcDbPolyline
 90
       12
 70
     0
 43
0.0
 10
89.957153
 20
1081.643555
 10
90.015221
 20
1081.690186
 10
90.188812
 20
1081.826294
 10
90.475548
 20
1082.041382
 10
90.872948
 20
1082.319946
 10
91.377647
 20
1082.640991
 10
91.986122
 20
1082.9823
 10
92.696129
 20
1083.320801
 10
93.507561
 20
1083.631714
 10
94.414322
 20
1083.886719
 10
95.397224
 20
1084.057251
 10
96.457153
 20
1084.119751
  0
LWPOLYLINE
  5
4A
330
48
100
AcDbEntity
  8
0
  6
Continuous
 62
     0
370
     0
100
AcDbPolyline
 90
       12
 70
     0
 43
0.0
 10
96.457153
 20
1084.119751
 10
97.484947
 20
1084.060791
 10
98.469933
 20
1083.893555
 10
99.37957
 20
1083.640747
 10
100.194031
 20
1083.331177
 10
100.907272
 20
1082.993042
 10
101.519005
 20
1082.651489
 10
102.027054
 20
1082.329468
 10
102.427879
 20
1082.049316
 10
102.718124
 20
1081.832031
 10
102.895309
 20
1081.693237
 10
102.9571
 20
1081.643677
  0
LINE
  5
4B
330
48
100
AcDbEntity
  8
0
  6
Continuous
 62
     0
370
     0
100
AcDbLine
 10
96.45715
 20
1095.619755
 30
0.0
 11
89.95715
 21
1095.619755
 31
0.0
  0
LINE
  5
4C
330
48
100
AcDbEntity
  8
0
  6
Continuous
 62
     0
370
     0
100
AcDbLine
 10
102.95715
 20
1095.619755
 30
0.0
 11
96.45715
 21
1095.619755
 31
0.0
  0
LINE
  5
4D
330
48
100
AcDbEntity
  8
0
  6
Continuous
 62
     0
370
    30
100
AcDbLine
 10
102.45715
 20
1096.119755
 30
0.0
 11
96.45715
 21
1096.119755
 31
0.0
  0
LINE
  5
4E
330
48
100
AcDbEntity
  8
0
  6
Continuous
 62
     0
370
    30
100
AcDbLine
 10
96.45715
 20
1096.119755
 30
0.0
 11
90.45715
 21
1096.119755
 31
0.0
  0
ARC
  5
4F
330
48
100
AcDbEntity
  8
0
  6
Continuous
 62
     0
370
    30
100
AcDbCircle
 10
96.45715
 20
1060.619755
 30
0.0
 40
19.50000000000001
100
AcDbArc
 50
90.0
 51
270.0
  0
ARC
  5
50
330
48
100
AcDbEntity
  8
0
  6
Continuous
 62
     0
370
    30
100
AcDbCircle
 10
96.45715
 20
1060.619755
 30
0.0
 40
19.50000000000001
100
AcDbArc
 50
270.0
 51
90.0
  0
ARC
  5
51
330
48
100
AcDbEntity
  8
0
  6
Continuous
 62
     0
370
     0
100
AcDbCircle
 10
96.45715
 20
1060.619755
 30
0.0
 40
19.0
100
AcDbArc
 50
270.0
 51
90.0
  0
ARC
  5
52
330
48
100
AcDbEntity
  8
0
  6
Continuous
 62
     0
370
     0
100
AcDbCircle
 10
96.45715
 20
1060.619755
 30
0.0
 40
19.0
100
AcDbArc
 50
90.0
 51
270.0
  0
LINE
  5
53
330
48
100
AcDbEntity
  8
0
  6
Continuous
 62
     0
370
    30
100
AcDbLine
 10
136.45715
 20
1100.619743
 30
0.0
 11
136.45715
 21
1020.619743
 31
0.0
  0
LINE
  5
54
330
48
100
AcDbEntity
  8
0
  6
Continuous
 62
     0
370
    30
100
AcDbLine
 10
56.45715
 20
1100.619743
 30
0.0
 11
136.45715
 21
1100.619743
 31
0.0
  0
LINE
  5
55
330
48
100
AcDbEntity
  8
0
  6
Continuous
 62
     0
370
    30
100
AcDbLine
 10
56.45715
 20
1020.619743
 30
0.0
 11
56.45715
 21
1100.619743
 31
0.0
  0
LINE
  5
56
330
48
100
AcDbEntity
  8
0
  6
Continuous
 62
     0
370
    30
100
AcDbLine
 10
56.45715
 20
1020.619743
 30
0.0
 11
136.45715
 21
1020.619743
 31
0.0
  0
ARC
  5
57
330
48
100
AcDbEntity
  8
0
  6
Continuous
 62
     0
370
    30
100
AcDbCircle
 10
90.457152
 20
1095.619752
 30
0.0
 40
0.5000027445624917
100
AcDbArc
 50
90.001664
 51
179.999686
  0
ARC
  5
58
330
48
100
AcDbEntity
  8
0
  6
Continuous
 62
     0
370
    30
100
AcDbCircle
 10
102.457147
 20
1095.619752
 30
0.0
 40
0.500002745816815
100
AcDbArc
 50
0.000315
 51
89.998399
  0
LINE
  5
59
330
48
100
AcDbEntity
  8
0
  6
Continuous
 62
     0
370
    30
100
AcDbLine
 10
102.95715
 20
1081.643434
 30
0.0
 11
102.95715
 21
1095.619755
 31
0.0
  0
LINE
  5
5A
330
48
100
AcDbEntity
  8
0
  6
Continuous
 62
     0
370
    30
100
AcDbLine
 10
89.95715
 20
1081.643434
 30
0.0
 11
89.95715
 21
1095.619755
 31
0.0
  0
LWPOLYLINE
  5
5B
330
48
100
AcDbEntity
  8
0
  6
Continuous
 62
     0
370
    30
100
AcDbPolyline
 90
        7
 70
     0
 43
0.0
 10
102.957108
 20
1081.643677
 10
103.024452
 20
1080.91333
 10
103.223801
 20
1080.20752
 10
103.548752
 20
1079.550049
 10
103.988304
 20
1078.962891
 10
104.52771
 20
1078.466064
 10
105.169815
 20
1078.065186
  0
LWPOLYLINE
  5
5C
330
48
100
AcDbEntity
  8
0
  6
Continuous
 62
     0
370
    30
100
AcDbPolyline
 90
       11
 70
     0
 43
0.0
 10
89.957146
 20
1081.643555
 10
89.932442
 20
1081.200806
 10
89.859001
 20
1080.763184
 10
89.737595
 20
1080.336548
 10
89.569611
 20
1079.926025
 10
89.357254
 20
1079.536621
 10
89.103027
 20
1079.173096
 10
88.810173
 20
1078.839966
 10
88.482155
 20
1078.541382
 10
88.123108
 20
1078.280884
 10
87.7444
 20
1078.065063
  0
LWPOLYLINE
  5
5D
330
48
100
AcDbEntity
  8
0
  6
Continuous
 62
     0
370
     0
100
AcDbPolyline
 90
       12
 70
     0
 43
0.0
 10
89.957153
 20
981.643555
 10
90.015221
 20
981.690247
 10
90.188812
 20
981.826355
 10
90.475548
 20
982.041382
 10
90.872948
 20
982.319946
 10
91.377647
 20
982.640991
 10
91.986122
 20
982.982239
 10
92.696129
 20
983.320801
 10
93.507561
 20
983.631653
 10
94.414322
 20
983.886719
 10
95.397224
 20
984.057312
 10
96.457153
 20
984.119751
  0
LWPOLYLINE
  5
5E
330
48
100
AcDbEntity
  8
0
  6
Continuous
 62
     0
370
     0
100
AcDbPolyline
 90
       12
 70
     0
 43
0.0
 10
96.457153
 20
984.119751
 10
97.484947
 20
984.06073
 10
98.469933
 20
983.893494
 10
99.37957
 20
983.640808
 10
100.194031
 20
983.331177
 10
100.907272
 20
982.993103
 10
101.519005
 20
982.651489
 10
102.027054
 20
982.329468
 10
102.427879
 20
982.049255
 10
102.718124
 20
981.832031
 10
102.895309
 20
981.693298
 10
102.9571
 20
981.643677
  0
LINE
  5
5F
330
48
100
AcDbEntity
  8
0
  6
Continuous
 62
     0
370
     0
100
AcDbLine
 10
96.45715
 20
995.619755
 30
0.0
 11
89.95715
 21
995.619755
 31
0.0
  0
LINE
  5
60
330
48
100
AcDbEntity
  8
0
  6
Continuous
 62
     0
370
     0
100
AcDbLine
 10
102.95715
 20
995.619755
 30
0.0
 11
96.45715
 21
995.619755
 31
0.0
  0
LINE
  5
61
330
48
100
AcDbEntity
  8
0
  6
Continuous
 62
     0
370
    30
100
AcDbLine
 10
102.45715
 20
996.119755
 30
0.0
 11
96.45715
 21
996.119755
 31
0.0
  0
LINE
  5
62
330
48
100
AcDbEntity
  8
0
  6
Continuous
 62
     0
370
    30
100
AcDbLine
 10
96.45715
 20
996.119755
 30
0.0
 11
90.45715
 21
996.119755
 31
0.0
  0
ARC
  5
63
330
48
100
AcDbEntity
  8
0
  6
Continuous
 62
     0
370
    30
100
AcDbCircle
 10
96.45715
 20
960.619755
 30
0.0
 40
19.50000000000001
100
AcDbArc
 50
90.0
 51
270.0
  0
ARC
  5
64
330
48
100
AcDbEntity
  8
0
  6
Continuous
 62
     0
370
    30
100
AcDbCircle
 10
96.45715
 20
960.619755
 30
0.0
 40
19.50000000000001
100
AcDbArc
 50
270.0
 51
90.0
  0
ARC
  5
65
330
48
100
AcDbEntity
  8
0
  6
Continuous
 62
     0
370
     0
100
AcDbCircle
 10
96.45715
 20
960.619755
 30
0.0
 40
18.99999999999997
100
AcDbArc
 50
270.0
 51
90.0
  0
ARC
  5
66
330
48
100
AcDbEntity
  8
0
  6
Continuous
 62
     0
370
     0
100
AcDbCircle
 10
96.45715
 20
960.619755
 30
0.0
 40
18.99999999999997
100
AcDbArc
 50
90.0
 51
270.0
  0
LINE
  5
67
330
48
100
AcDbEntity
  8
0
  6
Continuous
 62
     0
370
    30
100
AcDbLine
 10
136.45715
 20
1000.619743
 30
0.0
 11
136.45715
 21
920.619743
 31
0.0
  0
LINE
  5
68
330
48
100
AcDbEntity
  8
0
  6
Continuous
 62
     0
370
    30
100
AcDbLine
 10
56.45715
 20
1000.619743
 30
0.0
 11
136.45715
 21
1000.619743
 31
0.0
  0
LINE
  5
69
330
48
100
AcDbEntity
  8
0
  6
Continuous
 62
     0
370
    30
100
AcDbLine
 10
56.45715
 20
920.619743
 30
0.0
 11
56.45715
 21
1000.619743
 31
0.0
  0
LINE
  5
6A
330
48
100
AcDbEntity
  8
0
  6
Continuous
 62
     0
370
    30
100
AcDbLine
 10
56.45715
 20
920.619743
 30
0.0
 11
136.45715
 21
920.619743
 31
0.0
  0
ARC
  5
6B
330
48
100
AcDbEntity
  8
0
  6
Continuous
 62
     0
370
    30
100
AcDbCircle
 10
90.457152
 20
995.619752
 30
0.0
 40
0.5000027445401803
100
AcDbArc
 50
90.001664
 51
179.999686
  0
ARC
  5
6C
330
48
100
AcDbEntity
  8
0
  6
Continuous
 62
     0
370
    30
100
AcDbCircle
 10
102.457147
 20
995.619752
 30
0.0
 40
0.5000027457941911
100
AcDbArc
 50
0.000315
 51
89.998399
  0
LINE
  5
6D
330
48
100
AcDbEntity
  8
0
  6
Continuous
 62
     0
370
    30
100
AcDbLine
 10
102.95715
 20
981.643434
 30
0.0
 11
102.95715
 21
995.619755
 31
0.0
  0
LINE
  5
6E
330
48
100
AcDbEntity
  8
0
  6
Continuous
 62
     0
370
    30
100
AcDbLine
 10
89.95715
 20
981.643434
 30
0.0
 11
89.95715
 21
995.619755
 31
0.0
  0
LWPOLYLINE
  5
6F
330
48
100
AcDbEntity
  8
0
  6
Continuous
 62
     0
370
    30
100
AcDbPolyline
 90
        7
 70
     0
 43
0.0
 10
102.957108
 20
981.643677
 10
103.024452
 20
980.91333
 10
103.223801
 20
980.20752
 10
103.548752
 20
979.550049
 10
103.988304
 20
978.962952
 10
104.52771
 20
978.466003
 10
105.169815
 20
978.065125
  0
LWPOLYLINE
  5
70
330
48
100
AcDbEntity
  8
0
  6
Continuous
 62
     0
370
    30
100
AcDbPolyline
 90
       11
 70
     0
 43
0.0
 10
89.957146
 20
981.643555
 10
89.932442
 20
981.200745
 10
89.859001
 20
980.763184
 10
89.737595
 20
980.336548
 10
89.569611
 20
979.926025
 10
89.357254
 20
979.53656
 10
89.103027
 20
979.173096
 10
88.810173
 20
978.839905
 10
88.482155
 20
978.541321
 10
88.123108
 20
978.280884
 10
87.7444
 20
978.065063
  0
LWPOLYLINE
  5
71
330
48
100
AcDbEntity
  8
0
  6
Continuous
 62
     0
370
     0
100
AcDbPolyline
 90
       12
 70
     0
 43
0.0
 10
89.957153
 20
881.643555
 10
90.015221
 20
881.690247
 10
90.188812
 20
881.826355
 10
90.475548
 20
882.041382
 10
90.872948
 20
882.319946
 10
91.377647
 20
882.640991
 10
91.986122
 20
882.982239
 10
92.696129
 20
883.320801
 10
93.507561
 20
883.631653
 10
94.414322
 20
883.886719
 10
95.397224
 20
884.057312
 10
96.457153
 20
884.119751
  0
LWPOLYLINE
  5
72
330
48
100
AcDbEntity
  8
0
  6
Continuous
 62
     0
370
     0
100
AcDbPolyline
 90
       12
 70
     0
 43
0.0
 10
96.457153
 20
884.119751
 10
97.484947
 20
884.06073
 10
98.469933
 20
883.893494
 10
99.37957
 20
883.640808
 10
100.194031
 20
883.331177
 10
100.907272
 20
882.993103
 10
101.519005
 20
882.651489
 10
102.027054
 20
882.329468
 10
102.427879
 20
882.049255
 10
102.718124
 20
881.832031
 10
102.895309
 20
881.693298
 10
102.9571
 20
881.643677
  0
LINE
  5
73
330
48
100
AcDbEntity
  8
0
  6
Continuous
 62
     0
370
     0
100
AcDbLine
 10
96.45715
 20
895.619755
 30
0.0
 11
89.95715
 21
895.619755
 31
0.0
  0
LINE
  5
74
330
48
100
AcDbEntity
  8
0
  6
Continuous
 62
     0
370
     0
100
AcDbLine
 10
102.95715
 20
895.619755
 30
0.0
 11
96.45715
 21
895.619755
 31
0.0
  0
LINE
  5
75
330
48
100
AcDbEntity
  8
0
  6
Continuous
 62
     0
370
    30
100
AcDbLine
 10
102.45715
 20
896.119755
 30
0.0
 11
96.45715
 21
896.119755
 31
0.0
  0
LINE
  5
76
330
48
100
AcDbEntity
  8
0
  6
Continuous
 62
     0
370
    30
100
AcDbLine
 10
96.45715
 20
896.119755
 30
0.0
 11
90.45715
 21
896.119755
 31
0.0
  0
ARC
  5
77
330
48
100
AcDbEntity
  8
0
  6
Continuous
 62
     0
370
    30
100
AcDbCircle
 10
96.45715
 20
860.619755
 30
0.0
 40
19.50000000000001
100
AcDbArc
 50
90.0
 51
270.0
  0
ARC
  5
78
330
48
100
AcDbEntity
  8
0
  6
Continuous
 62
     0
370
    30
100
AcDbCircle
 10
96.45715
 20
860.619755
 30
0.0
 40
19.50000000000001
100
AcDbArc
 50
270.0
 51
90.0
  0
ARC
  5
79
330
48
100
AcDbEntity
  8
0
  6
Continuous
 62
     0
370
     0
100
AcDbCircle
 10
96.45715
 20
860.619755
 30
0.0
 40
19.0
100
AcDbArc
 50
270.0
 51
90.0
  0
ARC
  5
7A
330
48
100
AcDbEntity
  8
0
  6
Continuous
 62
     0
370
     0
100
AcDbCircle
 10
96.45715
 20
860.619755
 30
0.0
 40
19.0
100
AcDbArc
 50
90.0
 51
270.0
  0
LINE
  5
7B
330
48
100
AcDbEntity
  8
0
  6
Continuous
 62
     0
370
    30
100
AcDbLine
 10
136.45715
 20
900.619743
 30
0.0
 11
136.45715
 21
820.619743
 31
0.0
  0
LINE
  5
7C
330
48
100
AcDbEntity
  8
0
  6
Continuous
 62
     0
370
    30
100
AcDbLine
 10
56.45715
 20
900.619743
 30
0.0
 11
136.45715
 21
900.619743
 31
0.0
  0
LINE
  5
7D
330
48
100
AcDbEntity
  8
0
  6
Continuous
 62
     0
370
    30
100
AcDbLine
 10
56.45715
 20
820.619743
 30
0.0
 11
56.45715
 21
900.619743
 31
0.0
  0
LINE
  5
7E
330
48
100
AcDbEntity
  8
0
  6
Continuous
 62
     0
370
    30
100
AcDbLine
 10
56.45715
 20
820.619743
 30
0.0
 11
136.45715
 21
820.619743
 31
0.0
  0
ARC
  5
7F
330
48
100
AcDbEntity
  8
0
  6
Continuous
 62
     0
370
    30
100
AcDbCircle
 10
90.457152
 20
895.619752
 30
0.0
 40
0.5000027445278867
100
AcDbArc
 50
90.001664
 51
179.999686
  0
ARC
  5
80
330
48
100
AcDbEntity
  8
0
  6
Continuous
 62
     0
370
    30
100
AcDbCircle
 10
102.457147
 20
895.619752
 30
0.0
 40
0.5000027449993636
100
AcDbArc
 50
0.000315
 51
89.998399
  0
LINE
  5
81
330
48
100
AcDbEntity
  8
0
  6
Continuous
 62
     0
370
    30
100
AcDbLine
 10
102.95715
 20
881.643434
 30
0.0
 11
102.95715
 21
895.619755
 31
0.0
  0
LINE
  5
82
330
48
100
AcDbEntity
  8
0
  6
Continuous
 62
     0
370
    30
100
AcDbLine
 10
89.95715
 20
881.643434
 30
0.0
 11
89.95715
 21
895.619755
 31
0.0
  0
LWPOLYLINE
  5
83
330
48
100
AcDbEntity
  8
0
  6
Continuous
 62
     0
370
    30
100
AcDbPolyline
 90
        7
 70
     0
 43
0.0
 10
102.957108
 20
881.643677
 10
103.024452
 20
880.91333
 10
103.223801
 20
880.20752
 10
103.548752
 20
879.550049
 10
103.988304
 20
878.962952
 10
104.52771
 20
878.466003
 10
105.169815
 20
878.065125
  0
LWPOLYLINE
  5
84
330
48
100
AcDbEntity
  8
0
  6
Continuous
 62
     0
370
    30
100
AcDbPolyline
 90
       11
 70
     0
 43
0.0
 10
89.957146
 20
881.643555
 10
89.932442
 20
881.200745
 10
89.859001
 20
880.763184
 10
89.737595
 20
880.336548
 10
89.569611
 20
879.926025
 10
89.357254
 20
879.53656
 10
89.103027
 20
879.173096
 10
88.810173
 20
878.839905
 10
88.482155
 20
878.541321
 10
88.123108
 20
878.280884
 10
87.7444
 20
878.065063
  0
LINE
  5
85
330
48
100
AcDbEntity
  8
0
  6
Continuous
 62
     0
370
    30
100
AcDbLine
 10
93.007137
 20
737.469749
 30
0.0
 11
96.457137
 21
737.469749
 31
0.0
  0
LINE
  5
86
330
48
100
AcDbEntity
  8
0
  6
Continuous
 62
     0
370
    30
100
AcDbLine
 10
96.457137
 20
737.469749
 30
0.0
 11
99.907137
 21
737.469749
 31
0.0
  0
LINE
  5
87
330
48
100
AcDbEntity
  8
0
  6
Continuous
 62
     0
370
    30
100
AcDbLine
 10
100.407137
 20
736.969749
 30
0.0
 11
96.457137
 21
736.969749
 31
0.0
  0
LINE
  5
88
330
48
100
AcDbEntity
  8
0
  6
Continuous
 62
     0
370
    30
100
AcDbLine
 10
96.457137
 20
736.969749
 30
0.0
 11
92.507137
 21
736.969749
 31
0.0
  0
ARC
  5
89
330
48
100
AcDbEntity
  8
0
  6
Continuous
 62
     0
370
    30
100
AcDbCircle
 10
96.457137
 20
711.119751
 30
0.0
 40
19.50000000000128
100
AcDbArc
 50
0.0
 51
180.0
  0
ARC
  5
8A
330
48
100
AcDbEntity
  8
0
  6
Continuous
 62
     0
370
    30
100
AcDbCircle
 10
96.457137
 20
711.119751
 30
0.0
 40
19.50000000000128
100
AcDbArc
 50
180.0
 51
0.0
  0
ARC
  5
8B
330
48
100
AcDbEntity
  8
0
  6
Continuous
 62
     0
370
     0
100
AcDbCircle
 10
96.457137
 20
711.119751
 30
0.0
 40
19.00000000000128
100
AcDbArc
 50
180.0
 51
0.0
  0
ARC
  5
8C
330
48
100
AcDbEntity
  8
0
  6
Continuous
 62
     0
370
     0
100
AcDbCircle
 10
96.457137
 20
711.119751
 30
0.0
 40
19.00000000000128
100
AcDbArc
 50
0.0
 51
180.0
  0
LINE
  5
8D
330
48
100
AcDbEntity
  8
0
  6
Continuous
 62
     0
370
    30
100
AcDbLine
 10
147.25715
 20
769.119743
 30
0.0
 11
147.25715
 21
652.119743
 31
0.0
  0
LINE
  5
8E
330
48
100
AcDbEntity
  8
0
  6
Continuous
 62
     0
370
    30
100
AcDbLine
 10
45.65715
 20
769.119743
 30
0.0
 11
147.25715
 21
769.119743
 31
0.0
  0
LINE
  5
8F
330
48
100
AcDbEntity
  8
0
  6
Continuous
 62
     0
370
    30
100
AcDbLine
 10
45.65715
 20
652.119743
 30
0.0
 11
45.65715
 21
769.119743
 31
0.0
  0
LINE
  5
90
330
48
100
AcDbEntity
  8
0
  6
Continuous
 62
     0
370
    30
100
AcDbLine
 10
45.65715
 20
652.119743
 30
0.0
 11
147.25715
 21
652.119743
 31
0.0
  0
LINE
  5
91
330
48
100
AcDbEntity
  8
0
  6
Continuous
 62
     0
370
    30
100
AcDbLine
 10
92.507137
 20
736.969749
 30
0.0
 11
92.507137
 21
730.215802
 31
0.0
  0
LINE
  5
92
330
48
100
AcDbEntity
  8
0
  6
Continuous
 62
     0
370
    30
100
AcDbLine
 10
100.407137
 20
736.969749
 30
0.0
 11
100.407137
 21
730.215885
 31
0.0
  0
LINE
  5
93
330
48
100
AcDbEntity
  8
0
  6
Continuous
 62
     0
370
    30
100
AcDbLine
 10
92.507137
 20
736.969749
 30
0.0
 11
93.007137
 21
737.469749
 31
0.0
  0
LINE
  5
94
330
48
100
AcDbEntity
  8
0
  6
Continuous
 62
     0
370
    30
100
AcDbLine
 10
100.407137
 20
736.969749
 30
0.0
 11
99.907137
 21
737.469749
 31
0.0
  0
ENDBLK
  5
96
330
48
100
AcDbEntity
  8
0
100
AcDbBlockEnd
  0
BLOCK
  5
B7
330
98
100
AcDbEntity
  8
0
100
AcDbBlockBegin
  2
b
 70
     0
 10
40.420946
 20
324.11512
 30
0.0
  3
b
  1

  0
LWPOLYLINE
  5
99
330
98
100
AcDbEntity
  8
0
  6
Continuous
 62
     0
370
     0
100
AcDbPolyline
 90
       30
 70
     0
 43
0.0
 10
96.457153
 20
335.243195
 10
97.509499
 20
335.166168
 10
98.534927
 20
334.940155
 10
99.51107
 20
334.576538
 10
100.422882
 20
334.092133
 10
101.261284
 20
333.502899
 10
102.021362
 20
332.823334
 10
102.70166
 20
332.065613
 10
103.301765
 20
331.240143
 10
103.821198
 20
330.354889
 10
104.259056
 20
329.417267
 10
104.613693
 20
328.43454
 10
104.883133
 20
327.414673
 10
105.065048
 20
326.36673
 10
105.157539
 20
325.300873
 10
105.159317
 20
324.22876
 10
105.070442
 20
323.162384
 10
104.892365
 20
322.113922
 10
104.626511
 20
321.092865
 10
104.274193
 20
320.106323
 10
103.837166
 20
319.162506
 10
103.31749
 20
318.27066
 10
102.717239
 20
317.440033
 10
102.0382
 20
316.67984
 10
101.280319
 20
315.998871
 10
100.443985
 20
315.407227
 10
99.533592
 20
314.919983
 10
98.558586
 20
314.553497
 10
97.535591
 20
314.324188
 10
96.457146
 20
314.243195
  0
LWPOLYLINE
  5
9A
330
98
100
AcDbEntity
  8
0
  6
Continuous
 62
     0
370
     0
100
AcDbPolyline
 90
       30
 70
     0
 43
0.0
 10
96.457146
 20
314.243195
 10
95.406532
 20
314.319824
 10
94.382431
 20
314.545349
 10
93.405861
 20
314.908478
 10
92.493637
 20
315.392853
 10
91.655327
 20
315.981995
 10
90.895264
 20
316.660767
 10
90.21402
 20
317.418976
 10
89.61161
 20
318.247833
 10
89.089775
 20
319.138214
 10
88.650551
 20
320.080811
 10
88.295959
 20
321.066376
 10
88.027756
 20
322.086639
 10
87.847328
 20
323.134521
 10
87.756088
 20
324.200623
 10
87.755478
 20
325.272766
 10
87.845612
 20
326.338959
 10
88.025223
 20
327.387604
 10
88.292435
 20
328.408356
 10
88.644897
 20
329.392151
 10
89.080605
 20
330.330994
 10
89.597931
 20
331.217773
 10
90.196014
 20
332.044983
 10
90.874367
 20
332.804535
 10
91.632385
 20
333.486298
 10
92.468575
 20
334.078369
 10
93.378494
 20
334.565796
 10
94.353394
 20
334.932495
 10
95.377922
 20
335.162109
 10
96.457153
 20
335.243195
  0
ARC
  5
9B
330
98
100
AcDbEntity
  8
0
  6
Continuous
 62
     0
370
    30
100
AcDbCircle
 10
96.457148
 20
324.743195
 30
0.0
 40
6.5
100
AcDbArc
 50
90.0
 51
270.0
  0
ARC
  5
9C
330
98
100
AcDbEntity
  8
0
  6
Continuous
 62
     0
370
    30
100
AcDbCircle
 10
96.457148
 20
324.743195
 30
0.0
 40
6.5
100
AcDbArc
 50
270.0
 51
90.0
  0
ARC
  5
9D
330
98
100
AcDbEntity
  8
0
  6
Continuous
 62
     0
370
     0
100
AcDbCircle
 10
96.457148
 20
324.743195
 30
0.0
 40
5.999999999999996
100
AcDbArc
 50
270.0
 51
90.0
  0
ARC
  5
9E
330
98
100
AcDbEntity
  8
0
  6
Continuous
 62
     0
370
     0
100
AcDbCircle
 10
96.457148
 20
324.743195
 30
0.0
 40
5.999999999999996
100
AcDbArc
 50
90.0
 51
270.0
  0
LINE
  5
9F
330
98
100
AcDbEntity
  8
0
  6
Continuous
 62
     0
370
     0
100
AcDbLine
 10
76.957148
 20
310.243196
 30
0.0
 11
96.457148
 21
310.243196
 31
0.0
  0
LINE
  5
A0
330
98
100
AcDbEntity
  8
0
  6
Continuous
 62
     0
370
     0
100
AcDbLine
 10
96.457148
 20
310.243196
 30
0.0
 11
115.957148
 21
310.243196
 31
0.0
  0
LINE
  5
A1
330
98
100
AcDbEntity
  8
0
  6
Continuous
 62
     0
370
    30
100
AcDbLine
 10
115.957148
 20
351.743196
 30
0.0
 11
96.457148
 21
351.743196
 31
0.0
  0
LINE
  5
A2
330
98
100
AcDbEntity
  8
0
  6
Continuous
 62
     0
370
    30
100
AcDbLine
 10
96.457148
 20
351.743196
 30
0.0
 11
76.957148
 21
351.743196
 31
0.0
  0
LINE
  5
A3
330
98
100
AcDbEntity
  8
0
  6
Continuous
 62
     0
370
    30
100
AcDbLine
 10
96.457148
 20
309.743195
 30
0.0
 11
115.457148
 21
309.743196
 31
0.0
  0
LINE
  5
A4
330
98
100
AcDbEntity
  8
0
  6
Continuous
 62
     0
370
    30
100
AcDbLine
 10
77.457148
 20
309.743196
 30
0.0
 11
96.457148
 21
309.743195
 31
0.0
  0
LINE
  5
A5
330
98
100
AcDbEntity
  8
0
  6
Continuous
 62
     0
370
    30
100
AcDbLine
 10
136.457148
 20
367.543194
 30
0.0
 11
136.457148
 21
352.543194
 31
0.0
  0
LINE
  5
A6
330
98
100
AcDbEntity
  8
0
  6
Continuous
 62
     0
370
    30
100
AcDbLine
 10
136.457148
 20
367.543194
 30
0.0
 11
56.457148
 21
367.543194
 31
0.0
  0
LINE
  5
A7
330
98
100
AcDbEntity
  8
0
  6
Continuous
 62
     0
370
    30
100
AcDbLine
 10
56.457148
 20
367.543194
 30
0.0
 11
56.457148
 21
352.543194
 31
0.0
  0
LINE
  5
A8
330
98
100
AcDbEntity
  8
0
  6
Continuous
 62
     0
370
    30
100
AcDbLine
 10
56.457148
 20
352.543194
 30
0.0
 11
136.457148
 21
352.543194
 31
0.0
  0
LINE
  5
A9
330
98
100
AcDbEntity
  8
0
  6
Continuous
 62
     0
370
    30
100
AcDbLine
 10
102.957148
 20
352.543196
 30
0.0
 11
102.957148
 21
351.743196
 31
0.0
  0
LINE
  5
AA
330
98
100
AcDbEntity
  8
0
  6
Continuous
 62
     0
370
    30
100
AcDbLine
 10
89.957148
 20
352.543196
 30
0.0
 11
89.957148
 21
351.743196
 31
0.0
  0
ARC
  5
AB
330
98
100
AcDbEntity
  8
0
  6
Continuous
 62
     0
370
    30
100
AcDbCircle
 10
77.45715
 20
310.243199
 30
0.0
 40
0.5000027565027396
100
AcDbArc
 50
180.000316
 51
269.995496
  0
ARC
  5
AC
330
98
100
AcDbEntity
  8
0
  6
Continuous
 62
     0
370
    30
100
AcDbCircle
 10
115.457145
 20
310.243199
 30
0.0
 40
0.5000027565027076
100
AcDbArc
 50
270.004504
 51
359.999684
  0
LINE
  5
AD
330
98
100
AcDbEntity
  8
0
  6
Continuous
 62
     0
370
    30
100
AcDbLine
 10
115.957148
 20
351.743196
 30
0.0
 11
115.957148
 21
310.243196
 31
0.0
  0
LINE
  5
AE
330
98
100
AcDbEntity
  8
0
  6
Continuous
 62
     0
370
    30
100
AcDbLine
 10
76.957148
 20
351.743196
 30
0.0
 11
76.957148
 21
310.243196
 31
0.0
  0
LINE
  5
AF
330
98
100
AcDbEntity
  8
0
  6
Continuous
 62
     0
370
    30
100
AcDbLine
 10
147.257148
 20
367.543208
 30
0.0
 11
147.257148
 21
352.543208
 31
0.0
  0
LINE
  5
B0
330
98
100
AcDbEntity
  8
0
  6
Continuous
 62
     0
370
    30
100
AcDbLine
 10
56.457148
 20
367.543208
 30
0.0
 11
45.657148
 21
367.543208
 31
0.0
  0
LINE
  5
B1
330
98
100
AcDbEntity
  8
0
  6
Continuous
 62
     0
370
    30
100
AcDbLine
 10
147.257148
 20
367.543208
 30
0.0
 11
136.457148
 21
367.543208
 31
0.0
  0
LINE
  5
B2
330
98
100
AcDbEntity
  8
0
  6
Continuous
 62
     0
370
    30
100
AcDbLine
 10
45.657148
 20
367.543208
 30
0.0
 11
45.657148
 21
352.543208
 31
0.0
  0
LINE
  5
B3
330
98
100
AcDbEntity
  8
0
  6
Continuous
 62
     0
370
    30
100
AcDbLine
 10
136.457148
 20
352.543208
 30
0.0
 11
147.257148
 21
352.543208
 31
0.0
  0
LINE
  5
B4
330
98
100
AcDbEntity
  8
0
  6
Continuous
 62
     0
370
    30
100
AcDbLine
 10
45.657148
 20
352.543208
 30
0.0
 11
56.457148
 21
352.543208
 31
0.0
  0
LINE
  5
B5
330
98
100
AcDbEntity
  8
0
  6
Continuous
 62
     0
370
    30
100
AcDbLine
 10
77.457148
 20
352.543211
 30
0.0
 11
77.457148
 21
351.743211
 31
0.0
  0
LINE
  5
B6
330
98
100
AcDbEntity
  8
0
  6
Continuous
 62
     0
370
    30
100
AcDbLine
 10
115.457148
 20
352.543211
 30
0.0
 11
115.457148
 21
351.743211
 31
0.0
  0
ENDBLK
  5
B8
330
98
100
AcDbEntity
  8
0
100
AcDbBlockEnd
  0
BLOCK
  5
124
330
BA
100
AcDbEntity
  8
0
100
AcDbBlockBegin
  2
c
 70
     0
 10
44.666924
 20
113.661003
 30
0.0
  3
c
  1

  0
ARC
  5
BB
330
BA
100
AcDbEntity
  8
0
  6
Continuous
 62
     0
370
    30
100
AcDbCircle
 10
316.328007
 20
1084.119724
 30
0.0
 40
4.00000000000335
100
AcDbArc
 50
180.0
 51
270.0
  0
LWPOLYLINE
  5
BC
330
BA
100
AcDbEntity
  8
0
  6
Continuous
 62
     0
370
     0
100
AcDbPolyline
 90
       26
 70
     0
 43
0.0
 10
299.328003
 20
1084.119751
 10
299.392029
 20
1084.073608
 10
299.578766
 20
1083.941528
 10
299.875763
 20
1083.737915
 10
300.267151
 20
1083.482178
 10
300.737915
 20
1083.194214
 10
301.275604
 20
1082.892578
 10
301.870178
 20
1082.594116
 10
302.513763
 20
1082.314453
 10
303.199219
 20
1082.068115
 10
303.919525
 20
1081.868408
 10
304.66629
 20
1081.727173
 10
305.430054
 20
1081.653442
 10
306.199829
 20
1081.652222
 10
306.96402
 20
1081.723511
 10
307.711121
 20
1081.862427
 10
308.433014
 20
1082.060547
 10
309.122498
 20
1082.307251
 10
309.770844
 20
1082.587646
 10
310.36908
 20
1082.886475
 10
310.908356
 20
1083.188354
 10
311.380127
 20
1083.476685
 10
311.773285
 20
1083.733276
 10
312.072388
 20
1083.93811
 10
312.261444
 20
1084.071899
 10
312.328003
 20
1084.119751
  0
LWPOLYLINE
  5
BD
330
BA
100
AcDbEntity
  8
0
  6
Continuous
 62
     0
370
     0
100
AcDbPolyline
 90
       30
 70
     0
 43
0.0
 10
316.328003
 20
1080.119751
 10
316.251251
 20
1080.091309
 10
316.02533
 20
1080.008789
 10
315.661621
 20
1079.878784
 10
315.176483
 20
1079.711792
 10
314.586456
 20
1079.518188
 10
313.906708
 20
1079.308594
 10
313.14743
 20
1079.092041
 10
312.317413
 20
1078.877563
 10
311.425873
 20
1078.67334
 10
310.482056
 20
1078.487549
 10
309.4953
 20
1078.328369
 10
308.473846
 20
1078.202515
 10
307.424805
 20
1078.115356
 10
306.357635
 20
1078.070557
 10
305.284576
 20
1078.070923
 10
304.217621
 20
1078.116211
 10
303.168396
 20
1078.204102
 10
302.147247
 20
1078.330322
 10
301.163269
 20
1078.489258
 10
300.224426
 20
1078.674072
 10
299.337891
 20
1078.877319
 10
298.511139
 20
1079.091309
 10
297.752319
 20
1079.307739
 10
297.071655
 20
1079.517578
 10
296.48114
 20
1079.711426
 10
295.995789
 20
1079.87854
 10
295.631714
 20
1080.008423
 10
295.405334
 20
1080.091064
 10
295.328003
 20
1080.119751
  0
LINE
  5
BE
330
BA
100
AcDbEntity
  8
0
  6
Continuous
 62
     0
370
    30
100
AcDbLine
 10
312.328007
 20
1084.119724
 30
0.0
 11
312.328007
 21
1095.619724
 31
0.0
  0
LINE
  5
BF
330
BA
100
AcDbEntity
  8
0
  6
Continuous
 62
     0
370
     0
100
AcDbLine
 10
312.328007
 20
1095.619724
 30
0.0
 11
299.328007
 21
1095.619724
 31
0.0
  0
LWPOLYLINE
  5
C0
330
BA
100
AcDbEntity
  8
0
  6
Continuous
 62
     0
370
    30
100
AcDbPolyline
 90
       21
 70
     0
 43
0.0
 10
311.828003
 20
1096.119751
 10
311.764832
 20
1096.119751
 10
311.563904
 20
1096.119751
 10
311.213928
 20
1096.119751
 10
310.713959
 20
1096.119751
 10
310.075226
 20
1096.119751
 10
309.320953
 20
1096.119751
 10
308.483551
 20
1096.119751
 10
307.60022
 20
1096.119751
 10
306.707947
 20
1096.119751
 10
305.839081
 20
1096.119751
 10
304.971222
 20
1096.119751
 10
304.079163
 20
1096.119751
 10
303.195129
 20
1096.119751
 10
302.356049
 20
1096.119751
 10
301.599152
 20
1096.119751
 10
300.957062
 20
1096.119751
 10
300.453247
 20
1096.119751
 10
300.099335
 20
1096.119751
 10
299.894592
 20
1096.119751
 10
299.828003
 20
1096.119751
  0
LINE
  5
C1
330
BA
100
AcDbEntity
  8
0
  6
Continuous
 62
     0
370
    30
100
AcDbLine
 10
278.828007
 20
1041.119724
 30
0.0
 11
303.928007
 21
1041.119724
 31
0.0
  0
LWPOLYLINE
  5
C2
330
BA
100
AcDbEntity
  8
0
  6
Continuous
 62
     0
370
    30
100
AcDbPolyline
 90
       22
 70
     0
 43
0.0
 10
303.928009
 20
1041.119751
 10
303.985443
 20
1041.134521
 10
304.155457
 20
1041.177856
 10
304.432526
 20
1041.245605
 10
304.812195
 20
1041.332031
 10
305.284515
 20
1041.42981
 10
305.840973
 20
1041.530396
 10
306.469299
 20
1041.625244
 10
307.155701
 20
1041.705444
 10
307.885223
 20
1041.763794
 10
308.641724
 20
1041.794434
 10
309.407654
 20
1041.794556
 10
310.164307
 20
1041.76416
 10
310.894165
 20
1041.706177
 10
311.580963
 20
1041.626099
 10
312.209808
 20
1041.53125
 10
312.766968
 20
1041.430664
 10
313.240143
 20
1041.332886
 10
313.620544
 20
1041.246338
 10
313.89859
 20
1041.178345
 10
314.069458
 20
1041.134888
 10
314.128021
 20
1041.119751
  0
LINE
  5
C3
330
BA
100
AcDbEntity
  8
0
  6
Continuous
 62
     0
370
    30
100
AcDbLine
 10
314.128007
 20
1041.119724
 30
0.0
 11
320.328007
 21
1041.119724
 31
0.0
  0
LINE
  5
C4
330
BA
100
AcDbEntity
  8
0
  6
Continuous
 62
     0
370
     0
100
AcDbLine
 10
320.328007
 20
1041.119724
 30
0.0
 11
320.328007
 21
1080.119724
 31
0.0
  0
LINE
  5
C5
330
BA
100
AcDbEntity
  8
0
  6
Continuous
 62
     0
370
    30
100
AcDbLine
 10
278.828007
 20
1080.119724
 30
0.0
 11
278.828007
 21
1041.119724
 31
0.0
  0
LINE
  5
C6
330
BA
100
AcDbEntity
  8
0
  6
Continuous
 62
     0
370
    30
100
AcDbLine
 10
320.828007
 20
1041.619724
 30
0.0
 11
320.828007
 21
1079.619724
 31
0.0
  0
ARC
  5
C7
330
BA
100
AcDbEntity
  8
0
  6
Continuous
 62
     0
370
    30
100
AcDbCircle
 10
320.328007
 20
1041.619724
 30
0.0
 40
0.4999999999914344
100
AcDbArc
 50
270.0
 51
0.0
  0
ARC
  5
C8
330
BA
100
AcDbEntity
  8
0
  6
Continuous
 62
     0
370
    30
100
AcDbCircle
 10
311.828007
 20
1095.619724
 30
0.0
 40
0.5000000000142928
100
AcDbArc
 50
0.0
 51
89.999919
  0
LINE
  5
C9
330
BA
100
AcDbEntity
  8
0
  6
Continuous
 62
     0
370
    30
100
AcDbLine
 10
263.028009
 20
1100.619713
 30
0.0
 11
278.028009
 21
1100.619713
 31
0.0
  0
LINE
  5
CA
330
BA
100
AcDbEntity
  8
0
  6
Continuous
 62
     0
370
    30
100
AcDbLine
 10
263.028009
 20
1100.619713
 30
0.0
 11
263.028009
 21
1020.619713
 31
0.0
  0
LINE
  5
CB
330
BA
100
AcDbEntity
  8
0
  6
Continuous
 62
     0
370
    30
100
AcDbLine
 10
263.028009
 20
1020.619713
 30
0.0
 11
278.028009
 21
1020.619713
 31
0.0
  0
LINE
  5
CC
330
BA
100
AcDbEntity
  8
0
  6
Continuous
 62
     0
370
    30
100
AcDbLine
 10
278.028009
 20
1020.619713
 30
0.0
 11
278.028009
 21
1100.619713
 31
0.0
  0
LINE
  5
CD
330
BA
100
AcDbEntity
  8
0
  6
Continuous
 62
     0
370
    30
100
AcDbLine
 10
278.028008
 20
1054.119713
 30
0.0
 11
278.828007
 21
1054.119713
 31
0.0
  0
LINE
  5
CE
330
BA
100
AcDbEntity
  8
0
  6
Continuous
 62
     0
370
    30
100
AcDbLine
 10
278.028007
 20
1067.119713
 30
0.0
 11
278.828007
 21
1067.119713
 31
0.0
  0
ARC
  5
CF
330
BA
100
AcDbEntity
  8
0
  6
Continuous
 62
     0
370
    30
100
AcDbCircle
 10
299.82801
 20
1095.619721
 30
0.0
 40
0.5000034422221753
100
AcDbArc
 50
90.000394
 51
179.999606
  0
ARC
  5
D0
330
BA
100
AcDbEntity
  8
0
  6
Continuous
 62
     0
370
    30
100
AcDbCircle
 10
320.328004
 20
1079.619722
 30
0.0
 40
0.5000026981060872
100
AcDbArc
 50
0.000309
 51
89.999691
  0
LINE
  5
D1
330
BA
100
AcDbEntity
  8
0
  6
Continuous
 62
     0
370
    30
100
AcDbLine
 10
278.828007
 20
1080.119724
 30
0.0
 11
295.328013
 21
1080.119724
 31
0.0
  0
LINE
  5
D2
330
BA
100
AcDbEntity
  8
0
  6
Continuous
 62
     0
370
    30
100
AcDbLine
 10
316.328007
 20
1080.119724
 30
0.0
 11
320.328007
 21
1080.119724
 31
0.0
  0
LINE
  5
D3
330
BA
100
AcDbEntity
  8
0
  6
Continuous
 62
     0
370
    30
100
AcDbLine
 10
299.328007
 20
1084.119724
 30
0.0
 11
299.328007
 21
1095.619724
 31
0.0
  0
ARC
  5
D4
330
BA
100
AcDbEntity
  8
0
  6
Continuous
 62
     0
370
    30
100
AcDbCircle
 10
295.327988
 20
1084.119736
 30
0.0
 40
4.000019079332876
100
AcDbArc
 50
270.000357
 51
359.999829
  0
ARC
  5
D5
330
BA
100
AcDbEntity
  8
0
  6
Continuous
 62
     0
370
    30
100
AcDbCircle
 10
316.328007
 20
984.119724
 30
0.0
 40
3.999999999998796
100
AcDbArc
 50
180.0
 51
270.0
  0
LWPOLYLINE
  5
D6
330
BA
100
AcDbEntity
  8
0
  6
Continuous
 62
     0
370
     0
100
AcDbPolyline
 90
       26
 70
     0
 43
0.0
 10
299.328003
 20
984.119751
 10
299.392029
 20
984.073669
 10
299.578766
 20
983.941528
 10
299.875763
 20
983.737915
 10
300.267151
 20
983.482178
 10
300.737915
 20
983.194214
 10
301.275604
 20
982.892578
 10
301.870178
 20
982.594177
 10
302.513763
 20
982.314514
 10
303.199219
 20
982.068115
 10
303.919525
 20
981.868408
 10
304.66629
 20
981.727112
 10
305.430054
 20
981.653381
 10
306.199829
 20
981.652222
 10
306.96402
 20
981.723511
 10
307.711121
 20
981.862366
 10
308.433014
 20
982.060608
 10
309.122498
 20
982.30719
 10
309.770844
 20
982.587585
 10
310.36908
 20
982.886475
 10
310.908356
 20
983.188354
 10
311.380127
 20
983.476685
 10
311.773285
 20
983.733215
 10
312.072388
 20
983.93811
 10
312.261444
 20
984.071838
 10
312.328003
 20
984.119751
  0
LWPOLYLINE
  5
D7
330
BA
100
AcDbEntity
  8
0
  6
Continuous
 62
     0
370
     0
100
AcDbPolyline
 90
       30
 70
     0
 43
0.0
 10
316.328003
 20
980.119751
 10
316.251251
 20
980.091309
 10
316.02533
 20
980.008789
 10
315.661621
 20
979.878845
 10
315.176483
 20
979.711792
 10
314.586456
 20
979.518188
 10
313.906708
 20
979.308533
 10
313.14743
 20
979.092102
 10
312.317413
 20
978.877625
 10
311.425873
 20
978.673401
 10
310.482056
 20
978.48761
 10
309.4953
 20
978.328369
 10
308.473846
 20
978.202576
 10
307.424805
 20
978.115356
 10
306.357635
 20
978.070618
 10
305.284576
 20
978.070862
 10
304.217621
 20
978.11615
 10
303.168396
 20
978.204041
 10
302.147247
 20
978.330383
 10
301.163269
 20
978.489258
 10
300.224426
 20
978.674072
 10
299.337891
 20
978.877319
 10
298.511139
 20
979.091309
 10
297.752319
 20
979.307739
 10
297.071655
 20
979.517639
 10
296.48114
 20
979.711365
 10
295.995789
 20
979.87854
 10
295.631714
 20
980.008423
 10
295.405334
 20
980.091064
 10
295.328003
 20
980.11969
  0
LINE
  5
D8
330
BA
100
AcDbEntity
  8
0
  6
Continuous
 62
     0
370
    30
100
AcDbLine
 10
312.328007
 20
984.119724
 30
0.0
 11
312.328007
 21
995.619724
 31
0.0
  0
LINE
  5
D9
330
BA
100
AcDbEntity
  8
0
  6
Continuous
 62
     0
370
     0
100
AcDbLine
 10
312.328007
 20
995.619724
 30
0.0
 11
299.328007
 21
995.619724
 31
0.0
  0
LWPOLYLINE
  5
DA
330
BA
100
AcDbEntity
  8
0
  6
Continuous
 62
     0
370
    30
100
AcDbPolyline
 90
       21
 70
     0
 43
0.0
 10
311.828003
 20
996.119751
 10
311.764832
 20
996.119751
 10
311.563904
 20
996.119751
 10
311.213928
 20
996.119751
 10
310.713959
 20
996.119751
 10
310.075226
 20
996.119751
 10
309.320953
 20
996.119751
 10
308.483551
 20
996.119751
 10
307.60022
 20
996.119751
 10
306.707947
 20
996.119751
 10
305.839081
 20
996.119751
 10
304.971222
 20
996.119751
 10
304.079163
 20
996.119751
 10
303.195129
 20
996.119751
 10
302.356049
 20
996.119751
 10
301.599152
 20
996.119751
 10
300.957062
 20
996.119751
 10
300.453247
 20
996.119751
 10
300.099335
 20
996.119751
 10
299.894592
 20
996.119751
 10
299.828003
 20
996.119751
  0
LINE
  5
DB
330
BA
100
AcDbEntity
  8
0
  6
Continuous
 62
     0
370
    30
100
AcDbLine
 10
278.828007
 20
941.119724
 30
0.0
 11
303.928007
 21
941.119724
 31
0.0
  0
LWPOLYLINE
  5
DC
330
BA
100
AcDbEntity
  8
0
  6
Continuous
 62
     0
370
    30
100
AcDbPolyline
 90
       22
 70
     0
 43
0.0
 10
303.928009
 20
941.119751
 10
303.985443
 20
941.134583
 10
304.155457
 20
941.177795
 10
304.432526
 20
941.245605
 10
304.812195
 20
941.332092
 10
305.284515
 20
941.42981
 10
305.840973
 20
941.530457
 10
306.469299
 20
941.625305
 10
307.155701
 20
941.705505
 10
307.885223
 20
941.763733
 10
308.641724
 20
941.794434
 10
309.407654
 20
941.794556
 10
310.164307
 20
941.76416
 10
310.894165
 20
941.706116
 10
311.580963
 20
941.626038
 10
312.209808
 20
941.531311
 10
312.766968
 20
941.430664
 10
313.240143
 20
941.332886
 10
313.620544
 20
941.246277
 10
313.89859
 20
941.178284
 10
314.069458
 20
941.134827
 10
314.128021
 20
941.119751
  0
LINE
  5
DD
330
BA
100
AcDbEntity
  8
0
  6
Continuous
 62
     0
370
    30
100
AcDbLine
 10
314.128007
 20
941.119724
 30
0.0
 11
320.328007
 21
941.119724
 31
0.0
  0
LINE
  5
DE
330
BA
100
AcDbEntity
  8
0
  6
Continuous
 62
     0
370
     0
100
AcDbLine
 10
320.328007
 20
941.119724
 30
0.0
 11
320.328007
 21
980.119724
 31
0.0
  0
LINE
  5
DF
330
BA
100
AcDbEntity
  8
0
  6
Continuous
 62
     0
370
    30
100
AcDbLine
 10
278.828007
 20
980.119724
 30
0.0
 11
278.828007
 21
941.119724
 31
0.0
  0
LINE
  5
E0
330
BA
100
AcDbEntity
  8
0
  6
Continuous
 62
     0
370
    30
100
AcDbLine
 10
320.828007
 20
941.619724
 30
0.0
 11
320.828007
 21
979.619724
 31
0.0
  0
ARC
  5
E1
330
BA
100
AcDbEntity
  8
0
  6
Continuous
 62
     0
370
    30
100
AcDbCircle
 10
320.328007
 20
941.619724
 30
0.0
 40
0.5000000000087326
100
AcDbArc
 50
270.0
 51
360.0
  0
ARC
  5
E2
330
BA
100
AcDbEntity
  8
0
  6
Continuous
 62
     0
370
    30
100
AcDbCircle
 10
311.828007
 20
995.619724
 30
0.0
 40
0.5000000000076634
100
AcDbArc
 50
0.0
 51
89.999919
  0
LINE
  5
E3
330
BA
100
AcDbEntity
  8
0
  6
Continuous
 62
     0
370
    30
100
AcDbLine
 10
263.028009
 20
1000.619713
 30
0.0
 11
278.028009
 21
1000.619713
 31
0.0
  0
LINE
  5
E4
330
BA
100
AcDbEntity
  8
0
  6
Continuous
 62
     0
370
    30
100
AcDbLine
 10
263.028009
 20
1000.619713
 30
0.0
 11
263.028009
 21
920.619713
 31
0.0
  0
LINE
  5
E5
330
BA
100
AcDbEntity
  8
0
  6
Continuous
 62
     0
370
    30
100
AcDbLine
 10
263.028009
 20
920.619713
 30
0.0
 11
278.028009
 21
920.619713
 31
0.0
  0
LINE
  5
E6
330
BA
100
AcDbEntity
  8
0
  6
Continuous
 62
     0
370
    30
100
AcDbLine
 10
278.028009
 20
920.619713
 30
0.0
 11
278.028009
 21
1000.619713
 31
0.0
  0
LINE
  5
E7
330
BA
100
AcDbEntity
  8
0
  6
Continuous
 62
     0
370
    30
100
AcDbLine
 10
278.028008
 20
954.119713
 30
0.0
 11
278.828007
 21
954.119713
 31
0.0
  0
LINE
  5
E8
330
BA
100
AcDbEntity
  8
0
  6
Continuous
 62
     0
370
    30
100
AcDbLine
 10
278.028007
 20
967.119713
 30
0.0
 11
278.828007
 21
967.119713
 31
0.0
  0
ARC
  5
E9
330
BA
100
AcDbEntity
  8
0
  6
Continuous
 62
     0
370
    30
100
AcDbCircle
 10
299.82801
 20
995.619721
 30
0.0
 40
0.5000034423115001
100
AcDbArc
 50
90.000394
 51
179.999606
  0
ARC
  5
EA
330
BA
100
AcDbEntity
  8
0
  6
Continuous
 62
     0
370
    30
100
AcDbCircle
 10
320.328004
 20
979.619722
 30
0.0
 40
0.5000026980947682
100
AcDbArc
 50
0.000309
 51
89.999691
  0
LINE
  5
EB
330
BA
100
AcDbEntity
  8
0
  6
Continuous
 62
     0
370
    30
100
AcDbLine
 10
278.828007
 20
980.119724
 30
0.0
 11
295.328013
 21
980.119724
 31
0.0
  0
LINE
  5
EC
330
BA
100
AcDbEntity
  8
0
  6
Continuous
 62
     0
370
    30
100
AcDbLine
 10
316.328007
 20
980.119724
 30
0.0
 11
320.328007
 21
980.119724
 31
0.0
  0
LINE
  5
ED
330
BA
100
AcDbEntity
  8
0
  6
Continuous
 62
     0
370
    30
100
AcDbLine
 10
299.328007
 20
984.119724
 30
0.0
 11
299.328007
 21
995.619724
 31
0.0
  0
ARC
  5
EE
330
BA
100
AcDbEntity
  8
0
  6
Continuous
 62
     0
370
    30
100
AcDbCircle
 10
295.327988
 20
984.119736
 30
0.0
 40
4.000019079332029
100
AcDbArc
 50
270.000357
 51
359.999829
  0
ARC
  5
EF
330
BA
100
AcDbEntity
  8
0
  6
Continuous
 62
     0
370
    30
100
AcDbCircle
 10
316.328007
 20
884.119724
 30
0.0
 40
3.999999999999748
100
AcDbArc
 50
180.0
 51
270.0
  0
LWPOLYLINE
  5
F0
330
BA
100
AcDbEntity
  8
0
  6
Continuous
 62
     0
370
     0
100
AcDbPolyline
 90
       26
 70
     0
 43
0.0
 10
299.328003
 20
884.119751
 10
299.392029
 20
884.073669
 10
299.578766
 20
883.941528
 10
299.875763
 20
883.737915
 10
300.267151
 20
883.482178
 10
300.737915
 20
883.194214
 10
301.275604
 20
882.892578
 10
301.870178
 20
882.594177
 10
302.513763
 20
882.314514
 10
303.199219
 20
882.068115
 10
303.919525
 20
881.868408
 10
304.66629
 20
881.727112
 10
305.430054
 20
881.653381
 10
306.199829
 20
881.652222
 10
306.96402
 20
881.723511
 10
307.711121
 20
881.862366
 10
308.433014
 20
882.060608
 10
309.122498
 20
882.30719
 10
309.770844
 20
882.587585
 10
310.36908
 20
882.886475
 10
310.908356
 20
883.188354
 10
311.380127
 20
883.476685
 10
311.773285
 20
883.733215
 10
312.072388
 20
883.93811
 10
312.261444
 20
884.071838
 10
312.328003
 20
884.119751
  0
LWPOLYLINE
  5
F1
330
BA
100
AcDbEntity
  8
0
  6
Continuous
 62
     0
370
     0
100
AcDbPolyline
 90
       30
 70
     0
 43
0.0
 10
316.328003
 20
880.119751
 10
316.251251
 20
880.091309
 10
316.02533
 20
880.008789
 10
315.661621
 20
879.878845
 10
315.176483
 20
879.711792
 10
314.586456
 20
879.518188
 10
313.906708
 20
879.308533
 10
313.14743
 20
879.092102
 10
312.317413
 20
878.877625
 10
311.425873
 20
878.673401
 10
310.482056
 20
878.48761
 10
309.4953
 20
878.328369
 10
308.473846
 20
878.202576
 10
307.424805
 20
878.115356
 10
306.357635
 20
878.070618
 10
305.284576
 20
878.070862
 10
304.217621
 20
878.11615
 10
303.168396
 20
878.204041
 10
302.147247
 20
878.330383
 10
301.163269
 20
878.489258
 10
300.224426
 20
878.674072
 10
299.337891
 20
878.877319
 10
298.511139
 20
879.091309
 10
297.752319
 20
879.307739
 10
297.071655
 20
879.517639
 10
296.48114
 20
879.711365
 10
295.995789
 20
879.87854
 10
295.631714
 20
880.008423
 10
295.405334
 20
880.091064
 10
295.328003
 20
880.11969
  0
LINE
  5
F2
330
BA
100
AcDbEntity
  8
0
  6
Continuous
 62
     0
370
    30
100
AcDbLine
 10
312.328007
 20
884.119724
 30
0.0
 11
312.328007
 21
895.619724
 31
0.0
  0
LINE
  5
F3
330
BA
100
AcDbEntity
  8
0
  6
Continuous
 62
     0
370
     0
100
AcDbLine
 10
312.328007
 20
895.619724
 30
0.0
 11
299.328007
 21
895.619724
 31
0.0
  0
LWPOLYLINE
  5
F4
330
BA
100
AcDbEntity
  8
0
  6
Continuous
 62
     0
370
    30
100
AcDbPolyline
 90
       21
 70
     0
 43
0.0
 10
311.828003
 20
896.119751
 10
311.764832
 20
896.119751
 10
311.563904
 20
896.119751
 10
311.213928
 20
896.119751
 10
310.713959
 20
896.119751
 10
310.075226
 20
896.119751
 10
309.320953
 20
896.119751
 10
308.483551
 20
896.119751
 10
307.60022
 20
896.119751
 10
306.707947
 20
896.119751
 10
305.839081
 20
896.119751
 10
304.971222
 20
896.119751
 10
304.079163
 20
896.119751
 10
303.195129
 20
896.119751
 10
302.356049
 20
896.119751
 10
301.599152
 20
896.119751
 10
300.957062
 20
896.119751
 10
300.453247
 20
896.119751
 10
300.099335
 20
896.119751
 10
299.894592
 20
896.119751
 10
299.828003
 20
896.119751
  0
LINE
  5
F5
330
BA
100
AcDbEntity
  8
0
  6
Continuous
 62
     0
370
    30
100
AcDbLine
 10
278.828007
 20
841.119724
 30
0.0
 11
303.928007
 21
841.119724
 31
0.0
  0
LWPOLYLINE
  5
F6
330
BA
100
AcDbEntity
  8
0
  6
Continuous
 62
     0
370
    30
100
AcDbPolyline
 90
       22
 70
     0
 43
0.0
 10
303.928009
 20
841.119751
 10
303.985443
 20
841.134583
 10
304.155457
 20
841.177795
 10
304.432526
 20
841.245605
 10
304.812195
 20
841.332092
 10
305.284515
 20
841.42981
 10
305.840973
 20
841.530457
 10
306.469299
 20
841.625305
 10
307.155701
 20
841.705505
 10
307.885223
 20
841.763733
 10
308.641724
 20
841.794434
 10
309.407654
 20
841.794556
 10
310.164307
 20
841.76416
 10
310.894165
 20
841.706116
 10
311.580963
 20
841.626038
 10
312.209808
 20
841.531311
 10
312.766968
 20
841.430664
 10
313.240143
 20
841.332886
 10
313.620544
 20
841.246277
 10
313.89859
 20
841.178284
 10
314.069458
 20
841.134827
 10
314.128021
 20
841.119751
  0
LINE
  5
F7
330
BA
100
AcDbEntity
  8
0
  6
Continuous
 62
     0
370
    30
100
AcDbLine
 10
314.128007
 20
841.119724
 30
0.0
 11
320.328007
 21
841.119724
 31
0.0
  0
LINE
  5
F8
330
BA
100
AcDbEntity
  8
0
  6
Continuous
 62
     0
370
     0
100
AcDbLine
 10
320.328007
 20
841.119724
 30
0.0
 11
320.328007
 21
880.119724
 31
0.0
  0
LINE
  5
F9
330
BA
100
AcDbEntity
  8
0
  6
Continuous
 62
     0
370
    30
100
AcDbLine
 10
278.828007
 20
880.119724
 30
0.0
 11
278.828007
 21
841.119724
 31
0.0
  0
LINE
  5
FA
330
BA
100
AcDbEntity
  8
0
  6
Continuous
 62
     0
370
    30
100
AcDbLine
 10
320.828007
 20
841.619724
 30
0.0
 11
320.828007
 21
879.619724
 31
0.0
  0
ARC
  5
FB
330
BA
100
AcDbEntity
  8
0
  6
Continuous
 62
     0
370
    30
100
AcDbCircle
 10
320.328007
 20
841.619724
 30
0.0
 40
0.4999999999962483
100
AcDbArc
 50
270.0
 51
0.0
  0
ARC
  5
FC
330
BA
100
AcDbEntity
  8
0
  6
Continuous
 62
     0
370
    30
100
AcDbCircle
 10
311.828007
 20
895.619724
 30
0.0
 40
0.5000000000147333
100
AcDbArc
 50
0.0
 51
89.999919
  0
LINE
  5
FD
330
BA
100
AcDbEntity
  8
0
  6
Continuous
 62
     0
370
    30
100
AcDbLine
 10
263.028009
 20
900.619713
 30
0.0
 11
278.028009
 21
900.619713
 31
0.0
  0
LINE
  5
FE
330
BA
100
AcDbEntity
  8
0
  6
Continuous
 62
     0
370
    30
100
AcDbLine
 10
263.028009
 20
900.619713
 30
0.0
 11
263.028009
 21
820.619713
 31
0.0
  0
LINE
  5
FF
330
BA
100
AcDbEntity
  8
0
  6
Continuous
 62
     0
370
    30
100
AcDbLine
 10
263.028009
 20
820.619713
 30
0.0
 11
278.028009
 21
820.619713
 31
0.0
  0
LINE
  5
100
330
BA
100
AcDbEntity
  8
0
  6
Continuous
 62
     0
370
    30
100
AcDbLine
 10
278.028009
 20
820.619713
 30
0.0
 11
278.028009
 21
900.619713
 31
0.0
  0
LINE
  5
101
330
BA
100
AcDbEntity
  8
0
  6
Continuous
 62
     0
370
    30
100
AcDbLine
 10
278.028008
 20
854.119713
 30
0.0
 11
278.828007
 21
854.119713
 31
0.0
  0
LINE
  5
102
330
BA
100
AcDbEntity
  8
0
  6
Continuous
 62
     0
370
    30
100
AcDbLine
 10
278.028007
 20
867.119713
 30
0.0
 11
278.828007
 21
867.119713
 31
0.0
  0
ARC
  5
103
330
BA
100
AcDbEntity
  8
0
  6
Continuous
 62
     0
370
    30
100
AcDbCircle
 10
299.82801
 20
895.619721
 30
0.0
 40
0.5000034422885156
100
AcDbArc
 50
90.000394
 51
179.999606
  0
ARC
  5
104
330
BA
100
AcDbEntity
  8
0
  6
Continuous
 62
     0
370
    30
100
AcDbCircle
 10
320.328004
 20
879.619722
 30
0.0
 40
0.5000026980910947
100
AcDbArc
 50
0.000309
 51
89.999691
  0
LINE
  5
105
330
BA
100
AcDbEntity
  8
0
  6
Continuous
 62
     0
370
    30
100
AcDbLine
 10
278.828007
 20
880.119724
 30
0.0
 11
295.328013
 21
880.119724
 31
0.0
  0
LINE
  5
106
330
BA
100
AcDbEntity
  8
0
  6
Continuous
 62
     0
370
    30
100
AcDbLine
 10
316.328007
 20
880.119724
 30
0.0
 11
320.328007
 21
880.119724
 31
0.0
  0
LINE
  5
107
330
BA
100
AcDbEntity
  8
0
  6
Continuous
 62
     0
370
    30
100
AcDbLine
 10
299.328007
 20
884.119724
 30
0.0
 11
299.328007
 21
895.619724
 31
0.0
  0
ARC
  5
108
330
BA
100
AcDbEntity
  8
0
  6
Continuous
 62
     0
370
    30
100
AcDbCircle
 10
295.327988
 20
884.119736
 30
0.0
 40
4.000019079334582
100
AcDbArc
 50
270.000357
 51
359.999829
  0
LINE
  5
109
330
BA
100
AcDbEntity
  8
0
  6
Continuous
 62
     0
370
    30
100
AcDbLine
 10
279.777992
 20
730.61972
 30
0.0
 11
279.777992
 21
711.11972
 31
0.0
  0
LINE
  5
10A
330
BA
100
AcDbEntity
  8
0
  6
Continuous
 62
     0
370
    30
100
AcDbLine
 10
279.777992
 20
711.11972
 30
0.0
 11
279.777992
 21
691.61972
 31
0.0
  0
LINE
  5
10B
330
BA
100
AcDbEntity
  8
0
  6
Continuous
 62
     0
370
    30
100
AcDbLine
 10
312.727979
 20
736.969719
 30
0.0
 11
312.227979
 21
737.469719
 31
0.0
  0
LINE
  5
10C
330
BA
100
AcDbEntity
  8
0
  6
Continuous
 62
     0
370
    30
100
AcDbLine
 10
305.327979
 20
737.469719
 30
0.0
 11
312.227979
 21
737.469719
 31
0.0
  0
LWPOLYLINE
  5
10D
330
BA
100
AcDbEntity
  8
0
  6
Continuous
 62
     0
370
    30
100
AcDbPolyline
 90
       17
 70
     0
 43
0.0
 10
312.727966
 20
736.969727
 10
312.66214
 20
736.969727
 10
312.45105
 20
736.969727
 10
312.085022
 20
736.969727
 10
311.572662
 20
736.969727
 10
310.941803
 20
736.969727
 10
310.234985
 20
736.969727
 10
309.500305
 20
736.969727
 10
308.78186
 20
736.969727
 10
308.063812
 20
736.969727
 10
307.329071
 20
736.969727
 10
306.621674
 20
736.969727
 10
305.989746
 20
736.969727
 10
305.475861
 20
736.969727
 10
305.108124
 20
736.969727
 10
304.895355
 20
736.969727
 10
304.827972
 20
736.969727
  0
LWPOLYLINE
  5
10E
330
BA
100
AcDbEntity
  8
0
  6
Continuous
 62
     0
370
    30
100
AcDbPolyline
 90
       17
 70
     0
 43
0.0
 10
304.827972
 20
730.619446
 10
304.904633
 20
730.603882
 10
305.129333
 20
730.560608
 10
305.493652
 20
730.495667
 10
305.982941
 20
730.418762
 10
306.578979
 20
730.341797
 10
307.260071
 20
730.27594
 10
308.000305
 20
730.231445
 10
308.772064
 20
730.216064
 10
309.544098
 20
730.230896
 10
310.285065
 20
730.275085
 10
310.967255
 20
730.34082
 10
311.564575
 20
730.417725
 10
312.05545
 20
730.49469
 10
312.422333
 20
730.559998
 10
312.649902
 20
730.60376
 10
312.727966
 20
730.61969
  0
LINE
  5
10F
330
BA
100
AcDbEntity
  8
0
  6
Continuous
 62
     0
370
    30
100
AcDbLine
 10
312.727979
 20
730.61972
 30
0.0
 11
312.727979
 21
736.969719
 31
0.0
  0
LINE
  5
110
330
BA
100
AcDbEntity
  8
0
  6
Continuous
 62
     0
370
     0
100
AcDbLine
 10
319.277992
 20
711.11972
 30
0.0
 11
319.277992
 21
730.61972
 31
0.0
  0
LINE
  5
111
330
BA
100
AcDbEntity
  8
0
  6
Continuous
 62
     0
370
     0
100
AcDbLine
 10
319.277992
 20
691.61972
 30
0.0
 11
319.277992
 21
711.11972
 31
0.0
  0
LINE
  5
112
330
BA
100
AcDbEntity
  8
0
  6
Continuous
 62
     0
370
    30
100
AcDbLine
 10
319.777992
 20
692.11972
 30
0.0
 11
319.777992
 21
711.11972
 31
0.0
  0
LINE
  5
113
330
BA
100
AcDbEntity
  8
0
  6
Continuous
 62
     0
370
    30
100
AcDbLine
 10
319.777992
 20
711.11972
 30
0.0
 11
319.777992
 21
730.11972
 31
0.0
  0
LINE
  5
114
330
BA
100
AcDbEntity
  8
0
  6
Continuous
 62
     0
370
    30
100
AcDbLine
 10
263.02801
 20
769.119713
 30
0.0
 11
278.02801
 21
769.119713
 31
0.0
  0
LINE
  5
115
330
BA
100
AcDbEntity
  8
0
  6
Continuous
 62
     0
370
    30
100
AcDbLine
 10
263.02801
 20
769.119713
 30
0.0
 11
263.02801
 21
652.119713
 31
0.0
  0
LINE
  5
116
330
BA
100
AcDbEntity
  8
0
  6
Continuous
 62
     0
370
    30
100
AcDbLine
 10
263.02801
 20
652.119713
 30
0.0
 11
278.02801
 21
652.119713
 31
0.0
  0
LINE
  5
117
330
BA
100
AcDbEntity
  8
0
  6
Continuous
 62
     0
370
    30
100
AcDbLine
 10
278.02801
 20
652.119713
 30
0.0
 11
278.02801
 21
769.119713
 31
0.0
  0
LINE
  5
118
330
BA
100
AcDbEntity
  8
0
  6
Continuous
 62
     0
370
    30
100
AcDbLine
 10
279.028008
 20
730.119713
 30
0.0
 11
279.028008
 21
692.119713
 31
0.0
  0
LINE
  5
119
330
BA
100
AcDbEntity
  8
0
  6
Continuous
 62
     0
370
    30
100
AcDbLine
 10
278.028008
 20
730.119713
 30
0.0
 11
279.028008
 21
730.119713
 31
0.0
  0
LINE
  5
11A
330
BA
100
AcDbEntity
  8
0
  6
Continuous
 62
     0
370
    30
100
AcDbLine
 10
279.028008
 20
706.119713
 30
0.0
 11
279.777992
 21
706.119713
 31
0.0
  0
LINE
  5
11B
330
BA
100
AcDbEntity
  8
0
  6
Continuous
 62
     0
370
    30
100
AcDbLine
 10
279.028008
 20
716.119713
 30
0.0
 11
279.777992
 21
716.119713
 31
0.0
  0
LINE
  5
11C
330
BA
100
AcDbEntity
  8
0
  6
Continuous
 62
     0
370
    30
100
AcDbLine
 10
278.028008
 20
692.119713
 30
0.0
 11
279.028008
 21
692.119713
 31
0.0
  0
ARC
  5
11D
330
BA
100
AcDbEntity
  8
0
  6
Continuous
 62
     0
370
    30
100
AcDbCircle
 10
319.277989
 20
692.119723
 30
0.0
 40
0.5000027559864482
100
AcDbArc
 50
270.000316
 51
359.995487
  0
ARC
  5
11E
330
BA
100
AcDbEntity
  8
0
  6
Continuous
 62
     0
370
    30
100
AcDbCircle
 10
319.277989
 20
730.119717
 30
0.0
 40
0.5000027559866151
100
AcDbArc
 50
0.004513
 51
89.999684
  0
LINE
  5
11F
330
BA
100
AcDbEntity
  8
0
  6
Continuous
 62
     0
370
    30
100
AcDbLine
 10
279.777992
 20
691.61972
 30
0.0
 11
319.277992
 21
691.61972
 31
0.0
  0
LINE
  5
120
330
BA
100
AcDbEntity
  8
0
  6
Continuous
 62
     0
370
    30
100
AcDbLine
 10
279.777992
 20
730.61972
 30
0.0
 11
304.82798
 21
730.61972
 31
0.0
  0
LINE
  5
121
330
BA
100
AcDbEntity
  8
0
  6
Continuous
 62
     0
370
    30
100
AcDbLine
 10
312.727979
 20
730.61972
 30
0.0
 11
319.277992
 21
730.61972
 31
0.0
  0
LINE
  5
122
330
BA
100
AcDbEntity
  8
0
  6
Continuous
 62
     0
370
    30
100
AcDbLine
 10
304.827979
 20
736.969719
 30
0.0
 11
304.827979
 21
730.619472
 31
0.0
  0
LINE
  5
123
330
BA
100
AcDbEntity
  8
0
  6
Continuous
 62
     0
370
    30
100
AcDbLine
 10
304.827979
 20
736.969719
 30
0.0
 11
305.327979
 21
737.469719
 31
0.0
  0
ENDBLK
  5
125
330
BA
100
AcDbEntity
  8
0
100
AcDbBlockEnd
  0
BLOCK
  5
1A8
330
127
100
AcDbEntity
  8
0
100
AcDbBlockBegin
  2
d
 70
     0
 10
60.368423
 20
153.567699
 30
0.0
  3
d
  1

  0
LWPOLYLINE
  5
128
330
127
100
AcDbEntity
  8
0
  6
Continuous
 62
     0
370
     0
100
AcDbPolyline
 90
        7
 70
     0
 43
0.0
 10
272.123505
 20
484.251129
 10
272.167389
 20
483.91098
 10
272.306793
 20
483.556335
 10
272.547668
 20
483.18158
 10
272.895569
 20
482.783997
 10
273.350189
 20
482.365692
 10
274.027313
 20
481.845581
  0
LWPOLYLINE
  5
129
330
127
100
AcDbEntity
  8
0
  6
Continuous
 62
     0
370
     0
100
AcDbPolyline
 90
       18
 70
     0
 43
0.0
 10
274.027313
 20
481.845581
 10
274.802521
 20
481.3367
 10
275.65625
 20
480.849854
 10
276.55304
 20
480.406952
 10
277.463165
 20
480.026184
 10
278.368225
 20
479.720093
 10
279.258698
 20
479.499542
 10
280.124542
 20
479.375122
 10
280.954437
 20
479.357483
 10
281.737366
 20
479.456787
 10
282.464294
 20
479.680023
 10
283.124969
 20
480.029907
 10
283.706299
 20
480.503357
 10
284.197754
 20
481.089569
 10
284.591003
 20
481.772949
 10
284.879852
 20
482.534637
 10
285.059204
 20
483.355011
 10
285.123505
 20
484.246338
  0
LWPOLYLINE
  5
12A
330
127
100
AcDbEntity
  8
0
  6
Continuous
 62
     0
370
     0
100
AcDbPolyline
 90
       30
 70
     0
 43
0.0
 10
286.048126
 20
487.51712
 10
286.738342
 20
486.931763
 10
287.303955
 20
486.246887
 10
287.737152
 20
485.484283
 10
288.039246
 20
484.667358
 10
288.215088
 20
483.816071
 10
288.271515
 20
482.947235
 10
288.216064
 20
482.074493
 10
288.055908
 20
481.209808
 10
287.796234
 20
480.36319
 10
287.441742
 20
479.544312
 10
286.996399
 20
478.762878
 10
286.464417
 20
478.028625
 10
285.850586
 20
477.351318
 10
285.160828
 20
476.740051
 10
284.402466
 20
476.203033
 10
283.584076
 20
475.746155
 10
282.715332
 20
475.373047
 10
281.803894
 20
475.08493
 10
280.855774
 20
474.881104
 10
279.878052
 20
474.759979
 10
278.878723
 20
474.719391
 10
277.865845
 20
474.757172
 10
276.847198
 20
474.871246
 10
275.828918
 20
475.059753
 10
274.818604
 20
475.320953
 10
273.830109
 20
475.652893
 10
272.881897
 20
476.051514
 10
271.997437
 20
476.509338
 10
271.198883
 20
477.017151
  0
LWPOLYLINE
  5
12B
330
127
100
AcDbEntity
  8
0
  6
Continuous
 62
     0
370
     0
100
AcDbPolyline
 90
        3
 70
     0
 43
0.0
 10
285.123505
 20
488.043152
 10
285.256378
 20
487.981262
 10
286.048126
 20
487.51712
  0
LWPOLYLINE
  5
12C
330
127
100
AcDbEntity
  8
0
  6
Continuous
 62
     0
370
     0
100
AcDbPolyline
 90
       14
 70
     0
 43
0.0
 10
271.198883
 20
477.017151
 10
270.460846
 20
477.604858
 10
269.868134
 20
478.21817
 10
269.428131
 20
478.84314
 10
269.140137
 20
479.468719
 10
268.99646
 20
480.089325
 10
268.987762
 20
480.7034
 10
269.105835
 20
481.313416
 10
269.343567
 20
481.920593
 10
269.694489
 20
482.525116
 10
270.152191
 20
483.127136
 10
270.710632
 20
483.726593
 10
271.364685
 20
484.322815
 10
272.123505
 20
484.924683
  0
ELLIPSE
  5
12D
330
127
100
AcDbEntity
  8
0
  6
Continuous
 62
     0
370
     0
100
AcDbEllipse
 10
278.623495
 20
493.227295
 30
0.0
 11
6.5
 21
0.0
 31
0.0
210
0.0
220
0.0
230
-1.0
 40
0.707107
 41
2.356194490192348
 42
3.141768617829472
  0
ELLIPSE
  5
12E
330
127
100
AcDbEntity
  8
0
  6
Continuous
 62
     0
370
     0
100
AcDbEllipse
 10
278.623495
 20
493.227295
 30
0.0
 11
6.5
 21
0.0
 31
0.0
210
0.0
220
0.0
230
-1.0
 40
0.707107
 41
6.259883631663937
 42
8.639379797371934
  0
LWPOLYLINE
  5
12F
330
127
100
AcDbEntity
  8
0
  6
Continuous
 62
     0
370
     0
100
AcDbPolyline
 90
       22
 70
     0
 43
0.0
 10
282.86615
 20
496.580841
 10
283.409729
 20
496.139343
 10
283.881683
 20
495.624329
 10
284.255219
 20
495.044312
 10
284.506622
 20
494.414154
 10
284.6185
 20
493.753967
 10
284.582794
 20
493.087433
 10
284.402069
 20
492.438904
 10
284.089203
 20
491.830688
 10
283.665039
 20
491.280518
 10
283.155182
 20
490.800201
 10
282.578827
 20
490.390594
 10
281.903381
 20
490.028229
 10
281.128693
 20
489.725739
 10
280.271179
 20
489.501312
 10
279.355591
 20
489.369904
 10
278.413269
 20
489.34082
 10
277.478699
 20
489.416138
 10
276.585419
 20
489.590454
 10
275.762177
 20
489.851715
 10
275.030151
 20
490.183228
 10
274.380859
 20
490.580841
  0
LWPOLYLINE
  5
130
330
127
100
AcDbEntity
  8
0
  6
Continuous
 62
     0
370
     0
100
AcDbPolyline
 90
       22
 70
     0
 43
0.0
 10
274.380859
 20
490.580841
 10
273.83725
 20
491.022339
 10
273.365326
 20
491.537384
 10
272.99176
 20
492.117371
 10
272.740356
 20
492.747528
 10
272.628479
 20
493.407715
 10
272.664215
 20
494.07428
 10
272.84491
 20
494.722778
 10
273.157776
 20
495.330994
 10
273.58197
 20
495.881165
 10
274.091827
 20
496.361481
 10
274.668182
 20
496.771088
 10
275.343597
 20
497.133484
 10
276.118286
 20
497.435974
 10
276.97583
 20
497.66037
 10
277.891388
 20
497.791779
 10
278.83371
 20
497.820892
 10
279.76828
 20
497.745544
 10
280.66156
 20
497.571228
 10
281.484833
 20
497.309967
 10
282.216827
 20
496.978485
 10
282.86615
 20
496.580841
  0
ELLIPSE
  5
131
330
127
100
AcDbEntity
  8
0
  6
Continuous
 62
     0
370
     0
100
AcDbEllipse
 10
268.370447
 20
461.228559
 30
0.0
 11
-11.25833050130708
 21
15.92168314982242
 31
0.0
210
0.0
220
0.0
230
-1.0
 40
0.5
 41
6.278797903540154
 42
7.238501956972779
  0
ELLIPSE
  5
132
330
127
100
AcDbEntity
  8
0
  6
Continuous
 62
     0
370
     0
100
AcDbEllipse
 10
268.370447
 20
461.228559
 30
0.0
 11
-11.25833050130708
 21
15.92168314982242
 31
0.0
210
0.0
220
0.0
230
-1.0
 40
0.5
 41
0.9553166497931928
 42
3.147599293144756
  0
ELLIPSE
  5
133
330
127
100
AcDbEntity
  8
0
  6
Continuous
 62
     0
370
    30
100
AcDbEllipse
 10
297.715378
 20
481.978559
 30
0.0
 11
11.25833050130708
 21
-15.92168314982242
 31
0.0
210
0.0
220
0.0
230
1.0
 40
0.5
 41
0.0000000600677321
 42
2.186276003796701
  0
ELLIPSE
  5
134
330
127
100
AcDbEntity
  8
0
  6
Continuous
 62
     0
370
    30
100
AcDbEllipse
 10
297.715378
 20
481.978559
 30
0.0
 11
11.25833050130708
 21
-15.92168314982242
 31
0.0
210
0.0
220
0.0
230
1.0
 40
0.5
 41
2.186276003796701
 42
3.141592713657525
  0
LWPOLYLINE
  5
135
330
127
100
AcDbEntity
  8
0
  6
Continuous
 62
     0
370
     0
100
AcDbPolyline
 90
       38
 70
     0
 43
0.0
 10
268.016907
 20
474.413574
 10
269.058075
 20
473.636932
 10
270.123383
 20
472.757904
 10
271.202972
 20
471.777435
 10
272.285736
 20
470.698853
 10
273.359253
 20
469.528137
 10
274.4104
 20
468.273895
 10
275.42569
 20
466.947327
 10
276.391785
 20
465.56192
 10
277.296021
 20
464.133087
 10
278.127014
 20
462.677551
 10
278.875031
 20
461.212799
 10
279.53244
 20
459.756287
 10
280.093933
 20
458.324829
 10
280.556641
 20
456.933929
 10
280.920074
 20
455.597351
 10
281.185944
 20
454.32666
 10
281.357971
 20
453.131042
 10
281.441406
 20
452.017334
 10
281.442505
 20
450.982513
 10
281.36142
 20
449.985809
 10
281.191925
 20
449.032074
 10
280.92868
 20
448.13562
 10
280.567963
 20
447.310852
 10
280.107971
 20
446.571777
 10
279.549164
 20
445.931519
 10
278.894348
 20
445.40155
 10
278.148712
 20
444.991241
 10
277.319916
 20
444.707336
 10
276.417542
 20
444.55368
 10
275.452972
 20
444.530975
 10
274.438873
 20
444.63678
 10
273.388519
 20
444.865814
 10
272.31543
 20
445.210236
 10
271.232788
 20
445.660126
 10
270.152924
 20
446.20401
 10
269.087097
 20
446.829468
 10
268.016907
 20
447.543518
  0
LWPOLYLINE
  5
136
330
127
100
AcDbEntity
  8
0
  6
Continuous
 62
     0
370
     0
100
AcDbPolyline
 90
       38
 70
     0
 43
0.0
 10
268.016907
 20
447.543518
 10
266.975708
 20
448.32016
 10
265.9104
 20
449.199219
 10
264.830811
 20
450.179688
 10
263.748077
 20
451.25827
 10
262.674561
 20
452.428986
 10
261.623383
 20
453.683228
 10
260.608093
 20
455.009796
 10
259.641998
 20
456.395203
 10
258.737762
 20
457.824036
 10
257.906769
 20
459.279572
 10
257.158783
 20
460.744324
 10
256.501373
 20
462.200836
 10
255.939865
 20
463.632294
 10
255.477142
 20
465.023193
 10
255.113708
 20
466.359772
 10
254.847824
 20
467.630463
 10
254.675812
 20
468.82608
 10
254.592377
 20
469.939758
 10
254.591278
 20
470.974609
 10
254.672363
 20
471.971313
 10
254.841858
 20
472.925018
 10
255.105103
 20
473.821503
 10
255.46582
 20
474.646271
 10
255.925797
 20
475.385345
 10
256.484619
 20
476.025604
 10
257.139435
 20
476.555573
 10
257.885071
 20
476.965881
 10
258.713898
 20
477.249756
 10
259.616272
 20
477.403412
 10
260.580811
 20
477.426147
 10
261.59494
 20
477.320343
 10
262.645264
 20
477.091309
 10
263.718353
 20
476.746887
 10
264.800995
 20
476.296997
 10
265.880859
 20
475.753113
 10
266.946686
 20
475.127655
 10
268.016907
 20
474.413574
  0
LINE
  5
137
330
127
100
AcDbEntity
  8
0
  6
Continuous
 62
     0
370
    30
100
AcDbLine
 10
337.171936
 20
441.59428
 30
0.0
 11
337.171936
 21
498.162821
 31
0.0
  0
LINE
  5
138
330
127
100
AcDbEntity
  8
0
  6
Continuous
 62
     0
370
    30
100
AcDbLine
 10
337.171936
 20
498.162821
 30
0.0
 11
326.565334
 21
490.66282
 31
0.0
  0
LINE
  5
139
330
127
100
AcDbEntity
  8
0
  6
Continuous
 62
     0
370
    30
100
AcDbLine
 10
326.565334
 20
490.66282
 30
0.0
 11
326.565334
 21
434.09428
 31
0.0
  0
LINE
  5
13A
330
127
100
AcDbEntity
  8
0
  6
Continuous
 62
     0
370
    30
100
AcDbLine
 10
326.565334
 20
434.09428
 30
0.0
 11
337.171936
 21
441.59428
 31
0.0
  0
LINE
  5
13B
330
127
100
AcDbEntity
  8
0
  6
Continuous
 62
     0
370
    30
100
AcDbLine
 10
337.171936
 20
498.162821
 30
0.0
 11
280.603394
 21
538.162822
 31
0.0
  0
LINE
  5
13C
330
127
100
AcDbEntity
  8
0
  6
Continuous
 62
     0
370
    30
100
AcDbLine
 10
280.603394
 20
538.162822
 30
0.0
 11
269.996792
 21
530.662822
 31
0.0
  0
LINE
  5
13D
330
127
100
AcDbEntity
  8
0
  6
Continuous
 62
     0
370
    30
100
AcDbLine
 10
269.996792
 20
530.662822
 30
0.0
 11
326.565334
 21
490.66282
 31
0.0
  0
LINE
  5
13E
330
127
100
AcDbEntity
  8
0
  6
Continuous
 62
     0
370
    30
100
AcDbLine
 10
269.996792
 20
486.261081
 30
0.0
 11
269.996792
 21
530.662822
 31
0.0
  0
LINE
  5
13F
330
127
100
AcDbEntity
  8
0
  6
Continuous
 62
     0
370
    30
100
AcDbLine
 10
295.168556
 20
456.295156
 30
0.0
 11
326.565334
 21
434.09428
 31
0.0
  0
LWPOLYLINE
  5
140
330
127
100
AcDbEntity
  8
0
  6
Continuous
 62
     0
370
    30
100
AcDbPolyline
 90
       22
 70
     0
 43
0.0
 10
285.123505
 20
493.223999
 10
285.047699
 20
493.948975
 10
284.824829
 20
494.654236
 10
284.461731
 20
495.321106
 10
283.968964
 20
495.934692
 10
283.360138
 20
496.483582
 10
282.649017
 20
496.957489
 10
281.851715
 20
497.348175
 10
280.985382
 20
497.648285
 10
280.068054
 20
497.851837
 10
279.11969
 20
497.955902
 10
278.160706
 20
497.95813
 10
277.211731
 20
497.857666
 10
276.293213
 20
497.656952
 10
275.424561
 20
497.360291
 10
274.624542
 20
496.972839
 10
273.910217
 20
496.501587
 10
273.297394
 20
495.9552
 10
272.800476
 20
495.343781
 10
272.432281
 20
494.678589
 10
272.203796
 20
493.974243
 10
272.123505
 20
493.227264
  0
LWPOLYLINE
  5
141
330
127
100
AcDbEntity
  8
0
  6
Continuous
 62
     0
370
    30
100
AcDbPolyline
 90
       12
 70
     0
 43
0.0
 10
268.081787
 20
447.385284
 10
269.277527
 20
446.592102
 10
270.467102
 20
445.90741
 10
271.642303
 20
445.336609
 10
272.795288
 20
444.884369
 10
273.91861
 20
444.554413
 10
275.005432
 20
444.350128
 10
276.048523
 20
444.274597
 10
277.039825
 20
444.330414
 10
277.971802
 20
444.519989
 10
278.835693
 20
444.844086
 10
279.629211
 20
445.30722
  0
LWPOLYLINE
  5
142
330
127
100
AcDbEntity
  8
0
  6
Continuous
 62
     0
370
    30
100
AcDbPolyline
 90
       26
 70
     0
 43
0.0
 10
257.111694
 20
477.149933
 10
256.416962
 20
476.562378
 10
255.820709
 20
475.854279
 10
255.329391
 20
475.036194
 10
254.944733
 20
474.116791
 10
254.667633
 20
473.104431
 10
254.498215
 20
472.007141
 10
254.435913
 20
470.832794
 10
254.479721
 20
469.589539
 10
254.628357
 20
468.285858
 10
254.880402
 20
466.930359
 10
255.233521
 20
465.532593
 10
255.684921
 20
464.102692
 10
256.23111
 20
462.651031
 10
256.867645
 20
461.188324
 10
257.589996
 20
459.725372
 10
258.3927
 20
458.273041
 10
259.269348
 20
456.842194
 10
260.213593
 20
455.443665
 10
261.218323
 20
454.088043
 10
262.275848
 20
452.7854
 10
263.378296
 20
451.545715
 10
264.517365
 20
450.378265
 10
265.684631
 20
449.291901
 10
266.87146
 20
448.2948
 10
268.081787
 20
447.385284
  0
LINE
  5
143
330
127
100
AcDbEntity
  8
0
  6
Continuous
 62
     0
370
    30
100
AcDbLine
 10
308.973709
 20
466.056876
 30
0.0
 11
279.628778
 21
445.306876
 31
0.0
  0
LINE
  5
144
330
127
100
AcDbEntity
  8
0
  6
Continuous
 62
     0
370
    30
100
AcDbLine
 10
272.123495
 20
487.76489
 30
0.0
 11
257.112116
 21
477.150241
 31
0.0
  0
LINE
  5
145
330
127
100
AcDbEntity
  8
0
  6
Continuous
 62
     0
370
    30
100
AcDbLine
 10
286.457047
 20
497.900242
 30
0.0
 11
283.849526
 21
496.056446
 31
0.0
  0
LINE
  5
146
330
127
100
AcDbEntity
  8
0
  6
Continuous
 62
     0
370
    30
100
AcDbLine
 10
285.123495
 20
484.24445
 30
0.0
 11
285.123495
 21
493.227295
 31
0.0
  0
LINE
  5
147
330
127
100
AcDbEntity
  8
0
  6
Continuous
 62
     0
370
    30
100
AcDbLine
 10
272.123495
 20
484.244385
 30
0.0
 11
272.123495
 21
493.227295
 31
0.0
  0
LWPOLYLINE
  5
148
330
127
100
AcDbEntity
  8
0
  6
Continuous
 62
     0
370
    30
100
AcDbPolyline
 90
        4
 70
     0
 43
0.0
 10
272.080444
 20
483.976135
 10
272.089813
 20
484.002655
 10
272.107544
 20
484.074615
 10
272.123474
 20
484.243561
  0
LWPOLYLINE
  5
149
330
127
100
AcDbEntity
  8
0
  6
Continuous
 62
     0
370
     0
100
AcDbPolyline
 90
        7
 70
     0
 43
0.0
 10
272.123505
 20
413.540436
 10
272.167389
 20
413.200287
 10
272.306793
 20
412.845673
 10
272.547668
 20
412.470917
 10
272.895569
 20
412.073334
 10
273.350189
 20
411.654999
 10
274.027313
 20
411.134888
  0
LWPOLYLINE
  5
14A
330
127
100
AcDbEntity
  8
0
  6
Continuous
 62
     0
370
     0
100
AcDbPolyline
 90
       18
 70
     0
 43
0.0
 10
274.027313
 20
411.134888
 10
274.802429
 20
410.626099
 10
275.656036
 20
410.139282
 10
276.552704
 20
409.696442
 10
277.462677
 20
409.315674
 10
278.367615
 20
409.009583
 10
279.257996
 20
408.789001
 10
280.123749
 20
408.66452
 10
280.953583
 20
408.64679
 10
281.73645
 20
408.745911
 10
282.463348
 20
408.968964
 10
283.124054
 20
409.318634
 10
283.705444
 20
409.791809
 10
284.196991
 20
410.377777
 10
284.590363
 20
411.060913
 10
284.879395
 20
411.822357
 10
285.05896
 20
412.642548
 10
285.123505
 20
413.533783
  0
LWPOLYLINE
  5
14B
330
127
100
AcDbEntity
  8
0
  6
Continuous
 62
     0
370
     0
100
AcDbPolyline
 90
       30
 70
     0
 43
0.0
 10
286.048126
 20
416.806458
 10
286.738342
 20
416.221069
 10
287.303955
 20
415.536194
 10
287.737152
 20
414.77359
 10
288.039246
 20
413.956696
 10
288.215088
 20
413.105377
 10
288.271515
 20
412.236542
 10
288.216064
 20
411.363831
 10
288.055908
 20
410.499146
 10
287.796234
 20
409.652527
 10
287.441742
 20
408.833649
 10
286.996399
 20
408.052216
 10
286.464417
 20
407.317932
 10
285.850586
 20
406.640656
 10
285.160828
 20
406.029388
 10
284.402466
 20
405.492371
 10
283.584076
 20
405.035492
 10
282.715332
 20
404.662354
 10
281.803894
 20
404.374268
 10
280.855774
 20
404.170441
 10
279.878052
 20
404.049316
 10
278.878723
 20
404.008698
 10
277.865845
 20
404.046509
 10
276.847198
 20
404.160583
 10
275.828918
 20
404.349091
 10
274.818604
 20
404.61026
 10
273.830109
 20
404.9422
 10
272.881897
 20
405.340851
 10
271.997437
 20
405.798676
 10
271.198883
 20
406.306458
  0
LWPOLYLINE
  5
14C
330
127
100
AcDbEntity
  8
0
  6
Continuous
 62
     0
370
     0
100
AcDbPolyline
 90
        3
 70
     0
 43
0.0
 10
285.123505
 20
417.332458
 10
285.256378
 20
417.270599
 10
286.048126
 20
416.806458
  0
LWPOLYLINE
  5
14D
330
127
100
AcDbEntity
  8
0
  6
Continuous
 62
     0
370
     0
100
AcDbPolyline
 90
       14
 70
     0
 43
0.0
 10
271.198883
 20
406.306458
 10
270.460846
 20
406.894196
 10
269.868134
 20
407.507507
 10
269.428131
 20
408.132477
 10
269.140137
 20
408.758057
 10
268.99646
 20
409.378632
 10
268.987762
 20
409.992737
 10
269.105835
 20
410.602722
 10
269.343567
 20
411.2099
 10
269.694489
 20
411.814453
 10
270.152191
 20
412.416473
 10
270.710632
 20
413.01593
 10
271.364685
 20
413.612152
 10
272.123505
 20
414.213989
  0
ELLIPSE
  5
14E
330
127
100
AcDbEntity
  8
0
  6
Continuous
 62
     0
370
     0
100
AcDbEllipse
 10
278.623495
 20
422.51662
 30
0.0
 11
6.5
 21
0.0
 31
0.0
210
0.0
220
0.0
230
-1.0
 40
0.707107
 41
2.356194490192345
 42
3.141768617418203
  0
ELLIPSE
  5
14F
330
127
100
AcDbEntity
  8
0
  6
Continuous
 62
     0
370
     0
100
AcDbEllipse
 10
278.623495
 20
422.51662
 30
0.0
 11
6.5
 21
0.0
 31
0.0
210
0.0
220
0.0
230
-1.0
 40
0.707107
 41
6.259883631664813
 42
8.63937979737193
  0
LWPOLYLINE
  5
150
330
127
100
AcDbEntity
  8
0
  6
Continuous
 62
     0
370
     0
100
AcDbPolyline
 90
       22
 70
     0
 43
0.0
 10
282.86615
 20
425.870178
 10
283.409729
 20
425.42868
 10
283.881683
 20
424.913635
 10
284.255219
 20
424.333649
 10
284.506622
 20
423.703491
 10
284.6185
 20
423.043304
 10
284.582794
 20
422.37677
 10
284.402069
 20
421.728241
 10
284.089203
 20
421.120026
 10
283.665039
 20
420.569855
 10
283.155182
 20
420.089539
 10
282.578827
 20
419.679932
 10
281.903381
 20
419.317535
 10
281.128693
 20
419.015045
 10
280.271179
 20
418.790649
 10
279.355591
 20
418.659241
 10
278.413269
 20
418.630127
 10
277.478699
 20
418.705475
 10
276.585419
 20
418.879791
 10
275.762177
 20
419.141052
 10
275.030151
 20
419.472534
 10
274.380859
 20
419.870178
  0
LWPOLYLINE
  5
151
330
127
100
AcDbEntity
  8
0
  6
Continuous
 62
     0
370
     0
100
AcDbPolyline
 90
       22
 70
     0
 43
0.0
 10
274.380859
 20
419.870178
 10
273.83725
 20
420.311676
 10
273.365326
 20
420.826721
 10
272.99176
 20
421.406708
 10
272.740356
 20
422.036865
 10
272.628479
 20
422.697052
 10
272.664215
 20
423.363586
 10
272.84491
 20
424.012115
 10
273.157776
 20
424.620331
 10
273.58197
 20
425.170502
 10
274.091827
 20
425.650818
 10
274.668182
 20
426.060425
 10
275.343597
 20
426.422791
 10
276.118286
 20
426.725281
 10
276.97583
 20
426.949707
 10
277.891388
 20
427.081116
 10
278.83371
 20
427.110199
 10
279.76828
 20
427.034882
 10
280.66156
 20
426.860565
 10
281.484833
 20
426.599304
 10
282.216827
 20
426.267822
 10
282.86615
 20
425.870178
  0
ELLIPSE
  5
152
330
127
100
AcDbEntity
  8
0
  6
Continuous
 62
     0
370
     0
100
AcDbEllipse
 10
268.370447
 20
390.517883
 30
0.0
 11
-11.25833050130708
 21
15.92168314982242
 31
0.0
210
0.0
220
0.0
230
-1.0
 40
0.5
 41
6.278797903535116
 42
7.238501956972779
  0
ELLIPSE
  5
153
330
127
100
AcDbEntity
  8
0
  6
Continuous
 62
     0
370
     0
100
AcDbEllipse
 10
268.370447
 20
390.517883
 30
0.0
 11
-11.25833050130708
 21
15.92168314982242
 31
0.0
210
0.0
220
0.0
230
-1.0
 40
0.5
 41
0.9553166497931928
 42
3.147599293151853
  0
ELLIPSE
  5
154
330
127
100
AcDbEntity
  8
0
  6
Continuous
 62
     0
370
    30
100
AcDbEllipse
 10
297.715378
 20
411.267883
 30
0.0
 11
11.25833050130708
 21
-15.92168314982242
 31
0.0
210
0.0
220
0.0
230
1.0
 40
0.5
 41
0.0000000600677303
 42
2.186276003796699
  0
ELLIPSE
  5
155
330
127
100
AcDbEntity
  8
0
  6
Continuous
 62
     0
370
    30
100
AcDbEllipse
 10
297.715378
 20
411.267883
 30
0.0
 11
11.25833050130708
 21
-15.92168314982242
 31
0.0
210
0.0
220
0.0
230
1.0
 40
0.5
 41
2.186276003796699
 42
3.141592713657524
  0
LWPOLYLINE
  5
156
330
127
100
AcDbEntity
  8
0
  6
Continuous
 62
     0
370
     0
100
AcDbPolyline
 90
       38
 70
     0
 43
0.0
 10
268.016907
 20
403.702911
 10
269.058075
 20
402.92627
 10
270.123383
 20
402.047241
 10
271.202972
 20
401.066742
 10
272.285736
 20
399.988159
 10
273.359253
 20
398.817444
 10
274.4104
 20
397.563232
 10
275.42569
 20
396.236664
 10
276.391785
 20
394.851257
 10
277.296021
 20
393.422394
 10
278.127014
 20
391.966888
 10
278.875031
 20
390.502106
 10
279.53244
 20
389.045624
 10
280.093933
 20
387.614136
 10
280.556641
 20
386.223267
 10
280.920074
 20
384.886658
 10
281.185944
 20
383.615967
 10
281.357971
 20
382.42038
 10
281.441406
 20
381.306671
 10
281.442505
 20
380.27182
 10
281.36142
 20
379.275116
 10
281.191925
 20
378.321411
 10
280.92868
 20
377.424957
 10
280.567963
 20
376.600159
 10
280.107971
 20
375.861084
 10
279.549164
 20
375.220825
 10
278.894348
 20
374.690857
 10
278.148712
 20
374.280548
 10
277.319916
 20
373.996674
 10
276.417542
 20
373.843018
 10
275.452972
 20
373.820282
 10
274.438873
 20
373.926086
 10
273.388519
 20
374.155121
 10
272.31543
 20
374.499542
 10
271.232788
 20
374.949432
 10
270.152924
 20
375.493347
 10
269.087097
 20
376.118805
 10
268.016907
 20
376.832855
  0
LWPOLYLINE
  5
157
330
127
100
AcDbEntity
  8
0
  6
Continuous
 62
     0
370
     0
100
AcDbPolyline
 90
       38
 70
     0
 43
0.0
 10
268.016907
 20
376.832855
 10
266.975708
 20
377.609497
 10
265.9104
 20
378.488525
 10
264.830811
 20
379.469025
 10
263.748077
 20
380.547607
 10
262.674561
 20
381.718323
 10
261.623383
 20
382.972534
 10
260.608093
 20
384.299103
 10
259.641998
 20
385.684509
 10
258.737762
 20
387.113373
 10
257.906769
 20
388.568878
 10
257.158783
 20
390.033661
 10
256.501373
 20
391.490143
 10
255.939865
 20
392.921631
 10
255.477142
 20
394.3125
 10
255.113708
 20
395.649109
 10
254.847824
 20
396.9198
 10
254.675812
 20
398.115387
 10
254.592377
 20
399.229095
 10
254.591278
 20
400.263947
 10
254.672363
 20
401.260651
 10
254.841858
 20
402.214355
 10
255.105103
 20
403.110809
 10
255.46582
 20
403.935608
 10
255.925797
 20
404.674683
 10
256.484619
 20
405.314941
 10
257.139435
 20
405.84491
 10
257.885071
 20
406.255219
 10
258.713898
 20
406.539093
 10
259.616272
 20
406.692749
 10
260.580811
 20
406.715485
 10
261.59494
 20
406.60968
 10
262.645264
 20
406.380646
 10
263.718353
 20
406.036224
 10
264.800995
 20
405.586334
 10
265.880859
 20
405.042419
 10
266.946686
 20
404.416962
 10
268.016907
 20
403.702911
  0
LINE
  5
158
330
127
100
AcDbEntity
  8
0
  6
Continuous
 62
     0
370
    30
100
AcDbLine
 10
337.171936
 20
370.883604
 30
0.0
 11
337.171936
 21
427.452145
 31
0.0
  0
LINE
  5
159
330
127
100
AcDbEntity
  8
0
  6
Continuous
 62
     0
370
    30
100
AcDbLine
 10
337.171936
 20
427.452145
 30
0.0
 11
326.565334
 21
419.952145
 31
0.0
  0
LINE
  5
15A
330
127
100
AcDbEntity
  8
0
  6
Continuous
 62
     0
370
    30
100
AcDbLine
 10
326.565334
 20
419.952145
 30
0.0
 11
326.565334
 21
363.383604
 31
0.0
  0
LINE
  5
15B
330
127
100
AcDbEntity
  8
0
  6
Continuous
 62
     0
370
    30
100
AcDbLine
 10
326.565334
 20
363.383604
 30
0.0
 11
337.171936
 21
370.883604
 31
0.0
  0
LINE
  5
15C
330
127
100
AcDbEntity
  8
0
  6
Continuous
 62
     0
370
    30
100
AcDbLine
 10
337.171936
 20
427.452145
 30
0.0
 11
327.171938
 21
434.523212
 31
0.0
  0
LINE
  5
15D
330
127
100
AcDbEntity
  8
0
  6
Continuous
 62
     0
370
    30
100
AcDbLine
 10
285.168557
 20
449.224087
 30
0.0
 11
326.565334
 21
419.952145
 31
0.0
  0
LINE
  5
15E
330
127
100
AcDbEntity
  8
0
  6
Continuous
 62
     0
370
    30
100
AcDbLine
 10
269.996792
 20
415.550405
 30
0.0
 11
269.996792
 21
446.165501
 31
0.0
  0
LINE
  5
15F
330
127
100
AcDbEntity
  8
0
  6
Continuous
 62
     0
370
    30
100
AcDbLine
 10
295.168556
 20
385.58448
 30
0.0
 11
326.565334
 21
363.383604
 31
0.0
  0
LWPOLYLINE
  5
160
330
127
100
AcDbEntity
  8
0
  6
Continuous
 62
     0
370
    30
100
AcDbPolyline
 90
       22
 70
     0
 43
0.0
 10
285.123505
 20
422.513336
 10
285.047699
 20
423.238312
 10
284.824829
 20
423.943542
 10
284.461731
 20
424.610413
 10
283.968964
 20
425.22403
 10
283.360138
 20
425.772888
 10
282.649017
 20
426.246826
 10
281.851715
 20
426.637512
 10
280.985382
 20
426.937622
 10
280.068054
 20
427.141174
 10
279.11969
 20
427.245239
 10
278.160706
 20
427.247437
 10
277.211731
 20
427.146973
 10
276.293213
 20
426.946259
 10
275.424561
 20
426.649628
 10
274.624542
 20
426.262146
 10
273.910217
 20
425.790924
 10
273.297394
 20
425.244537
 10
272.800476
 20
424.633118
 10
272.432281
 20
423.967896
 10
272.203796
 20
423.26358
 10
272.123505
 20
422.516602
  0
LWPOLYLINE
  5
161
330
127
100
AcDbEntity
  8
0
  6
Continuous
 62
     0
370
    30
100
AcDbPolyline
 90
       12
 70
     0
 43
0.0
 10
268.081787
 20
376.674622
 10
269.277527
 20
375.881439
 10
270.467102
 20
375.196716
 10
271.642303
 20
374.625946
 10
272.795288
 20
374.173706
 10
273.91861
 20
373.84375
 10
275.005432
 20
373.639465
 10
276.048523
 20
373.563904
 10
277.039825
 20
373.619751
 10
277.971802
 20
373.809326
 10
278.835693
 20
374.133392
 10
279.629211
 20
374.596527
  0
LWPOLYLINE
  5
162
330
127
100
AcDbEntity
  8
0
  6
Continuous
 62
     0
370
    30
100
AcDbPolyline
 90
       26
 70
     0
 43
0.0
 10
257.111694
 20
406.43924
 10
256.416962
 20
405.851715
 10
255.820709
 20
405.143616
 10
255.329391
 20
404.3255
 10
254.944733
 20
403.406097
 10
254.667633
 20
402.393738
 10
254.498215
 20
401.296478
 10
254.435913
 20
400.122131
 10
254.479721
 20
398.878876
 10
254.628357
 20
397.575195
 10
254.880402
 20
396.219666
 10
255.233521
 20
394.82193
 10
255.684921
 20
393.392029
 10
256.23111
 20
391.940338
 10
256.867645
 20
390.477631
 10
257.589996
 20
389.014709
 10
258.3927
 20
387.562347
 10
259.269348
 20
386.1315
 10
260.213593
 20
384.733002
 10
261.218323
 20
383.37735
 10
262.275848
 20
382.074738
 10
263.378296
 20
380.835022
 10
264.517365
 20
379.667572
 10
265.684631
 20
378.581238
 10
266.87146
 20
377.584137
 10
268.081787
 20
376.674622
  0
LINE
  5
163
330
127
100
AcDbEntity
  8
0
  6
Continuous
 62
     0
370
    30
100
AcDbLine
 10
308.973709
 20
395.346201
 30
0.0
 11
279.628778
 21
374.5962
 31
0.0
  0
LINE
  5
164
330
127
100
AcDbEntity
  8
0
  6
Continuous
 62
     0
370
    30
100
AcDbLine
 10
272.123495
 20
417.054214
 30
0.0
 11
257.112116
 21
406.439566
 31
0.0
  0
LINE
  5
165
330
127
100
AcDbEntity
  8
0
  6
Continuous
 62
     0
370
    30
100
AcDbLine
 10
286.457047
 20
427.189566
 30
0.0
 11
283.849526
 21
425.345771
 31
0.0
  0
LINE
  5
166
330
127
100
AcDbEntity
  8
0
  6
Continuous
 62
     0
370
    30
100
AcDbLine
 10
285.123495
 20
413.533775
 30
0.0
 11
285.123495
 21
422.516619
 31
0.0
  0
LINE
  5
167
330
127
100
AcDbEntity
  8
0
  6
Continuous
 62
     0
370
    30
100
AcDbLine
 10
272.123495
 20
413.533709
 30
0.0
 11
272.123495
 21
422.51662
 31
0.0
  0
LWPOLYLINE
  5
168
330
127
100
AcDbEntity
  8
0
  6
Continuous
 62
     0
370
    30
100
AcDbPolyline
 90
        4
 70
     0
 43
0.0
 10
272.080444
 20
413.265442
 10
272.089813
 20
413.291992
 10
272.107544
 20
413.363953
 10
272.123474
 20
413.532898
  0
LWPOLYLINE
  5
169
330
127
100
AcDbEntity
  8
0
  6
Continuous
 62
     0
370
     0
100
AcDbPolyline
 90
        7
 70
     0
 43
0.0
 10
272.123505
 20
342.829773
 10
272.167389
 20
342.489624
 10
272.306793
 20
342.13501
 10
272.547668
 20
341.760254
 10
272.895569
 20
341.36264
 10
273.350189
 20
340.944336
 10
274.027313
 20
340.424225
  0
LWPOLYLINE
  5
16A
330
127
100
AcDbEntity
  8
0
  6
Continuous
 62
     0
370
     0
100
AcDbPolyline
 90
       18
 70
     0
 43
0.0
 10
274.027313
 20
340.424225
 10
274.802429
 20
339.915405
 10
275.656036
 20
339.428619
 10
276.552704
 20
338.985779
 10
277.462677
 20
338.605011
 10
278.367615
 20
338.29892
 10
279.257996
 20
338.078339
 10
280.123749
 20
337.953857
 10
280.953583
 20
337.936096
 10
281.73645
 20
338.035248
 10
282.463348
 20
338.258301
 10
283.124054
 20
338.607941
 10
283.705444
 20
339.081146
 10
284.196991
 20
339.667114
 10
284.590363
 20
340.35022
 10
284.879395
 20
341.111694
 10
285.05896
 20
341.931854
 10
285.123505
 20
342.82309
  0
LWPOLYLINE
  5
16B
330
127
100
AcDbEntity
  8
0
  6
Continuous
 62
     0
370
     0
100
AcDbPolyline
 90
       30
 70
     0
 43
0.0
 10
286.048126
 20
346.095764
 10
286.738342
 20
345.510406
 10
287.303955
 20
344.825531
 10
287.737152
 20
344.062927
 10
288.039246
 20
343.246033
 10
288.215088
 20
342.394714
 10
288.271515
 20
341.525879
 10
288.216064
 20
340.653137
 10
288.055908
 20
339.788483
 10
287.796234
 20
338.941864
 10
287.441742
 20
338.122986
 10
286.996399
 20
337.341522
 10
286.464417
 20
336.607269
 10
285.850586
 20
335.929962
 10
285.160828
 20
335.318726
 10
284.402466
 20
334.781677
 10
283.584076
 20
334.324799
 10
282.715332
 20
333.951691
 10
281.803894
 20
333.663605
 10
280.855774
 20
333.459778
 10
279.878052
 20
333.338623
 10
278.878723
 20
333.298035
 10
277.865845
 20
333.335846
 10
276.847198
 20
333.44989
 10
275.828918
 20
333.638428
 10
274.818604
 20
333.899597
 10
273.830109
 20
334.231537
 10
272.881897
 20
334.630157
 10
271.997437
 20
335.087982
 10
271.198883
 20
335.595795
  0
LWPOLYLINE
  5
16C
330
127
100
AcDbEntity
  8
0
  6
Continuous
 62
     0
370
     0
100
AcDbPolyline
 90
        3
 70
     0
 43
0.0
 10
285.123505
 20
346.621796
 10
285.256378
 20
346.559937
 10
286.048126
 20
346.095764
  0
LWPOLYLINE
  5
16D
330
127
100
AcDbEntity
  8
0
  6
Continuous
 62
     0
370
     0
100
AcDbPolyline
 90
       14
 70
     0
 43
0.0
 10
271.198883
 20
335.595795
 10
270.460846
 20
336.183502
 10
269.868134
 20
336.796814
 10
269.428131
 20
337.421783
 10
269.140137
 20
338.047363
 10
268.99646
 20
338.667969
 10
268.987762
 20
339.282043
 10
269.105835
 20
339.892059
 10
269.343567
 20
340.499237
 10
269.694489
 20
341.10376
 10
270.152191
 20
341.705811
 10
270.710632
 20
342.305237
 10
271.364685
 20
342.901459
 10
272.123505
 20
343.503326
  0
ELLIPSE
  5
16E
330
127
100
AcDbEntity
  8
0
  6
Continuous
 62
     0
370
     0
100
AcDbEllipse
 10
278.623495
 20
351.805944
 30
0.0
 11
6.5
 21
0.0
 31
0.0
210
0.0
220
0.0
230
-1.0
 40
0.707107
 41
2.356194490192344
 42
3.141768617335876
  0
ELLIPSE
  5
16F
330
127
100
AcDbEntity
  8
0
  6
Continuous
 62
     0
370
     0
100
AcDbEllipse
 10
278.623495
 20
351.805944
 30
0.0
 11
6.5
 21
0.0
 31
0.0
210
0.0
220
0.0
230
-1.0
 40
0.707107
 41
6.259883631663962
 42
8.639379797371928
  0
LWPOLYLINE
  5
170
330
127
100
AcDbEntity
  8
0
  6
Continuous
 62
     0
370
     0
100
AcDbPolyline
 90
       22
 70
     0
 43
0.0
 10
282.86615
 20
355.159485
 10
283.409729
 20
354.718018
 10
283.881683
 20
354.202972
 10
284.255219
 20
353.622986
 10
284.506622
 20
352.992798
 10
284.6185
 20
352.332642
 10
284.582794
 20
351.666077
 10
284.402069
 20
351.017578
 10
284.089203
 20
350.409363
 10
283.665039
 20
349.859161
 10
283.155182
 20
349.378876
 10
282.578827
 20
348.969238
 10
281.903381
 20
348.606873
 10
281.128693
 20
348.304382
 10
280.271179
 20
348.079956
 10
279.355591
 20
347.948547
 10
278.413269
 20
347.919464
 10
277.478699
 20
347.994781
 10
276.585419
 20
348.169128
 10
275.762177
 20
348.430359
 10
275.030151
 20
348.761871
 10
274.380859
 20
349.159485
  0
LWPOLYLINE
  5
171
330
127
100
AcDbEntity
  8
0
  6
Continuous
 62
     0
370
     0
100
AcDbPolyline
 90
       22
 70
     0
 43
0.0
 10
274.380859
 20
349.159485
 10
273.83725
 20
349.600983
 10
273.365326
 20
350.116028
 10
272.99176
 20
350.696014
 10
272.740356
 20
351.326172
 10
272.628479
 20
351.986359
 10
272.664215
 20
352.652924
 10
272.84491
 20
353.301422
 10
273.157776
 20
353.909637
 10
273.58197
 20
354.459808
 10
274.091827
 20
354.940125
 10
274.668182
 20
355.349762
 10
275.343597
 20
355.712128
 10
276.118286
 20
356.014618
 10
276.97583
 20
356.239044
 10
277.891388
 20
356.370422
 10
278.83371
 20
356.399536
 10
279.76828
 20
356.324188
 10
280.66156
 20
356.149872
 10
281.484833
 20
355.888611
 10
282.216827
 20
355.557129
 10
282.86615
 20
355.159485
  0
ELLIPSE
  5
172
330
127
100
AcDbEntity
  8
0
  6
Continuous
 62
     0
370
     0
100
AcDbEllipse
 10
268.370447
 20
319.807207
 30
0.0
 11
-11.25833050130708
 21
15.92168314982242
 31
0.0
210
0.0
220
0.0
230
-1.0
 40
0.5
 41
6.278797903539179
 42
7.238501956972779
  0
ELLIPSE
  5
173
330
127
100
AcDbEntity
  8
0
  6
Continuous
 62
     0
370
     0
100
AcDbEllipse
 10
268.370447
 20
319.807207
 30
0.0
 11
-11.25833050130708
 21
15.92168314982242
 31
0.0
210
0.0
220
0.0
230
-1.0
 40
0.5
 41
0.9553166497931924
 42
3.147599293154387
  0
ELLIPSE
  5
174
330
127
100
AcDbEntity
  8
0
  6
Continuous
 62
     0
370
    30
100
AcDbEllipse
 10
297.715378
 20
340.557208
 30
0.0
 11
11.25833050130708
 21
-15.92168314982242
 31
0.0
210
0.0
220
0.0
230
1.0
 40
0.5
 41
0.0000000600677303
 42
2.186276003796699
  0
ELLIPSE
  5
175
330
127
100
AcDbEntity
  8
0
  6
Continuous
 62
     0
370
    30
100
AcDbEllipse
 10
297.715378
 20
340.557208
 30
0.0
 11
11.25833050130708
 21
-15.92168314982242
 31
0.0
210
0.0
220
0.0
230
1.0
 40
0.5
 41
2.186276003796699
 42
3.141592713657525
  0
LWPOLYLINE
  5
176
330
127
100
AcDbEntity
  8
0
  6
Continuous
 62
     0
370
     0
100
AcDbPolyline
 90
       38
 70
     0
 43
0.0
 10
268.016907
 20
332.992249
 10
269.058075
 20
332.215607
 10
270.123383
 20
331.336548
 10
271.202972
 20
330.356079
 10
272.285736
 20
329.277496
 10
273.359253
 20
328.106781
 10
274.4104
 20
326.852539
 10
275.42569
 20
325.52597
 10
276.391785
 20
324.140564
 10
277.296021
 20
322.711731
 10
278.127014
 20
321.256195
 10
278.875031
 20
319.791443
 10
279.53244
 20
318.33493
 10
280.093933
 20
316.903473
 10
280.556641
 20
315.512573
 10
280.920074
 20
314.175995
 10
281.185944
 20
312.905304
 10
281.357971
 20
311.709686
 10
281.441406
 20
310.596008
 10
281.442505
 20
309.561157
 10
281.36142
 20
308.564453
 10
281.191925
 20
307.610748
 10
280.92868
 20
306.714264
 10
280.567963
 20
305.889496
 10
280.107971
 20
305.150421
 10
279.549164
 20
304.510162
 10
278.894348
 20
303.980194
 10
278.148712
 20
303.569885
 10
277.319916
 20
303.286011
 10
276.417542
 20
303.132355
 10
275.452972
 20
303.109619
 10
274.438873
 20
303.215424
 10
273.388519
 20
303.444458
 10
272.31543
 20
303.788879
 10
271.232788
 20
304.23877
 10
270.152924
 20
304.782654
 10
269.087097
 20
305.408112
 10
268.016907
 20
306.122192
  0
LWPOLYLINE
  5
177
330
127
100
AcDbEntity
  8
0
  6
Continuous
 62
     0
370
     0
100
AcDbPolyline
 90
       38
 70
     0
 43
0.0
 10
268.016907
 20
306.122192
 10
266.975708
 20
306.898834
 10
265.9104
 20
307.777863
 10
264.830811
 20
308.758331
 10
263.748077
 20
309.836914
 10
262.674561
 20
311.007629
 10
261.623383
 20
312.261871
 10
260.608093
 20
313.58844
 10
259.641998
 20
314.973846
 10
258.737762
 20
316.402679
 10
257.906769
 20
317.858215
 10
257.158783
 20
319.322968
 10
256.501373
 20
320.77948
 10
255.939865
 20
322.210938
 10
255.477142
 20
323.601837
 10
255.113708
 20
324.938416
 10
254.847824
 20
326.209106
 10
254.675812
 20
327.404724
 10
254.592377
 20
328.518402
 10
254.591278
 20
329.553253
 10
254.672363
 20
330.549957
 10
254.841858
 20
331.503693
 10
255.105103
 20
332.400146
 10
255.46582
 20
333.224915
 10
255.925797
 20
333.963989
 10
256.484619
 20
334.604248
 10
257.139435
 20
335.134216
 10
257.885071
 20
335.544525
 10
258.713898
 20
335.82843
 10
259.616272
 20
335.982086
 10
260.580811
 20
336.004791
 10
261.59494
 20
335.898987
 10
262.645264
 20
335.669952
 10
263.718353
 20
335.325531
 10
264.800995
 20
334.875641
 10
265.880859
 20
334.331757
 10
266.946686
 20
333.706299
 10
268.016907
 20
332.992249
  0
LINE
  5
178
330
127
100
AcDbEntity
  8
0
  6
Continuous
 62
     0
370
    30
100
AcDbLine
 10
337.171936
 20
300.172929
 30
0.0
 11
337.171936
 21
356.741469
 31
0.0
  0
LINE
  5
179
330
127
100
AcDbEntity
  8
0
  6
Continuous
 62
     0
370
    30
100
AcDbLine
 10
337.171936
 20
356.741469
 30
0.0
 11
326.565334
 21
349.241469
 31
0.0
  0
LINE
  5
17A
330
127
100
AcDbEntity
  8
0
  6
Continuous
 62
     0
370
    30
100
AcDbLine
 10
326.565334
 20
349.241469
 30
0.0
 11
326.565334
 21
292.672928
 31
0.0
  0
LINE
  5
17B
330
127
100
AcDbEntity
  8
0
  6
Continuous
 62
     0
370
    30
100
AcDbLine
 10
326.565334
 20
292.672928
 30
0.0
 11
337.171936
 21
300.172929
 31
0.0
  0
LINE
  5
17C
330
127
100
AcDbEntity
  8
0
  6
Continuous
 62
     0
370
    30
100
AcDbLine
 10
337.171936
 20
356.741469
 30
0.0
 11
327.171938
 21
363.812536
 31
0.0
  0
LINE
  5
17D
330
127
100
AcDbEntity
  8
0
  6
Continuous
 62
     0
370
    30
100
AcDbLine
 10
285.168557
 20
378.513412
 30
0.0
 11
326.565334
 21
349.241469
 31
0.0
  0
LINE
  5
17E
330
127
100
AcDbEntity
  8
0
  6
Continuous
 62
     0
370
    30
100
AcDbLine
 10
269.996792
 20
344.839729
 30
0.0
 11
269.996792
 21
375.454825
 31
0.0
  0
LINE
  5
17F
330
127
100
AcDbEntity
  8
0
  6
Continuous
 62
     0
370
    30
100
AcDbLine
 10
295.168556
 20
314.873804
 30
0.0
 11
326.565334
 21
292.672928
 31
0.0
  0
LWPOLYLINE
  5
180
330
127
100
AcDbEntity
  8
0
  6
Continuous
 62
     0
370
    30
100
AcDbPolyline
 90
       22
 70
     0
 43
0.0
 10
285.123505
 20
351.802643
 10
285.047699
 20
352.527649
 10
284.824829
 20
353.23288
 10
284.461731
 20
353.89975
 10
283.968964
 20
354.513367
 10
283.360138
 20
355.062225
 10
282.649017
 20
355.536163
 10
281.851715
 20
355.926849
 10
280.985382
 20
356.226959
 10
280.068054
 20
356.430481
 10
279.11969
 20
356.534546
 10
278.160706
 20
356.536774
 10
277.211731
 20
356.43631
 10
276.293213
 20
356.235596
 10
275.424561
 20
355.938934
 10
274.624542
 20
355.551483
 10
273.910217
 20
355.080231
 10
273.297394
 20
354.533844
 10
272.800476
 20
353.922455
 10
272.432281
 20
353.257233
 10
272.203796
 20
352.552917
 10
272.123505
 20
351.805908
  0
LWPOLYLINE
  5
181
330
127
100
AcDbEntity
  8
0
  6
Continuous
 62
     0
370
    30
100
AcDbPolyline
 90
       12
 70
     0
 43
0.0
 10
268.081787
 20
305.963959
 10
269.277527
 20
305.170746
 10
270.467102
 20
304.486053
 10
271.642303
 20
303.915283
 10
272.795288
 20
303.463013
 10
273.91861
 20
303.133087
 10
275.005432
 20
302.928772
 10
276.048523
 20
302.853241
 10
277.039825
 20
302.909058
 10
277.971802
 20
303.098633
 10
278.835693
 20
303.422729
 10
279.629211
 20
303.885864
  0
LWPOLYLINE
  5
182
330
127
100
AcDbEntity
  8
0
  6
Continuous
 62
     0
370
    30
100
AcDbPolyline
 90
       26
 70
     0
 43
0.0
 10
257.111694
 20
335.728577
 10
256.416962
 20
335.141022
 10
255.820709
 20
334.432922
 10
255.329391
 20
333.614838
 10
254.944733
 20
332.695435
 10
254.667633
 20
331.683075
 10
254.498215
 20
330.585815
 10
254.435913
 20
329.411438
 10
254.479721
 20
328.168182
 10
254.628357
 20
326.864502
 10
254.880402
 20
325.509003
 10
255.233521
 20
324.111237
 10
255.684921
 20
322.681335
 10
256.23111
 20
321.229675
 10
256.867645
 20
319.766968
 10
257.589996
 20
318.304016
 10
258.3927
 20
316.851685
 10
259.269348
 20
315.420837
 10
260.213593
 20
314.022308
 10
261.218323
 20
312.666687
 10
262.275848
 20
311.364044
 10
263.378296
 20
310.124359
 10
264.517365
 20
308.956909
 10
265.684631
 20
307.870544
 10
266.87146
 20
306.873444
 10
268.081787
 20
305.963959
  0
LINE
  5
183
330
127
100
AcDbEntity
  8
0
  6
Continuous
 62
     0
370
    30
100
AcDbLine
 10
308.973709
 20
324.635525
 30
0.0
 11
279.628778
 21
303.885524
 31
0.0
  0
LINE
  5
184
330
127
100
AcDbEntity
  8
0
  6
Continuous
 62
     0
370
    30
100
AcDbLine
 10
272.123495
 20
346.343539
 30
0.0
 11
257.112116
 21
335.72889
 31
0.0
  0
LINE
  5
185
330
127
100
AcDbEntity
  8
0
  6
Continuous
 62
     0
370
    30
100
AcDbLine
 10
286.457047
 20
356.478891
 30
0.0
 11
283.849526
 21
354.635095
 31
0.0
  0
LINE
  5
186
330
127
100
AcDbEntity
  8
0
  6
Continuous
 62
     0
370
    30
100
AcDbLine
 10
285.123495
 20
342.823099
 30
0.0
 11
285.123495
 21
351.805944
 31
0.0
  0
LINE
  5
187
330
127
100
AcDbEntity
  8
0
  6
Continuous
 62
     0
370
    30
100
AcDbLine
 10
272.123495
 20
342.823034
 30
0.0
 11
272.123495
 21
351.805944
 31
0.0
  0
LWPOLYLINE
  5
188
330
127
100
AcDbEntity
  8
0
  6
Continuous
 62
     0
370
    30
100
AcDbPolyline
 90
        4
 70
     0
 43
0.0
 10
272.080444
 20
342.554779
 10
272.089813
 20
342.581329
 10
272.107544
 20
342.653259
 10
272.123474
 20
342.822235
  0
ELLIPSE
  5
189
330
127
100
AcDbEntity
  8
0
  6
Continuous
 62
     0
370
    30
100
AcDbEllipse
 10
297.043629
 20
234.369758
 30
0.0
 11
11.25833050130781
 21
-15.92168314982345
 31
0.0
210
0.0
220
0.0
230
0.9999999999999998
 40
0.5
 41
0.6154796770017033
 42
3.141592713657523
  0
ELLIPSE
  5
18A
330
127
100
AcDbEntity
  8
0
  6
Continuous
 62
     0
370
    30
100
AcDbEllipse
 10
297.043629
 20
234.369758
 30
0.0
 11
11.25833050130781
 21
-15.92168314982345
 31
0.0
210
0.0
220
0.0
230
0.9999999999999998
 40
0.5
 41
0.0000000600677303
 42
0.6154796770017033
  0
LWPOLYLINE
  5
18B
330
127
100
AcDbEntity
  8
0
  6
Continuous
 62
     0
370
    30
100
AcDbPolyline
 90
       17
 70
     0
 43
0.0
 10
278.977051
 20
240.22702
 10
278.493866
 20
240.511414
 10
277.911133
 20
240.739853
 10
277.25
 20
240.888962
 10
276.545135
 20
240.941544
 10
275.839783
 20
240.891129
 10
275.177307
 20
240.743927
 10
274.592651
 20
240.516953
 10
274.107208
 20
240.23349
 10
273.703705
 20
239.893387
 10
273.378601
 20
239.482727
 10
273.165039
 20
239.016174
 10
273.087616
 20
238.518112
 10
273.155823
 20
238.019043
 10
273.361298
 20
237.549667
 10
273.680206
 20
237.134888
 10
274.098022
 20
236.777023
  0
LWPOLYLINE
  5
18C
330
127
100
AcDbEntity
  8
0
  6
Continuous
 62
     0
370
    30
100
AcDbPolyline
 90
       17
 70
     0
 43
0.0
 10
274.098022
 20
236.777023
 10
274.581238
 20
236.49263
 10
275.16394
 20
236.264206
 10
275.825104
 20
236.115097
 10
276.529968
 20
236.062515
 10
277.235291
 20
236.112915
 10
277.897766
 20
236.260117
 10
278.482422
 20
236.487091
 10
278.967865
 20
236.770554
 10
279.371399
 20
237.110657
 10
279.696472
 20
237.521317
 10
279.910034
 20
237.987869
 10
279.987457
 20
238.485931
 10
279.91925
 20
238.985001
 10
279.713776
 20
239.454391
 10
279.394867
 20
239.869171
 10
278.977051
 20
240.22702
  0
LWPOLYLINE
  5
18D
330
127
100
AcDbEntity
  8
0
  6
Continuous
 62
     0
370
    30
100
AcDbPolyline
 90
       18
 70
     0
 43
0.0
 10
279.330627
 20
240.123474
 10
279.766388
 20
239.75737
 10
280.12384
 20
239.319168
 10
280.37088
 20
238.822235
 10
280.482544
 20
238.288925
 10
280.446686
 20
237.747757
 10
280.267242
 20
237.228729
 10
279.963165
 20
236.757874
 10
279.563751
 20
236.353394
 10
279.094086
 20
236.019333
 10
278.525604
 20
235.73497
 10
277.86264
 20
235.517258
 10
277.130402
 20
235.387039
 10
276.365479
 20
235.358047
 10
275.610168
 20
235.433472
 10
274.905029
 20
235.605118
 10
274.282043
 20
235.85553
 10
273.744476
 20
236.173477
  0
LWPOLYLINE
  5
18E
330
127
100
AcDbEntity
  8
0
  6
Continuous
 62
     0
370
    30
100
AcDbPolyline
 90
       18
 70
     0
 43
0.0
 10
273.744476
 20
236.173477
 10
273.308716
 20
236.539566
 10
272.951263
 20
236.977783
 10
272.704193
 20
237.474701
 10
272.592529
 20
238.008026
 10
272.628418
 20
238.549179
 10
272.807831
 20
239.068222
 10
273.111908
 20
239.539062
 10
273.511353
 20
239.943558
 10
273.980988
 20
240.277618
 10
274.549469
 20
240.561981
 10
275.212463
 20
240.779694
 10
275.944672
 20
240.909912
 10
276.709595
 20
240.938889
 10
277.464935
 20
240.86348
 10
278.170074
 20
240.691833
 10
278.79306
 20
240.441422
 10
279.330627
 20
240.123474
  0
LWPOLYLINE
  5
18F
330
127
100
AcDbEntity
  8
0
  6
Continuous
 62
     0
370
    30
100
AcDbPolyline
 90
       13
 70
     0
 43
0.0
 10
273.744476
 20
231.68335
 10
274.340118
 20
231.326843
 10
275.024841
 20
231.036896
 10
275.765259
 20
230.831528
 10
276.531799
 20
230.723404
 10
277.298401
 20
230.721695
 10
278.037781
 20
230.832199
 10
278.721161
 20
231.056564
 10
279.321289
 20
231.391998
 10
279.815063
 20
231.824478
 10
280.181519
 20
232.336914
 10
280.408417
 20
232.904984
 10
280.487427
 20
233.516174
  0
LWPOLYLINE
  5
190
330
127
100
AcDbEntity
  8
0
  6
Continuous
 62
     0
370
    30
100
AcDbPolyline
 90
        5
 70
     0
 43
0.0
 10
272.587555
 20
233.539398
 10
272.656616
 20
233.04747
 10
272.877563
 20
232.565323
 10
273.242615
 20
232.106918
 10
273.744476
 20
231.68335
  0
ELLIPSE
  5
191
330
127
100
AcDbEntity
  8
0
  6
Continuous
 62
     0
370
     0
100
AcDbEllipse
 10
269.112911
 20
214.619757
 30
0.0
 11
-11.25833050130781
 21
15.92168314982345
 31
0.0
210
0.0
220
0.0
230
-0.9999999999999998
 40
0.5
 41
6.27976773769637
 42
8.809298283767676
  0
ELLIPSE
  5
192
330
127
100
AcDbEntity
  8
0
  6
Continuous
 62
     0
370
     0
100
AcDbEllipse
 10
269.112911
 20
214.619757
 30
0.0
 11
-11.25833050130781
 21
15.92168314982345
 31
0.0
210
0.0
220
0.0
230
-0.9999999999999998
 40
0.5
 41
2.526112976588089
 42
3.147374769979828
  0
ELLIPSE
  5
193
330
127
100
AcDbEntity
  8
0
  6
Continuous
 62
     0
370
     0
100
AcDbEllipse
 10
268.759357
 20
214.369757
 30
0.0
 11
-10.96965536024866
 21
15.51343486393057
 31
0.0
210
0.0
220
0.0
230
-1.0
 40
0.5
 41
2.526112976588089
 42
5.667705630177882
  0
ELLIPSE
  5
194
330
127
100
AcDbEntity
  8
0
  6
Continuous
 62
     0
370
     0
100
AcDbEllipse
 10
268.759357
 20
214.369757
 30
0.0
 11
-10.96965536024866
 21
15.51343486393057
 31
0.0
210
0.0
220
0.0
230
-1.0
 40
0.5
 41
5.667705630177883
 42
8.809298283767674
  0
LINE
  5
195
330
127
100
AcDbEntity
  8
0
  6
Continuous
 62
     0
370
    30
100
AcDbLine
 10
344.808689
 20
175.62544
 30
0.0
 11
344.808689
 21
258.35693
 31
0.0
  0
LINE
  5
196
330
127
100
AcDbEntity
  8
0
  6
Continuous
 62
     0
370
    30
100
AcDbLine
 10
344.808689
 20
258.35693
 30
0.0
 11
334.202087
 21
250.85693
 31
0.0
  0
LINE
  5
197
330
127
100
AcDbEntity
  8
0
  6
Continuous
 62
     0
370
    30
100
AcDbLine
 10
334.202087
 20
250.85693
 30
0.0
 11
334.202087
 21
168.12544
 31
0.0
  0
LINE
  5
198
330
127
100
AcDbEntity
  8
0
  6
Continuous
 62
     0
370
    30
100
AcDbLine
 10
334.202087
 20
168.12544
 30
0.0
 11
344.808689
 21
175.62544
 31
0.0
  0
LINE
  5
199
330
127
100
AcDbEntity
  8
0
  6
Continuous
 62
     0
370
    30
100
AcDbLine
 10
344.808689
 20
258.35693
 30
0.0
 11
280.025162
 21
304.165803
 31
0.0
  0
LINE
  5
19A
330
127
100
AcDbEntity
  8
0
  6
Continuous
 62
     0
370
    30
100
AcDbLine
 10
268.267316
 20
305.834008
 30
0.0
 11
262.360039
 21
301.656932
 31
0.0
  0
LINE
  5
19B
330
127
100
AcDbEntity
  8
0
  6
Continuous
 62
     0
370
    30
100
AcDbLine
 10
262.360039
 20
301.656932
 30
0.0
 11
334.202087
 21
250.85693
 31
0.0
  0
LINE
  5
19C
330
127
100
AcDbEntity
  8
0
  6
Continuous
 62
     0
370
    30
100
AcDbLine
 10
262.360039
 20
233.727276
 30
0.0
 11
262.360039
 21
301.656932
 31
0.0
  0
LINE
  5
19D
330
127
100
AcDbEntity
  8
0
  6
Continuous
 62
     0
370
    30
100
AcDbLine
 10
285.668551
 20
202.443834
 30
0.0
 11
334.202087
 21
168.12544
 31
0.0
  0
ELLIPSE
  5
19E
330
127
100
AcDbEntity
  8
0
  6
Continuous
 62
     0
370
    30
100
AcDbEllipse
 10
297.573956
 20
234.744739
 30
0.0
 11
10.96965536024792
 21
-15.51343486392953
 31
0.0
210
0.0
220
0.0
230
1.0
 40
0.5
 41
0.3637462579762181
 42
2.1862760037966
  0
ELLIPSE
  5
19F
330
127
100
AcDbEntity
  8
0
  6
Continuous
 62
     0
370
    30
100
AcDbEllipse
 10
297.573956
 20
234.744739
 30
0.0
 11
10.96965536024792
 21
-15.51343486392953
 31
0.0
210
0.0
220
0.0
230
1.0
 40
0.5
 41
2.186276003796601
 42
2.777824940821109
  0
ELLIPSE
  5
1A0
330
127
100
AcDbEntity
  8
0
  6
Continuous
 62
     0
370
    30
100
AcDbEllipse
 10
298.281063
 20
235.244739
 30
0.0
 11
10.96965536024792
 21
-15.51343486392953
 31
0.0
210
0.0
220
0.0
230
1.0
 40
0.5
 41
2.186276003796601
 42
3.054112265376037
  0
ELLIPSE
  5
1A1
330
127
100
AcDbEntity
  8
0
  6
Continuous
 62
     0
370
    30
100
AcDbEllipse
 10
298.281063
 20
235.244739
 30
0.0
 11
10.96965536024792
 21
-15.51343486392953
 31
0.0
210
0.0
220
0.0
230
1.0
 40
0.5
 41
0.0874712620572256
 42
2.1862760037966
  0
LWPOLYLINE
  5
1A2
330
127
100
AcDbEntity
  8
0
  6
Continuous
 62
     0
370
    30
100
AcDbPolyline
 90
        9
 70
     0
 43
0.0
 10
255.177887
 20
224.119751
 10
255.218063
 20
225.148911
 10
255.338882
 20
226.121704
 10
255.540634
 20
227.032593
 10
255.823563
 20
227.876251
 10
256.187653
 20
228.647293
 10
256.63208
 20
229.340225
 10
257.155487
 20
229.949371
 10
257.854248
 20
230.541183
  0
LWPOLYLINE
  5
1A3
330
127
100
AcDbEntity
  8
0
  6
Continuous
 62
     0
370
    30
100
AcDbPolyline
 90
       30
 70
     0
 43
0.0
 10
280.371674
 20
198.698395
 10
279.589691
 20
198.240768
 10
278.727356
 20
197.914871
 10
277.796722
 20
197.723572
 10
276.806549
 20
197.665619
 10
275.764893
 20
197.738983
 10
274.679291
 20
197.941177
 10
273.556824
 20
198.269119
 10
272.404816
 20
198.719162
 10
271.230652
 20
199.287399
 10
270.04187
 20
199.969696
 10
268.84668
 20
200.760666
 10
267.653564
 20
201.654495
 10
266.471008
 20
202.64447
 10
265.307526
 20
203.723007
 10
264.171722
 20
204.882401
 10
263.071838
 20
206.113922
 10
262.015991
 20
207.408173
 10
261.012207
 20
208.755707
 10
260.067932
 20
210.146332
 10
259.190308
 20
211.569626
 10
258.385864
 20
213.014999
 10
257.660431
 20
214.471695
 10
257.019684
 20
215.92894
 10
256.468445
 20
217.376007
 10
256.010925
 20
218.802231
 10
255.650665
 20
220.197327
 10
255.390244
 20
221.551773
 10
255.23204
 20
222.856064
 10
255.177887
 20
224.119751
  0
LINE
  5
1A4
330
127
100
AcDbEntity
  8
0
  6
Continuous
 62
     0
370
    30
100
AcDbLine
 10
308.30196
 20
218.448075
 30
0.0
 11
280.371242
 21
198.698075
 31
0.0
  0
LINE
  5
1A5
330
127
100
AcDbEntity
  8
0
  6
Continuous
 62
     0
370
    30
100
AcDbLine
 10
285.785298
 20
250.291441
 30
0.0
 11
257.85458
 21
230.54144
 31
0.0
  0
LINE
  5
1A6
330
127
100
AcDbEntity
  8
0
  6
Continuous
 62
     0
370
    30
100
AcDbLine
 10
272.587541
 20
238.148473
 30
0.0
 11
272.587541
 21
233.51627
 31
0.0
  0
LINE
  5
1A7
330
127
100
AcDbEntity
  8
0
  6
Continuous
 62
     0
370
    30
100
AcDbLine
 10
280.487541
 20
238.148473
 30
0.0
 11
280.487541
 21
233.516182
 31
0.0
  0
ENDBLK
  5
1A9
330
127
100
AcDbEntity
  8
0
100
AcDbBlockEnd
  0
BLOCK
  5
215
330
1AB
100
AcDbEntity
  8
0
100
AcDbBlockBegin
  2
e
 70
     0
 10
-35.321274
 20
-0.000061
 30
0.0
  3
e
  1

  0
ARC
  5
1AC
330
1AB
100
AcDbEntity
  8
0
  6
Continuous
 62
     0
370
    30
100
AcDbCircle
 10
-125.313359
 20
1084.119671
 30
0.0
 40
4.00000000000335
100
AcDbArc
 50
270.0
 51
360.0
  0
LWPOLYLINE
  5
1AD
330
1AB
100
AcDbEntity
  8
0
  6
Continuous
 62
     0
370
     0
100
AcDbPolyline
 90
       26
 70
     0
 43
0.0
 10
-121.313362
 20
1084.119629
 10
-121.249496
 20
1084.073608
 10
-121.063118
 20
1083.941772
 10
-120.766403
 20
1083.738403
 10
-120.375229
 20
1083.482788
 10
-119.90506
 20
1083.194946
 10
-119.367226
 20
1082.893188
 10
-118.770248
 20
1082.594116
 10
-118.122993
 20
1082.31311
 10
-117.434402
 20
1082.065674
 10
-116.713188
 20
1081.866333
 10
-115.966606
 20
1081.725952
 10
-115.202713
 20
1081.653076
 10
-114.432991
 20
1081.652588
 10
-113.669014
 20
1081.724731
 10
-112.921738
 20
1081.864502
 10
-112.20076
 20
1082.062866
 10
-111.514519
 20
1082.30835
 10
-110.869926
 20
1082.587402
 10
-110.274101
 20
1082.885498
 10
-109.735001
 20
1083.187256
 10
-109.262611
 20
1083.475708
 10
-108.86927
 20
1083.732422
 10
-108.569885
 20
1083.9375
 10
-108.380386
 20
1084.071411
 10
-108.313362
 20
1084.119629
  0
LWPOLYLINE
  5
1AE
330
1AB
100
AcDbEntity
  8
0
  6
Continuous
 62
     0
370
     0
100
AcDbPolyline
 90
       30
 70
     0
 43
0.0
 10
-104.313362
 20
1080.119629
 10
-104.390511
 20
1080.091187
 10
-104.616928
 20
1080.008423
 10
-104.981155
 20
1079.878174
 10
-105.466331
 20
1079.711182
 10
-106.056496
 20
1079.5177
 10
-106.737068
 20
1079.307983
 10
-107.495895
 20
1079.091431
 10
-108.322517
 20
1078.877441
 10
-109.208984
 20
1078.674194
 10
-110.147858
 20
1078.48938
 10
-111.131836
 20
1078.330444
 10
-112.152939
 20
1078.204224
 10
-113.202103
 20
1078.116211
 10
-114.269043
 20
1078.070923
 10
-115.342117
 20
1078.070679
 10
-116.409279
 20
1078.115356
 10
-117.458321
 20
1078.202515
 10
-118.47979
 20
1078.328247
 10
-119.466591
 20
1078.487427
 10
-120.410423
 20
1078.673096
 10
-121.302025
 20
1078.877319
 10
-122.132118
 20
1079.091797
 10
-122.891487
 20
1079.30835
 10
-123.571304
 20
1079.518066
 10
-124.161362
 20
1079.711548
 10
-124.646492
 20
1079.87854
 10
-125.010254
 20
1080.008545
 10
-125.236229
 20
1080.091064
 10
-125.313362
 20
1080.119629
  0
LINE
  5
1AF
330
1AB
100
AcDbEntity
  8
0
  6
Continuous
 62
     0
370
    30
100
AcDbLine
 10
-121.313359
 20
1084.119671
 30
0.0
 11
-121.313359
 21
1095.619671
 31
0.0
  0
LINE
  5
1B0
330
1AB
100
AcDbEntity
  8
0
  6
Continuous
 62
     0
370
     0
100
AcDbLine
 10
-108.313359
 20
1095.619671
 30
0.0
 11
-121.313359
 21
1095.619671
 31
0.0
  0
LINE
  5
1B1
330
1AB
100
AcDbEntity
  8
0
  6
Continuous
 62
     0
370
    30
100
AcDbLine
 10
-108.813359
 20
1096.119671
 30
0.0
 11
-120.813359
 21
1096.119671
 31
0.0
  0
LINE
  5
1B2
330
1AB
100
AcDbEntity
  8
0
  6
Continuous
 62
     0
370
    30
100
AcDbLine
 10
-87.813359
 20
1041.119671
 30
0.0
 11
-112.913359
 21
1041.119671
 31
0.0
  0
LINE
  5
1B3
330
1AB
100
AcDbEntity
  8
0
  6
Continuous
 62
     0
370
    30
100
AcDbLine
 10
-123.113359
 20
1041.119671
 30
0.0
 11
-129.313359
 21
1041.119671
 31
0.0
  0
LINE
  5
1B4
330
1AB
100
AcDbEntity
  8
0
  6
Continuous
 62
     0
370
     0
100
AcDbLine
 10
-129.313359
 20
1080.119671
 30
0.0
 11
-129.313359
 21
1041.119671
 31
0.0
  0
LWPOLYLINE
  5
1B5
330
1AB
100
AcDbEntity
  8
0
  6
Continuous
 62
     0
370
    30
100
AcDbPolyline
 90
       22
 70
     0
 43
0.0
 10
-123.113358
 20
1041.119629
 10
-123.055855
 20
1041.134521
 10
-122.885902
 20
1041.177734
 10
-122.608765
 20
1041.245605
 10
-122.229195
 20
1041.332031
 10
-121.756775
 20
1041.429688
 10
-121.200302
 20
1041.530396
 10
-120.572021
 20
1041.625244
 10
-119.885666
 20
1041.705444
 10
-119.15612
 20
1041.763672
 10
-118.39962
 20
1041.794312
 10
-117.633667
 20
1041.794434
 10
-116.877029
 20
1041.764038
 10
-116.147186
 20
1041.706055
 10
-115.46035
 20
1041.625977
 10
-114.831459
 20
1041.53125
 10
-114.274338
 20
1041.430664
 10
-113.801254
 20
1041.332886
 10
-113.420738
 20
1041.246216
 10
-113.142754
 20
1041.178223
 10
-112.971848
 20
1041.134766
 10
-112.913361
 20
1041.119629
  0
LINE
  5
1B6
330
1AB
100
AcDbEntity
  8
0
  6
Continuous
 62
     0
370
    30
100
AcDbLine
 10
-87.813359
 20
1041.119671
 30
0.0
 11
-87.813359
 21
1080.119671
 31
0.0
  0
LINE
  5
1B7
330
1AB
100
AcDbEntity
  8
0
  6
Continuous
 62
     0
370
    30
100
AcDbLine
 10
-129.813359
 20
1079.619671
 30
0.0
 11
-129.813359
 21
1041.619671
 31
0.0
  0
ARC
  5
1B8
330
1AB
100
AcDbEntity
  8
0
  6
Continuous
 62
     0
370
    30
100
AcDbCircle
 10
-129.313359
 20
1041.619671
 30
0.0
 40
0.4999999999914344
100
AcDbArc
 50
180.0
 51
270.0
  0
ARC
  5
1B9
330
1AB
100
AcDbEntity
  8
0
  6
Continuous
 62
     0
370
    30
100
AcDbCircle
 10
-120.813359
 20
1095.619671
 30
0.0
 40
0.5000000000142928
100
AcDbArc
 50
90.000081
 51
180.0
  0
LINE
  5
1BA
330
1AB
100
AcDbEntity
  8
0
  6
Continuous
 62
     0
370
    30
100
AcDbLine
 10
-72.013361
 20
1020.619659
 30
0.0
 11
-72.013361
 21
1100.619659
 31
0.0
  0
LINE
  5
1BB
330
1AB
100
AcDbEntity
  8
0
  6
Continuous
 62
     0
370
    30
100
AcDbLine
 10
-72.013361
 20
1100.619659
 30
0.0
 11
-87.013361
 21
1100.619659
 31
0.0
  0
LINE
  5
1BC
330
1AB
100
AcDbEntity
  8
0
  6
Continuous
 62
     0
370
    30
100
AcDbLine
 10
-87.013361
 20
1100.619659
 30
0.0
 11
-87.013361
 21
1020.619659
 31
0.0
  0
LINE
  5
1BD
330
1AB
100
AcDbEntity
  8
0
  6
Continuous
 62
     0
370
    30
100
AcDbLine
 10
-87.013361
 20
1020.619659
 30
0.0
 11
-72.013361
 21
1020.619659
 31
0.0
  0
LINE
  5
1BE
330
1AB
100
AcDbEntity
  8
0
  6
Continuous
 62
     0
370
    30
100
AcDbLine
 10
-87.013359
 20
1054.119659
 30
0.0
 11
-87.813359
 21
1054.119659
 31
0.0
  0
LINE
  5
1BF
330
1AB
100
AcDbEntity
  8
0
  6
Continuous
 62
     0
370
    30
100
AcDbLine
 10
-87.013359
 20
1067.119659
 30
0.0
 11
-87.813359
 21
1067.119659
 31
0.0
  0
ARC
  5
1C0
330
1AB
100
AcDbEntity
  8
0
  6
Continuous
 62
     0
370
    30
100
AcDbCircle
 10
-108.813362
 20
1095.619667
 30
0.0
 40
0.5000034422221753
100
AcDbArc
 50
0.000394
 51
89.999606
  0
ARC
  5
1C1
330
1AB
100
AcDbEntity
  8
0
  6
Continuous
 62
     0
370
    30
100
AcDbCircle
 10
-129.313356
 20
1079.619668
 30
0.0
 40
0.500002698105295
100
AcDbArc
 50
90.000309
 51
179.999691
  0
LINE
  5
1C2
330
1AB
100
AcDbEntity
  8
0
  6
Continuous
 62
     0
370
    30
100
AcDbLine
 10
-87.813359
 20
1080.119671
 30
0.0
 11
-104.313365
 21
1080.119671
 31
0.0
  0
LINE
  5
1C3
330
1AB
100
AcDbEntity
  8
0
  6
Continuous
 62
     0
370
    30
100
AcDbLine
 10
-125.313359
 20
1080.119671
 30
0.0
 11
-129.313359
 21
1080.119671
 31
0.0
  0
LINE
  5
1C4
330
1AB
100
AcDbEntity
  8
0
  6
Continuous
 62
     0
370
    30
100
AcDbLine
 10
-108.313359
 20
1084.119671
 30
0.0
 11
-108.313359
 21
1095.619671
 31
0.0
  0
ARC
  5
1C5
330
1AB
100
AcDbEntity
  8
0
  6
Continuous
 62
     0
370
    30
100
AcDbCircle
 10
-104.31334
 20
1084.119683
 30
0.0
 40
4.000019079312565
100
AcDbArc
 50
180.000171
 51
269.999643
  0
ARC
  5
1C6
330
1AB
100
AcDbEntity
  8
0
  6
Continuous
 62
     0
370
    30
100
AcDbCircle
 10
-125.313359
 20
984.119671
 30
0.0
 40
3.999999999998796
100
AcDbArc
 50
270.0
 51
360.0
  0
LWPOLYLINE
  5
1C7
330
1AB
100
AcDbEntity
  8
0
  6
Continuous
 62
     0
370
     0
100
AcDbPolyline
 90
       26
 70
     0
 43
0.0
 10
-121.313362
 20
984.11969
 10
-121.249496
 20
984.073608
 10
-121.063118
 20
983.941711
 10
-120.766403
 20
983.738403
 10
-120.375229
 20
983.482849
 10
-119.90506
 20
983.195007
 10
-119.367226
 20
982.893188
 10
-118.770248
 20
982.594116
 10
-118.122993
 20
982.313171
 10
-117.434402
 20
982.065613
 10
-116.713188
 20
981.866272
 10
-115.966606
 20
981.726013
 10
-115.202713
 20
981.653076
 10
-114.432991
 20
981.652649
 10
-113.669014
 20
981.724731
 10
-112.921738
 20
981.864502
 10
-112.20076
 20
982.062866
 10
-111.514519
 20
982.30835
 10
-110.869926
 20
982.587402
 10
-110.274101
 20
982.885498
 10
-109.735001
 20
983.187256
 10
-109.262611
 20
983.475647
 10
-108.86927
 20
983.732422
 10
-108.569885
 20
983.937439
 10
-108.380386
 20
984.071472
 10
-108.313362
 20
984.11969
  0
LWPOLYLINE
  5
1C8
330
1AB
100
AcDbEntity
  8
0
  6
Continuous
 62
     0
370
     0
100
AcDbPolyline
 90
       30
 70
     0
 43
0.0
 10
-104.313362
 20
980.11969
 10
-104.390511
 20
980.091125
 10
-104.616928
 20
980.008362
 10
-104.981155
 20
979.878235
 10
-105.466331
 20
979.711182
 10
-106.056496
 20
979.517761
 10
-106.737068
 20
979.307922
 10
-107.495895
 20
979.091431
 10
-108.322517
 20
978.877441
 10
-109.208984
 20
978.674194
 10
-110.147858
 20
978.48938
 10
-111.131836
 20
978.330444
 10
-112.152939
 20
978.204163
 10
-113.202103
 20
978.116211
 10
-114.269043
 20
978.070923
 10
-115.342117
 20
978.070618
 10
-116.409279
 20
978.115356
 10
-117.458321
 20
978.202515
 10
-118.47979
 20
978.328186
 10
-119.466591
 20
978.487366
 10
-120.410423
 20
978.673096
 10
-121.302025
 20
978.877258
 10
-122.132118
 20
979.091797
 10
-122.891487
 20
979.30835
 10
-123.571304
 20
979.518066
 10
-124.161362
 20
979.711548
 10
-124.646492
 20
979.87854
 10
-125.010254
 20
980.008484
 10
-125.236229
 20
980.091064
 10
-125.313362
 20
980.11969
  0
LINE
  5
1C9
330
1AB
100
AcDbEntity
  8
0
  6
Continuous
 62
     0
370
    30
100
AcDbLine
 10
-121.313359
 20
984.119671
 30
0.0
 11
-121.313359
 21
995.619671
 31
0.0
  0
LINE
  5
1CA
330
1AB
100
AcDbEntity
  8
0
  6
Continuous
 62
     0
370
     0
100
AcDbLine
 10
-108.313359
 20
995.619671
 30
0.0
 11
-121.313359
 21
995.619671
 31
0.0
  0
LINE
  5
1CB
330
1AB
100
AcDbEntity
  8
0
  6
Continuous
 62
     0
370
    30
100
AcDbLine
 10
-108.813359
 20
996.119671
 30
0.0
 11
-120.813359
 21
996.119671
 31
0.0
  0
LINE
  5
1CC
330
1AB
100
AcDbEntity
  8
0
  6
Continuous
 62
     0
370
    30
100
AcDbLine
 10
-87.813359
 20
941.119671
 30
0.0
 11
-112.913359
 21
941.119671
 31
0.0
  0
LINE
  5
1CD
330
1AB
100
AcDbEntity
  8
0
  6
Continuous
 62
     0
370
    30
100
AcDbLine
 10
-123.113359
 20
941.119671
 30
0.0
 11
-129.313359
 21
941.119671
 31
0.0
  0
LINE
  5
1CE
330
1AB
100
AcDbEntity
  8
0
  6
Continuous
 62
     0
370
     0
100
AcDbLine
 10
-129.313359
 20
980.119671
 30
0.0
 11
-129.313359
 21
941.119671
 31
0.0
  0
LWPOLYLINE
  5
1CF
330
1AB
100
AcDbEntity
  8
0
  6
Continuous
 62
     0
370
    30
100
AcDbPolyline
 90
       22
 70
     0
 43
0.0
 10
-123.113358
 20
941.11969
 10
-123.055855
 20
941.134521
 10
-122.885902
 20
941.177734
 10
-122.608765
 20
941.245544
 10
-122.229195
 20
941.332031
 10
-121.756775
 20
941.429749
 10
-121.200302
 20
941.530396
 10
-120.572021
 20
941.625244
 10
-119.885666
 20
941.705444
 10
-119.15612
 20
941.763672
 10
-118.39962
 20
941.794373
 10
-117.633667
 20
941.794495
 10
-116.877029
 20
941.764099
 10
-116.147186
 20
941.706055
 10
-115.46035
 20
941.626038
 10
-114.831459
 20
941.53125
 10
-114.274338
 20
941.430603
 10
-113.801254
 20
941.332825
 10
-113.420738
 20
941.246216
 10
-113.142754
 20
941.178223
 10
-112.971848
 20
941.134766
 10
-112.913361
 20
941.11969
  0
LINE
  5
1D0
330
1AB
100
AcDbEntity
  8
0
  6
Continuous
 62
     0
370
    30
100
AcDbLine
 10
-87.813359
 20
941.119671
 30
0.0
 11
-87.813359
 21
980.119671
 31
0.0
  0
LINE
  5
1D1
330
1AB
100
AcDbEntity
  8
0
  6
Continuous
 62
     0
370
    30
100
AcDbLine
 10
-129.813359
 20
979.619671
 30
0.0
 11
-129.813359
 21
941.619671
 31
0.0
  0
ARC
  5
1D2
330
1AB
100
AcDbEntity
  8
0
  6
Continuous
 62
     0
370
    30
100
AcDbCircle
 10
-129.313359
 20
941.619671
 30
0.0
 40
0.5000000000087326
100
AcDbArc
 50
180.0
 51
270.0
  0
ARC
  5
1D3
330
1AB
100
AcDbEntity
  8
0
  6
Continuous
 62
     0
370
    30
100
AcDbCircle
 10
-120.813359
 20
995.619671
 30
0.0
 40
0.5000000000076634
100
AcDbArc
 50
90.000081
 51
180.0
  0
LINE
  5
1D4
330
1AB
100
AcDbEntity
  8
0
  6
Continuous
 62
     0
370
    30
100
AcDbLine
 10
-72.013361
 20
920.619659
 30
0.0
 11
-72.013361
 21
1000.619659
 31
0.0
  0
LINE
  5
1D5
330
1AB
100
AcDbEntity
  8
0
  6
Continuous
 62
     0
370
    30
100
AcDbLine
 10
-72.013361
 20
1000.619659
 30
0.0
 11
-87.013361
 21
1000.619659
 31
0.0
  0
LINE
  5
1D6
330
1AB
100
AcDbEntity
  8
0
  6
Continuous
 62
     0
370
    30
100
AcDbLine
 10
-87.013361
 20
1000.619659
 30
0.0
 11
-87.013361
 21
920.619659
 31
0.0
  0
LINE
  5
1D7
330
1AB
100
AcDbEntity
  8
0
  6
Continuous
 62
     0
370
    30
100
AcDbLine
 10
-87.013361
 20
920.619659
 30
0.0
 11
-72.013361
 21
920.619659
 31
0.0
  0
LINE
  5
1D8
330
1AB
100
AcDbEntity
  8
0
  6
Continuous
 62
     0
370
    30
100
AcDbLine
 10
-87.013359
 20
954.119659
 30
0.0
 11
-87.813359
 21
954.119659
 31
0.0
  0
LINE
  5
1D9
330
1AB
100
AcDbEntity
  8
0
  6
Continuous
 62
     0
370
    30
100
AcDbLine
 10
-87.013359
 20
967.119659
 30
0.0
 11
-87.813359
 21
967.119659
 31
0.0
  0
ARC
  5
1DA
330
1AB
100
AcDbEntity
  8
0
  6
Continuous
 62
     0
370
    30
100
AcDbCircle
 10
-108.813362
 20
995.619667
 30
0.0
 40
0.5000034423115001
100
AcDbArc
 50
0.000394
 51
89.999606
  0
ARC
  5
1DB
330
1AB
100
AcDbEntity
  8
0
  6
Continuous
 62
     0
370
    30
100
AcDbCircle
 10
-129.313356
 20
979.619668
 30
0.0
 40
0.5000026980961894
100
AcDbArc
 50
90.000309
 51
179.999691
  0
LINE
  5
1DC
330
1AB
100
AcDbEntity
  8
0
  6
Continuous
 62
     0
370
    30
100
AcDbLine
 10
-87.813359
 20
980.119671
 30
0.0
 11
-104.313365
 21
980.119671
 31
0.0
  0
LINE
  5
1DD
330
1AB
100
AcDbEntity
  8
0
  6
Continuous
 62
     0
370
    30
100
AcDbLine
 10
-125.313359
 20
980.119671
 30
0.0
 11
-129.313359
 21
980.119671
 31
0.0
  0
LINE
  5
1DE
330
1AB
100
AcDbEntity
  8
0
  6
Continuous
 62
     0
370
    30
100
AcDbLine
 10
-108.313359
 20
984.119671
 30
0.0
 11
-108.313359
 21
995.619671
 31
0.0
  0
ARC
  5
1DF
330
1AB
100
AcDbEntity
  8
0
  6
Continuous
 62
     0
370
    30
100
AcDbCircle
 10
-104.31334
 20
984.119683
 30
0.0
 40
4.000019079309642
100
AcDbArc
 50
180.000171
 51
269.999643
  0
ARC
  5
1E0
330
1AB
100
AcDbEntity
  8
0
  6
Continuous
 62
     0
370
    30
100
AcDbCircle
 10
-125.313359
 20
884.119671
 30
0.0
 40
3.999999999999748
100
AcDbArc
 50
270.0
 51
360.0
  0
LWPOLYLINE
  5
1E1
330
1AB
100
AcDbEntity
  8
0
  6
Continuous
 62
     0
370
     0
100
AcDbPolyline
 90
       26
 70
     0
 43
0.0
 10
-121.313362
 20
884.11969
 10
-121.249496
 20
884.073608
 10
-121.063118
 20
883.941711
 10
-120.766403
 20
883.738403
 10
-120.375229
 20
883.482849
 10
-119.90506
 20
883.195007
 10
-119.367226
 20
882.893188
 10
-118.770248
 20
882.594116
 10
-118.122993
 20
882.313171
 10
-117.434402
 20
882.065613
 10
-116.713188
 20
881.866272
 10
-115.966606
 20
881.726013
 10
-115.202713
 20
881.653076
 10
-114.432991
 20
881.652649
 10
-113.669014
 20
881.724731
 10
-112.921738
 20
881.864502
 10
-112.20076
 20
882.062866
 10
-111.514519
 20
882.30835
 10
-110.869926
 20
882.587402
 10
-110.274101
 20
882.885498
 10
-109.735001
 20
883.187256
 10
-109.262611
 20
883.475647
 10
-108.86927
 20
883.732422
 10
-108.569885
 20
883.937439
 10
-108.380386
 20
884.071472
 10
-108.313362
 20
884.11969
  0
LWPOLYLINE
  5
1E2
330
1AB
100
AcDbEntity
  8
0
  6
Continuous
 62
     0
370
     0
100
AcDbPolyline
 90
       30
 70
     0
 43
0.0
 10
-104.313362
 20
880.11969
 10
-104.390511
 20
880.091125
 10
-104.616928
 20
880.008362
 10
-104.981155
 20
879.878235
 10
-105.466331
 20
879.711182
 10
-106.056496
 20
879.517761
 10
-106.737068
 20
879.307922
 10
-107.495895
 20
879.091431
 10
-108.322517
 20
878.877441
 10
-109.208984
 20
878.674194
 10
-110.147858
 20
878.48938
 10
-111.131836
 20
878.330444
 10
-112.152939
 20
878.204163
 10
-113.202103
 20
878.116211
 10
-114.269043
 20
878.070923
 10
-115.342117
 20
878.070618
 10
-116.409279
 20
878.115356
 10
-117.458321
 20
878.202515
 10
-118.47979
 20
878.328186
 10
-119.466591
 20
878.487366
 10
-120.410423
 20
878.673096
 10
-121.302025
 20
878.877258
 10
-122.132118
 20
879.091797
 10
-122.891487
 20
879.30835
 10
-123.571304
 20
879.518066
 10
-124.161362
 20
879.711548
 10
-124.646492
 20
879.87854
 10
-125.010254
 20
880.008484
 10
-125.236229
 20
880.091064
 10
-125.313362
 20
880.11969
  0
LINE
  5
1E3
330
1AB
100
AcDbEntity
  8
0
  6
Continuous
 62
     0
370
    30
100
AcDbLine
 10
-121.313359
 20
884.119671
 30
0.0
 11
-121.313359
 21
895.619671
 31
0.0
  0
LINE
  5
1E4
330
1AB
100
AcDbEntity
  8
0
  6
Continuous
 62
     0
370
     0
100
AcDbLine
 10
-108.313359
 20
895.619671
 30
0.0
 11
-121.313359
 21
895.619671
 31
0.0
  0
LINE
  5
1E5
330
1AB
100
AcDbEntity
  8
0
  6
Continuous
 62
     0
370
    30
100
AcDbLine
 10
-108.813359
 20
896.119671
 30
0.0
 11
-120.813359
 21
896.119671
 31
0.0
  0
LINE
  5
1E6
330
1AB
100
AcDbEntity
  8
0
  6
Continuous
 62
     0
370
    30
100
AcDbLine
 10
-87.813359
 20
841.119671
 30
0.0
 11
-112.913359
 21
841.119671
 31
0.0
  0
LINE
  5
1E7
330
1AB
100
AcDbEntity
  8
0
  6
Continuous
 62
     0
370
    30
100
AcDbLine
 10
-123.113359
 20
841.119671
 30
0.0
 11
-129.313359
 21
841.119671
 31
0.0
  0
LINE
  5
1E8
330
1AB
100
AcDbEntity
  8
0
  6
Continuous
 62
     0
370
     0
100
AcDbLine
 10
-129.313359
 20
880.119671
 30
0.0
 11
-129.313359
 21
841.119671
 31
0.0
  0
LWPOLYLINE
  5
1E9
330
1AB
100
AcDbEntity
  8
0
  6
Continuous
 62
     0
370
    30
100
AcDbPolyline
 90
       22
 70
     0
 43
0.0
 10
-123.113358
 20
841.11969
 10
-123.055855
 20
841.134521
 10
-122.885902
 20
841.177734
 10
-122.608765
 20
841.245544
 10
-122.229195
 20
841.332031
 10
-121.756775
 20
841.429749
 10
-121.200302
 20
841.530396
 10
-120.572021
 20
841.625244
 10
-119.885666
 20
841.705444
 10
-119.15612
 20
841.763672
 10
-118.39962
 20
841.794373
 10
-117.633667
 20
841.794495
 10
-116.877029
 20
841.764099
 10
-116.147186
 20
841.706055
 10
-115.46035
 20
841.626038
 10
-114.831459
 20
841.53125
 10
-114.274338
 20
841.430603
 10
-113.801254
 20
841.332825
 10
-113.420738
 20
841.246216
 10
-113.142754
 20
841.178223
 10
-112.971848
 20
841.134766
 10
-112.913361
 20
841.11969
  0
LINE
  5
1EA
330
1AB
100
AcDbEntity
  8
0
  6
Continuous
 62
     0
370
    30
100
AcDbLine
 10
-87.813359
 20
841.119671
 30
0.0
 11
-87.813359
 21
880.119671
 31
0.0
  0
LINE
  5
1EB
330
1AB
100
AcDbEntity
  8
0
  6
Continuous
 62
     0
370
    30
100
AcDbLine
 10
-129.813359
 20
879.619671
 30
0.0
 11
-129.813359
 21
841.619671
 31
0.0
  0
ARC
  5
1EC
330
1AB
100
AcDbEntity
  8
0
  6
Continuous
 62
     0
370
    30
100
AcDbCircle
 10
-129.313359
 20
841.619671
 30
0.0
 40
0.4999999999962483
100
AcDbArc
 50
180.0
 51
270.0
  0
ARC
  5
1ED
330
1AB
100
AcDbEntity
  8
0
  6
Continuous
 62
     0
370
    30
100
AcDbCircle
 10
-120.813359
 20
895.619671
 30
0.0
 40
0.5000000000147333
100
AcDbArc
 50
90.000081
 51
180.0
  0
LINE
  5
1EE
330
1AB
100
AcDbEntity
  8
0
  6
Continuous
 62
     0
370
    30
100
AcDbLine
 10
-72.013361
 20
820.619659
 30
0.0
 11
-72.013361
 21
900.619659
 31
0.0
  0
LINE
  5
1EF
330
1AB
100
AcDbEntity
  8
0
  6
Continuous
 62
     0
370
    30
100
AcDbLine
 10
-72.013361
 20
900.619659
 30
0.0
 11
-87.013361
 21
900.619659
 31
0.0
  0
LINE
  5
1F0
330
1AB
100
AcDbEntity
  8
0
  6
Continuous
 62
     0
370
    30
100
AcDbLine
 10
-87.013361
 20
900.619659
 30
0.0
 11
-87.013361
 21
820.619659
 31
0.0
  0
LINE
  5
1F1
330
1AB
100
AcDbEntity
  8
0
  6
Continuous
 62
     0
370
    30
100
AcDbLine
 10
-87.013361
 20
820.619659
 30
0.0
 11
-72.013361
 21
820.619659
 31
0.0
  0
LINE
  5
1F2
330
1AB
100
AcDbEntity
  8
0
  6
Continuous
 62
     0
370
    30
100
AcDbLine
 10
-87.013359
 20
854.119659
 30
0.0
 11
-87.813359
 21
854.119659
 31
0.0
  0
LINE
  5
1F3
330
1AB
100
AcDbEntity
  8
0
  6
Continuous
 62
     0
370
    30
100
AcDbLine
 10
-87.013359
 20
867.119659
 30
0.0
 11
-87.813359
 21
867.119659
 31
0.0
  0
ARC
  5
1F4
330
1AB
100
AcDbEntity
  8
0
  6
Continuous
 62
     0
370
    30
100
AcDbCircle
 10
-108.813362
 20
895.619667
 30
0.0
 40
0.5000034422885156
100
AcDbArc
 50
0.000394
 51
89.999606
  0
ARC
  5
1F5
330
1AB
100
AcDbEntity
  8
0
  6
Continuous
 62
     0
370
    30
100
AcDbCircle
 10
-129.313356
 20
879.619668
 30
0.0
 40
0.500002698092601
100
AcDbArc
 50
90.000309
 51
179.999691
  0
LINE
  5
1F6
330
1AB
100
AcDbEntity
  8
0
  6
Continuous
 62
     0
370
    30
100
AcDbLine
 10
-87.813359
 20
880.119671
 30
0.0
 11
-104.313365
 21
880.119671
 31
0.0
  0
LINE
  5
1F7
330
1AB
100
AcDbEntity
  8
0
  6
Continuous
 62
     0
370
    30
100
AcDbLine
 10
-125.313359
 20
880.119671
 30
0.0
 11
-129.313359
 21
880.119671
 31
0.0
  0
LINE
  5
1F8
330
1AB
100
AcDbEntity
  8
0
  6
Continuous
 62
     0
370
    30
100
AcDbLine
 10
-108.313359
 20
884.119671
 30
0.0
 11
-108.313359
 21
895.619671
 31
0.0
  0
ARC
  5
1F9
330
1AB
100
AcDbEntity
  8
0
  6
Continuous
 62
     0
370
    30
100
AcDbCircle
 10
-104.31334
 20
884.119683
 30
0.0
 40
4.000019079308329
100
AcDbArc
 50
180.000171
 51
269.999643
  0
LINE
  5
1FA
330
1AB
100
AcDbEntity
  8
0
  6
Continuous
 62
     0
370
    30
100
AcDbLine
 10
-88.763344
 20
711.119667
 30
0.0
 11
-88.763344
 21
730.619667
 31
0.0
  0
LINE
  5
1FB
330
1AB
100
AcDbEntity
  8
0
  6
Continuous
 62
     0
370
    30
100
AcDbLine
 10
-88.763344
 20
691.619667
 30
0.0
 11
-88.763344
 21
711.119667
 31
0.0
  0
LINE
  5
1FC
330
1AB
100
AcDbEntity
  8
0
  6
Continuous
 62
     0
370
    30
100
AcDbLine
 10
-121.713331
 20
736.969666
 30
0.0
 11
-121.213331
 21
737.469666
 31
0.0
  0
LWPOLYLINE
  5
1FD
330
1AB
100
AcDbEntity
  8
0
  6
Continuous
 62
     0
370
    30
100
AcDbPolyline
 90
       16
 70
     0
 43
0.0
 10
-121.213333
 20
737.469666
 10
-121.147675
 20
737.469666
 10
-120.936821
 20
737.469666
 10
-120.572311
 20
737.469666
 10
-120.066704
 20
737.469666
 10
-119.45369
 20
737.469666
 10
-118.780975
 20
737.469666
 10
-118.098885
 20
737.469666
 10
-117.437569
 20
737.469666
 10
-116.755676
 20
737.469666
 10
-116.082474
 20
737.469666
 10
-115.468224
 20
737.469666
 10
-114.960762
 20
737.469666
 10
-114.594055
 20
737.469666
 10
-114.380974
 20
737.469666
 10
-114.313332
 20
737.469666
  0
LINE
  5
1FE
330
1AB
100
AcDbEntity
  8
0
  6
Continuous
 62
     0
370
    30
100
AcDbLine
 10
-113.813331
 20
736.969666
 30
0.0
 11
-121.713331
 21
736.969666
 31
0.0
  0
LWPOLYLINE
  5
1FF
330
1AB
100
AcDbEntity
  8
0
  6
Continuous
 62
     0
370
    30
100
AcDbPolyline
 90
       17
 70
     0
 43
0.0
 10
-121.713333
 20
730.61969
 10
-121.637589
 20
730.604248
 10
-121.412231
 20
730.560791
 10
-121.047379
 20
730.495728
 10
-120.558235
 20
730.418884
 10
-119.962402
 20
730.341919
 10
-119.281311
 20
730.276001
 10
-118.541023
 20
730.231445
 10
-117.769226
 20
730.216064
 10
-116.997223
 20
730.230957
 10
-116.25631
 20
730.275085
 10
-115.57412
 20
730.340759
 10
-114.976593
 20
730.417603
 10
-114.485542
 20
730.494507
 10
-114.119209
 20
730.559692
 10
-113.892303
 20
730.603271
 10
-113.813332
 20
730.619446
  0
LINE
  5
200
330
1AB
100
AcDbEntity
  8
0
  6
Continuous
 62
     0
370
    30
100
AcDbLine
 10
-121.713331
 20
730.619667
 30
0.0
 11
-121.713331
 21
736.969666
 31
0.0
  0
LINE
  5
201
330
1AB
100
AcDbEntity
  8
0
  6
Continuous
 62
     0
370
     0
100
AcDbLine
 10
-128.263344
 20
730.619667
 30
0.0
 11
-128.263344
 21
711.119667
 31
0.0
  0
LINE
  5
202
330
1AB
100
AcDbEntity
  8
0
  6
Continuous
 62
     0
370
     0
100
AcDbLine
 10
-128.263344
 20
711.119667
 30
0.0
 11
-128.263344
 21
691.619667
 31
0.0
  0
LINE
  5
203
330
1AB
100
AcDbEntity
  8
0
  6
Continuous
 62
     0
370
    30
100
AcDbLine
 10
-128.763344
 20
711.119667
 30
0.0
 11
-128.763344
 21
692.119667
 31
0.0
  0
LINE
  5
204
330
1AB
100
AcDbEntity
  8
0
  6
Continuous
 62
     0
370
    30
100
AcDbLine
 10
-128.763344
 20
730.119667
 30
0.0
 11
-128.763344
 21
711.119667
 31
0.0
  0
LINE
  5
205
330
1AB
100
AcDbEntity
  8
0
  6
Continuous
 62
     0
370
    30
100
AcDbLine
 10
-72.013361
 20
652.119659
 30
0.0
 11
-72.013361
 21
769.119659
 31
0.0
  0
LINE
  5
206
330
1AB
100
AcDbEntity
  8
0
  6
Continuous
 62
     0
370
    30
100
AcDbLine
 10
-72.013361
 20
769.119659
 30
0.0
 11
-87.013361
 21
769.119659
 31
0.0
  0
LINE
  5
207
330
1AB
100
AcDbEntity
  8
0
  6
Continuous
 62
     0
370
    30
100
AcDbLine
 10
-87.013361
 20
769.119659
 30
0.0
 11
-87.013361
 21
652.119659
 31
0.0
  0
LINE
  5
208
330
1AB
100
AcDbEntity
  8
0
  6
Continuous
 62
     0
370
    30
100
AcDbLine
 10
-87.013361
 20
652.119659
 30
0.0
 11
-72.013361
 21
652.119659
 31
0.0
  0
LINE
  5
209
330
1AB
100
AcDbEntity
  8
0
  6
Continuous
 62
     0
370
    30
100
AcDbLine
 10
-88.013359
 20
692.119659
 30
0.0
 11
-88.013359
 21
730.119659
 31
0.0
  0
LINE
  5
20A
330
1AB
100
AcDbEntity
  8
0
  6
Continuous
 62
     0
370
    30
100
AcDbLine
 10
-87.013359
 20
730.119659
 30
0.0
 11
-88.013359
 21
730.119659
 31
0.0
  0
LINE
  5
20B
330
1AB
100
AcDbEntity
  8
0
  6
Continuous
 62
     0
370
    30
100
AcDbLine
 10
-88.013359
 20
706.119659
 30
0.0
 11
-88.763344
 21
706.119659
 31
0.0
  0
LINE
  5
20C
330
1AB
100
AcDbEntity
  8
0
  6
Continuous
 62
     0
370
    30
100
AcDbLine
 10
-88.013359
 20
716.119659
 30
0.0
 11
-88.763344
 21
716.119659
 31
0.0
  0
LINE
  5
20D
330
1AB
100
AcDbEntity
  8
0
  6
Continuous
 62
     0
370
    30
100
AcDbLine
 10
-87.013359
 20
692.119659
 30
0.0
 11
-88.013359
 21
692.119659
 31
0.0
  0
ARC
  5
20E
330
1AB
100
AcDbEntity
  8
0
  6
Continuous
 62
     0
370
    30
100
AcDbCircle
 10
-128.263341
 20
692.119669
 30
0.0
 40
0.5000027559872848
100
AcDbArc
 50
180.004513
 51
269.999684
  0
ARC
  5
20F
330
1AB
100
AcDbEntity
  8
0
  6
Continuous
 62
     0
370
    30
100
AcDbCircle
 10
-128.263341
 20
730.119664
 30
0.0
 40
0.5000027559872955
100
AcDbArc
 50
90.000316
 51
179.995487
  0
LINE
  5
210
330
1AB
100
AcDbEntity
  8
0
  6
Continuous
 62
     0
370
    30
100
AcDbLine
 10
-88.763344
 20
691.619667
 30
0.0
 11
-128.263344
 21
691.619667
 31
0.0
  0
LINE
  5
211
330
1AB
100
AcDbEntity
  8
0
  6
Continuous
 62
     0
370
    30
100
AcDbLine
 10
-88.763344
 20
730.619667
 30
0.0
 11
-113.813331
 21
730.619667
 31
0.0
  0
LINE
  5
212
330
1AB
100
AcDbEntity
  8
0
  6
Continuous
 62
     0
370
    30
100
AcDbLine
 10
-121.713331
 20
730.619667
 30
0.0
 11
-128.263344
 21
730.619667
 31
0.0
  0
LINE
  5
213
330
1AB
100
AcDbEntity
  8
0
  6
Continuous
 62
     0
370
    30
100
AcDbLine
 10
-113.813331
 20
736.969666
 30
0.0
 11
-113.813331
 21
730.619419
 31
0.0
  0
LINE
  5
214
330
1AB
100
AcDbEntity
  8
0
  6
Continuous
 62
     0
370
    30
100
AcDbLine
 10
-113.813331
 20
736.969666
 30
0.0
 11
-114.313331
 21
737.469666
 31
0.0
  0
ENDBLK
  5
216
330
1AB
100
AcDbEntity
  8
0
100
AcDbBlockEnd
  0
ENDSEC
  0
SECTION
  2
ENTITIES
  0
INSERT
  5
97
330
1F
100
AcDbEntity
  8
0
  6
Continuous
 62
   250
370
     0
100
AcDbBlockReference
  2
a
 10
17.644943
 20
99.022972
 30
0.0
  0
INSERT
  5
B9
330
1F
100
AcDbEntity
  8
0
  6
Continuous
 62
   250
370
     0
100
AcDbBlockReference
  2
b
 10
40.420946
 20
324.11512
 30
0.0
  0
INSERT
  5
126
330
1F
100
AcDbEntity
  8
0
  6
Continuous
 62
   250
370
     0
100
AcDbBlockReference
  2
c
 10
44.666924
 20
113.661003
 30
0.0
  0
INSERT
  5
1AA
330
1F
100
AcDbEntity
  8
0
  6
Continuous
 62
   250
370
     0
100
AcDbBlockReference
  2
d
 10
60.368423
 20
153.567699
 30
0.0
  0
INSERT
  5
217
330
1F
100
AcDbEntity
  8
0
  6
Continuous
 62
   250
370
     0
100
AcDbBlockReference
  2
e
 10
-35.321274
 20
-0.000061
 30
0.0
  0
ENDSEC
  0
SECTION
  2
OBJECTS
  0
DICTIONARY
  5
C
330
0
100
AcDbDictionary
281
     1
  3
ACAD_GROUP
350
D
  3
ACAD_LAYOUT
350
1A
  3
ACAD_MLEADERSTYLE
350
21A
  3
ACAD_MLINESTYLE
350
17
  3
ACAD_PLOTSETTINGS
350
19
  3
ACAD_PLOTSTYLENAME
350
E
  3
ACAD_VISUALSTYLE
350
2A
  3
AcDbVariableDictionary
350
218
  0
DICTIONARY
  5
D
102
{ACAD_REACTORS
330
C
102
}
330
C
100
AcDbDictionary
281
     1
  0
DICTIONARY
  5
1A
102
{ACAD_REACTORS
330
C
102
}
330
C
100
AcDbDictionary
281
     1
  3
Layout1
350
1E
  3
Layout2
350
26
  3
Model
350
22
  0
DICTIONARY
  5
21A
102
{ACAD_REACTORS
330
C
102
}
330
C
100
AcDbDictionary
281
     1
  0
DICTIONARY
  5
17
102
{ACAD_REACTORS
330
C
102
}
330
C
100
AcDbDictionary
281
     1
  3
Standard
350
18
  0
DICTIONARY
  5
19
102
{ACAD_REACTORS
330
C
102
}
330
C
100
AcDbDictionary
281
     1
  0
ACDBDICTIONARYWDFLT
  5
E
102
{ACAD_REACTORS
330
C
102
}
330
C
100
AcDbDictionary
281
     1
  3
Normal
350
F
100
AcDbDictionaryWithDefault
340
F
  0
DICTIONARY
  5
2A
102
{ACAD_REACTORS
330
C
102
}
330
C
100
AcDbDictionary
281
     1
  3
2dWireframe
350
2F
  3
3D Hidden
350
31
  3
3dWireframe
350
30
  3
Basic
350
32
  3
Brighten
350
36
  3
ColorChange
350
3A
  3
Conceptual
350
34
  3
Dim
350
35
  3
Facepattern
350
39
  3
Flat
350
2B
  3
FlatWithEdges
350
2C
  3
Gouraud
350
2D
  3
GouraudWithEdges
350
2E
  3
Linepattern
350
38
  3
Realistic
350
33
  3
Thicken
350
37
  0
DICTIONARY
  5
218
102
{ACAD_REACTORS
330
C
102
}
330
C
100
AcDbDictionary
281
     1
  3
PSOLHEIGHT
350
21C
  3
PSOLWIDTH
350
21B
  0
LAYOUT
  5
1E
102
{ACAD_REACTORS
330
1A
102
}
330
1A
100
AcDbPlotSettings
  1

  2
none_device
  4

  6

 40
0.0
 41
0.0
 42
0.0
 43
0.0
 44
0.0
 45
0.0
 46
0.0
 47
0.0
 48
0.0
 49
0.0
140
0.0
141
0.0
142
1.0
143
1.0
 70
   688
 72
     0
 73
     0
 74
     5
  7

 75
    16
147
1.0
148
0.0
149
0.0
100
AcDbLayout
  1
Layout1
 70
     1
 71
     1
 10
0.0
 20
0.0
 11
420.0
 21
297.0
 12
0.0
 22
0.0
 32
0.0
 14
1.000000E+20
 24
1.000000E+20
 34
1.000000E+20
 15
-1.000000E+20
 25
-1.000000E+20
 35
-1.000000E+20
146
0.0
 13
0.0
 23
0.0
 33
0.0
 16
1.0
 26
0.0
 36
0.0
 17
0.0
 27
1.0
 37
0.0
 76
     0
330
1B
  0
LAYOUT
  5
26
102
{ACAD_REACTORS
330
1A
102
}
330
1A
100
AcDbPlotSettings
  1

  2
none_device
  4

  6

 40
0.0
 41
0.0
 42
0.0
 43
0.0
 44
0.0
 45
0.0
 46
0.0
 47
0.0
 48
0.0
 49
0.0
140
0.0
141
0.0
142
1.0
143
1.0
 70
   688
 72
     0
 73
     0
 74
     5
  7

 75
    16
147
1.0
148
0.0
149
0.0
100
AcDbLayout
  1
Layout2
 70
     1
 71
     2
 10
0.0
 20
0.0
 11
0.0
 21
0.0
 12
0.0
 22
0.0
 32
0.0
 14
0.0
 24
0.0
 34
0.0
 15
0.0
 25
0.0
 35
0.0
146
0.0
 13
0.0
 23
0.0
 33
0.0
 16
1.0
 26
0.0
 36
0.0
 17
0.0
 27
1.0
 37
0.0
 76
     0
330
23
  0
LAYOUT
  5
22
102
{ACAD_REACTORS
330
1A
102
}
330
1A
100
AcDbPlotSettings
  1

  2
none_device
  4

  6

 40
0.0
 41
0.0
 42
0.0
 43
0.0
 44
0.0
 45
0.0
 46
0.0
 47
0.0
 48
0.0
 49
0.0
140
0.0
141
0.0
142
1.0
143
1.0
 70
  1712
 72
     0
 73
     0
 74
     0
  7

 75
     0
147
1.0
148
0.0
149
0.0
100
AcDbLayout
  1
Model
 70
     1
 71
     0
 10
-129.813354
 20
153.791153
 11
344.808685
 21
1100.619751
 12
0.0
 22
0.0
 32
0.0
 14
-129.813354
 24
153.791153
 34
0.0
 15
344.808685
 25
1100.619751
 35
0.0
146
0.0
 13
0.0
 23
0.0
 33
0.0
 16
1.0
 26
0.0
 36
0.0
 17
0.0
 27
1.0
 37
0.0
 76
     0
330
1F
331
29
  0
MLINESTYLE
  5
18
102
{ACAD_REACTORS
330
17
102
}
330
17
100
AcDbMlineStyle
  2
Standard
 70
     0
  3

 62
   256
 51
90.0
 52
90.0
 71
     2
 49
0.5
 62
   256
  6
BYLAYER
 49
-0.5
 62
   256
  6
BYLAYER
  0
ACDBPLACEHOLDER
  5
F
102
{ACAD_REACTORS
330
E
102
}
330
E
  0
VISUALSTYLE
  5
2F
102
{ACAD_REACTORS
330
2A
102
}
330
2A
100
AcDbVisualStyle
  2
2dWireframe
 70
     4
 71
     0
 72
     2
 73
     0
 90
        0
 40
-0.6
 41
-30.0
 62
     5
 63
     7
 74
     1
 91
        4
 64
     7
 65
   257
 75
     1
175
     1
 42
1.0
 92
        0
 66
   257
 43
1.0
 76
     1
 77
     6
 78
     2
 67
     7
 79
     5
170
     0
171
     0
290
     0
174
     0
 93
        1
 44
0.0
173
     0
291
     0
 45
0.0
1001
ACAD
1000
AcDbSavedByObjectVersion
1070
     0
  0
VISUALSTYLE
  5
31
102
{ACAD_REACTORS
330
2A
102
}
330
2A
100
AcDbVisualStyle
  2
3D Hidden
 70
     6
 71
     1
 72
     2
 73
     2
 90
        0
 40
-0.6
 41
-30.0
 62
     5
 63
     7
 74
     2
 91
        2
 64
     7
 65
   257
 75
     2
175
     1
 42
40.0
 92
        0
 66
   257
 43
1.0
 76
     1
 77
     6
 78
     2
 67
     7
 79
     3
170
     0
171
     0
290
     0
174
     0
 93
        1
 44
0.0
173
     0
291
     0
 45
0.0
1001
ACAD
1000
AcDbSavedByObjectVersion
1070
     0
  0
VISUALSTYLE
  5
30
102
{ACAD_REACTORS
330
2A
102
}
330
2A
100
AcDbVisualStyle
  2
3dWireframe
 70
     5
 71
     0
 72
     2
 73
     0
 90
        0
 40
-0.6
 41
-30.0
 62
     5
 63
     7
 74
     1
 91
        4
 64
     7
 65
   257
 75
     1
175
     1
 42
1.0
 92
        0
 66
   257
 43
1.0
 76
     1
 77
     6
 78
     2
 67
     7
 79
     5
170
     0
171
     0
290
     0
174
     0
 93
        1
 44
0.0
173
     0
291
     0
 45
0.0
1001
ACAD
1000
AcDbSavedByObjectVersion
1070
     0
  0
VISUALSTYLE
  5
32
102
{ACAD_REACTORS
330
2A
102
}
330
2A
100
AcDbVisualStyle
  2
Basic
 70
     7
 71
     1
 72
     0
 73
     1
 90
        0
 40
-0.6
 41
-30.0
 62
     5
 63
     7
 74
     0
 91
        4
 64
     7
 65
   257
 75
     1
175
     1
 42
1.0
 92
        8
 66
     7
 43
1.0
 76
     1
 77
     6
 78
     2
 67
     7
 79
     5
170
     0
171
     0
290
     0
174
     0
 93
        1
 44
0.0
173
     0
291
     1
 45
0.0
1001
ACAD
1000
AcDbSavedByObjectVersion
1070
     0
  0
VISUALSTYLE
  5
36
102
{ACAD_REACTORS
330
2A
102
}
330
2A
100
AcDbVisualStyle
  2
Brighten
 70
    12
 71
     2
 72
     2
 73
     0
 90
        0
 40
-0.6
 41
-30.0
 62
     5
 63
     7
 74
     1
 91
        4
 64
     7
 65
   257
 75
     1
175
     1
 42
1.0
 92
        8
 66
     7
 43
1.0
 76
     1
 77
     6
 78
     2
 67
     7
 79
     5
170
     0
171
     0
290
     0
174
     0
 93
        1
 44
50.0
173
     0
291
     1
 45
0.0
1001
ACAD
1000
AcDbSavedByObjectVersion
1070
     0
  0
VISUALSTYLE
  5
3A
102
{ACAD_REACTORS
330
2A
102
}
330
2A
100
AcDbVisualStyle
  2
ColorChange
 70
    16
 71
     2
 72
     2
 73
     3
 90
        0
 40
-0.6
 41
-30.0
 62
     5
 63
     8
 74
     1
 91
        4
 64
     7
 65
   257
 75
     1
175
     1
 42
1.0
 92
        8
 66
     8
 43
1.0
 76
     1
 77
     6
 78
     2
 67
     7
 79
     5
170
     0
171
     0
290
     0
174
     0
 93
        1
 44
0.0
173
     0
291
     1
 45
0.0
1001
ACAD
1000
AcDbSavedByObjectVersion
1070
     0
  0
VISUALSTYLE
  5
34
102
{ACAD_REACTORS
330
2A
102
}
330
2A
100
AcDbVisualStyle
  2
Conceptual
 70
     9
 71
     3
 72
     2
 73
     0
 90
        0
 40
-0.6
 41
-30.0
 62
     5
 63
     7
 74
     2
 91
        2
 64
     7
 65
   257
 75
     1
175
     1
 42
40.0
 92
        8
 66
     7
 43
1.0
 76
     1
 77
     6
 78
     2
 67
     7
 79
     3
170
     0
171
     0
290
     0
174
     0
 93
        1
 44
0.0
173
     0
291
     0
 45
0.0
1001
ACAD
1000
AcDbSavedByObjectVersion
1070
     0
  0
VISUALSTYLE
  5
35
102
{ACAD_REACTORS
330
2A
102
}
330
2A
100
AcDbVisualStyle
  2
Dim
 70
    11
 71
     2
 72
     2
 73
     0
 90
        0
 40
-0.6
 41
-30.0
 62
     5
 63
     7
 74
     1
 91
        4
 64
     7
 65
   257
 75
     1
175
     1
 42
1.0
 92
        8
 66
     7
 43
1.0
 76
     1
 77
     6
 78
     2
 67
     7
 79
     5
170
     0
171
     0
290
     0
174
     0
 93
        1
 44
-50.0
173
     0
291
     1
 45
0.0
1001
ACAD
1000
AcDbSavedByObjectVersion
1070
     0
  0
VISUALSTYLE
  5
39
102
{ACAD_REACTORS
330
2A
102
}
330
2A
100
AcDbVisualStyle
  2
Facepattern
 70
    15
 71
     2
 72
     2
 73
     0
 90
        0
 40
-0.6
 41
-30.0
 62
     5
 63
     7
 74
     1
 91
        4
 64
     7
 65
   257
 75
     1
175
     1
 42
1.0
 92
        8
 66
     7
 43
1.0
 76
     1
 77
     6
 78
     2
 67
     7
 79
     5
170
     0
171
     0
290
     0
174
     0
 93
        1
 44
0.0
173
     0
291
     1
 45
0.0
1001
ACAD
1000
AcDbSavedByObjectVersion
1070
     0
  0
VISUALSTYLE
  5
2B
102
{ACAD_REACTORS
330
2A
102
}
330
2A
100
AcDbVisualStyle
  2
Flat
 70
     0
 71
     2
 72
     1
 73
     1
 90
        2
 40
-0.6
 41
30.0
 62
     5
 63
     7
 74
     0
 91
        4
 64
     7
 65
   257
 75
     1
175
     1
 42
1.0
 92
        8
 66
     7
 43
1.0
 76
     1
 77
     6
 78
     2
 67
     7
 79
     5
170
     0
171
     0
290
     0
174
     0
 93
       13
 44
0.0
173
     0
291
     1
 45
0.0
1001
ACAD
1000
AcDbSavedByObjectVersion
1070
     0
  0
VISUALSTYLE
  5
2C
102
{ACAD_REACTORS
330
2A
102
}
330
2A
100
AcDbVisualStyle
  2
FlatWithEdges
 70
     1
 71
     2
 72
     1
 73
     1
 90
        2
 40
-0.6
 41
30.0
 62
     5
 63
     7
 74
     1
 91
        4
 64
     7
 65
   257
 75
     1
175
     1
 42
1.0
 92
        0
 66
   257
 43
1.0
 76
     1
 77
     6
 78
     2
 67
     7
 79
     5
170
     0
171
     0
290
     0
174
     0
 93
       13
 44
0.0
173
     0
291
     1
 45
0.0
1001
ACAD
1000
AcDbSavedByObjectVersion
1070
     0
  0
VISUALSTYLE
  5
2D
102
{ACAD_REACTORS
330
2A
102
}
330
2A
100
AcDbVisualStyle
  2
Gouraud
 70
     2
 71
     2
 72
     2
 73
     1
 90
        2
 40
-0.6
 41
30.0
 62
     5
 63
     7
 74
     0
 91
        4
 64
     7
 65
   257
 75
     1
175
     1
 42
1.0
 92
        0
 66
     7
 43
1.0
 76
     1
 77
     6
 78
     2
 67
     7
 79
     5
170
     0
171
     0
290
     0
174
     0
 93
       13
 44
0.0
173
     0
291
     1
 45
0.0
1001
ACAD
1000
AcDbSavedByObjectVersion
1070
     0
  0
VISUALSTYLE
  5
2E
102
{ACAD_REACTORS
330
2A
102
}
330
2A
100
AcDbVisualStyle
  2
GouraudWithEdges
 70
     3
 71
     2
 72
     2
 73
     1
 90
        2
 40
-0.6
 41
30.0
 62
     5
 63
     7
 74
     1
 91
        4
 64
     7
 65
   257
 75
     1
175
     1
 42
1.0
 92
        0
 66
   257
 43
1.0
 76
     1
 77
     6
 78
     2
 67
     7
 79
     5
170
     0
171
     0
290
     0
174
     0
 93
       13
 44
0.0
173
     0
291
     1
 45
0.0
1001
ACAD
1000
AcDbSavedByObjectVersion
1070
     0
  0
VISUALSTYLE
  5
38
102
{ACAD_REACTORS
330
2A
102
}
330
2A
100
AcDbVisualStyle
  2
Linepattern
 70
    14
 71
     2
 72
     2
 73
     0
 90
        0
 40
-0.6
 41
-30.0
 62
     5
 63
     7
 74
     1
 91
        4
 64
     7
 65
   257
 75
     7
175
     7
 42
1.0
 92
        8
 66
     7
 43
1.0
 76
     1
 77
     6
 78
     2
 67
     7
 79
     5
170
     0
171
     0
290
     0
174
     0
 93
        1
 44
0.0
173
     0
291
     1
 45
0.0
1001
ACAD
1000
AcDbSavedByObjectVersion
1070
     0
  0
VISUALSTYLE
  5
33
102
{ACAD_REACTORS
330
2A
102
}
330
2A
100
AcDbVisualStyle
  2
Realistic
 70
     8
 71
     2
 72
     2
 73
     0
 90
        0
 40
-0.6
 41
-30.0
 62
     5
 63
     7
 74
     1
 91
        0
 64
     7
 65
   257
 75
     1
175
     1
 42
1.0
 92
        8
 66
     8
 43
1.0
 76
     1
 77
     6
 78
     2
 67
     7
 79
     5
170
     0
171
     0
290
     0
174
     0
 93
       13
 44
0.0
173
     0
291
     0
 45
0.0
1001
ACAD
1000
AcDbSavedByObjectVersion
1070
     0
  0
VISUALSTYLE
  5
37
102
{ACAD_REACTORS
330
2A
102
}
330
2A
100
AcDbVisualStyle
  2
Thicken
 70
    13
 71
     2
 72
     2
 73
     0
 90
        0
 40
-0.6
 41
-30.0
 62
     5
 63
     7
 74
     1
 91
        4
 64
     7
 65
   257
 75
     1
175
     1
 42
1.0
 92
       12
 66
     7
 43
1.0
 76
     1
 77
     6
 78
     2
 67
     7
 79
     5
170
     0
171
     0
290
     0
174
     0
 93
        1
 44
0.0
173
     0
291
     1
 45
0.0
1001
ACAD
1000
AcDbSavedByObjectVersion
1070
     0
  0
DICTIONARYVAR
  5
21C
102
{ACAD_REACTORS
330
218
102
}
330
218
100
DictionaryVariables
280
     0
  1
80.000000
  0
DICTIONARYVAR
  5
21B
102
{ACAD_REACTORS
330
218
102
}
330
218
100
DictionaryVariables
280
     0
  1
5.000000
  0
ENDSEC
  0
EOF
