  0
SECTION
  2
HEADER
  9
$ACADVER
  1
AC1015
  9
$ACADMAINTVER
 70
     6
  9
$DWGCODEPAGE
  3
ANSI_1252
  9
$INSBASE
 10
0.0
 20
0.0
 30
0.0
  9
$EXTMIN
 10
-145.152939
 20
175.789246
 30
0.0
  9
$EXTMAX
 10
401.924927
 20
1088.571045
 30
0.0
  9
$LIMMIN
 10
-145.152939
 20
175.789246
  9
$LIMMAX
 10
401.924927
 20
1088.571045
  9
$ORTHOMODE
 70
     0
  9
$REGENMODE
 70
     1
  9
$FILLMODE
 70
     1
  9
$QTEXTMODE
 70
     0
  9
$MIRRTEXT
 70
     1
  9
$LTSCALE
 40
1.0
  9
$ATTMODE
 70
     1
  9
$TEXTSIZE
 40
2.5
  9
$TRACEWID
 40
1.0
  9
$TEXTSTYLE
  7
Standard
  9
$CLAYER
  8
0
  9
$CELTYPE
  6
ByLayer
  9
$CECOLOR
 62
   256
  9
$CELTSCALE
 40
1.0
  9
$DISPSILH
 70
     0
  9
$DIMSCALE
 40
1.0
  9
$DIMASZ
 40
2.5
  9
$DIMEXO
 40
0.625
  9
$DIMDLI
 40
3.75
  9
$DIMRND
 40
0.0
  9
$DIMDLE
 40
0.0
  9
$DIMEXE
 40
1.25
  9
$DIMTP
 40
0.0
  9
$DIMTM
 40
0.0
  9
$DIMTXT
 40
2.5
  9
$DIMCEN
 40
2.5
  9
$DIMTSZ
 40
0.0
  9
$DIMTOL
 70
     0
  9
$DIMLIM
 70
     0
  9
$DIMTIH
 70
     0
  9
$DIMTOH
 70
     0
  9
$DIMSE1
 70
     0
  9
$DIMSE2
 70
     0
  9
$DIMTAD
 70
     1
  9
$DIMZIN
 70
     8
  9
$DIMBLK
  1

  9
$DIMASO
 70
     1
  9
$DIMSHO
 70
     1
  9
$DIMPOST
  1

  9
$DIMAPOST
  1

  9
$DIMALT
 70
     0
  9
$DIMALTD
 70
     3
  9
$DIMALTF
 40
0.03937
  9
$DIMLFAC
 40
1.0
  9
$DIMTOFL
 70
     1
  9
$DIMTVP
 40
0.0
  9
$DIMTIX
 70
     0
  9
$DIMSOXD
 70
     0
  9
$DIMSAH
 70
     0
  9
$DIMBLK1
  1

  9
$DIMBLK2
  1

  9
$DIMSTYLE
  2
ISO-25
  9
$DIMCLRD
 70
     0
  9
$DIMCLRE
 70
     0
  9
$DIMCLRT
 70
     0
  9
$DIMTFAC
 40
1.0
  9
$DIMGAP
 40
0.625
  9
$DIMJUST
 70
     0
  9
$DIMSD1
 70
     0
  9
$DIMSD2
 70
     0
  9
$DIMTOLJ
 70
     0
  9
$DIMTZIN
 70
     8
  9
$DIMALTZ
 70
     0
  9
$DIMALTTZ
 70
     0
  9
$DIMUPT
 70
     0
  9
$DIMDEC
 70
     2
  9
$DIMTDEC
 70
     2
  9
$DIMALTU
 70
     2
  9
$DIMALTTD
 70
     3
  9
$DIMTXSTY
  7
Standard
  9
$DIMAUNIT
 70
     0
  9
$DIMADEC
 70
     0
  9
$DIMALTRND
 40
0.0
  9
$DIMAZIN
 70
     0
  9
$DIMDSEP
 70
    44
  9
$DIMATFIT
 70
     3
  9
$DIMFRAC
 70
     0
  9
$DIMLDRBLK
  1

  9
$DIMLUNIT
 70
     2
  9
$DIMLWD
 70
    -2
  9
$DIMLWE
 70
    -2
  9
$DIMTMOVE
 70
     0
  9
$LUNITS
 70
     2
  9
$LUPREC
 70
     4
  9
$SKETCHINC
 40
1.0
  9
$FILLETRAD
 40
10.0
  9
$AUNITS
 70
     0
  9
$AUPREC
 70
     0
  9
$MENU
  1
.
  9
$ELEVATION
 40
0.0
  9
$PELEVATION
 40
0.0
  9
$THICKNESS
 40
0.0
  9
$LIMCHECK
 70
     0
  9
$CHAMFERA
 40
10.0
  9
$CHAMFERB
 40
10.0
  9
$CHAMFERC
 40
20.0
  9
$CHAMFERD
 40
0.0
  9
$SKPOLY
 70
     0
  9
$TDCREATE
 40
2455576.711569167
  9
$TDUCREATE
 40
2455576.6699025
  9
$TDUPDATE
 40
2455576.711569178
  9
$TDUUPDATE
 40
2455576.669902511
  9
$TDINDWG
 40
0.0000000116
  9
$TDUSRTIMER
 40
0.0000000116
  9
$USRTIMER
 70
     1
  9
$ANGBASE
 50
0.0
  9
$ANGDIR
 70
     0
  9
$PDMODE
 70
     0
  9
$PDSIZE
 40
0.0
  9
$PLINEWID
 40
0.0
  9
$SPLFRAME
 70
     0
  9
$SPLINETYPE
 70
     6
  9
$SPLINESEGS
 70
     8
  9
$HANDSEED
  5
465
  9
$SURFTAB1
 70
     6
  9
$SURFTAB2
 70
     6
  9
$SURFTYPE
 70
     6
  9
$SURFU
 70
     6
  9
$SURFV
 70
     6
  9
$UCSBASE
  2

  9
$UCSNAME
  2

  9
$UCSORG
 10
0.0
 20
0.0
 30
0.0
  9
$UCSXDIR
 10
1.0
 20
0.0
 30
0.0
  9
$UCSYDIR
 10
0.0
 20
1.0
 30
0.0
  9
$UCSORTHOREF
  2

  9
$UCSORTHOVIEW
 70
     0
  9
$UCSORGTOP
 10
0.0
 20
0.0
 30
0.0
  9
$UCSORGBOTTOM
 10
0.0
 20
0.0
 30
0.0
  9
$UCSORGLEFT
 10
0.0
 20
0.0
 30
0.0
  9
$UCSORGRIGHT
 10
0.0
 20
0.0
 30
0.0
  9
$UCSORGFRONT
 10
0.0
 20
0.0
 30
0.0
  9
$UCSORGBACK
 10
0.0
 20
0.0
 30
0.0
  9
$PUCSBASE
  2

  9
$PUCSNAME
  2

  9
$PUCSORG
 10
0.0
 20
0.0
 30
0.0
  9
$PUCSXDIR
 10
1.0
 20
0.0
 30
0.0
  9
$PUCSYDIR
 10
0.0
 20
1.0
 30
0.0
  9
$PUCSORTHOREF
  2

  9
$PUCSORTHOVIEW
 70
     0
  9
$PUCSORGTOP
 10
0.0
 20
0.0
 30
0.0
  9
$PUCSORGBOTTOM
 10
0.0
 20
0.0
 30
0.0
  9
$PUCSORGLEFT
 10
0.0
 20
0.0
 30
0.0
  9
$PUCSORGRIGHT
 10
0.0
 20
0.0
 30
0.0
  9
$PUCSORGFRONT
 10
0.0
 20
0.0
 30
0.0
  9
$PUCSORGBACK
 10
0.0
 20
0.0
 30
0.0
  9
$USERI1
 70
     0
  9
$USERI2
 70
     0
  9
$USERI3
 70
     0
  9
$USERI4
 70
     0
  9
$USERI5
 70
     0
  9
$USERR1
 40
0.0
  9
$USERR2
 40
0.0
  9
$USERR3
 40
0.0
  9
$USERR4
 40
0.0
  9
$USERR5
 40
0.0
  9
$WORLDVIEW
 70
     1
  9
$SHADEDGE
 70
     3
  9
$SHADEDIF
 70
    70
  9
$TILEMODE
 70
     1
  9
$MAXACTVP
 70
    64
  9
$PINSBASE
 10
0.0
 20
0.0
 30
0.0
  9
$PLIMCHECK
 70
     0
  9
$PEXTMIN
 10
1.000000E+20
 20
1.000000E+20
 30
1.000000E+20
  9
$PEXTMAX
 10
-1.000000E+20
 20
-1.000000E+20
 30
-1.000000E+20
  9
$PLIMMIN
 10
0.0
 20
0.0
  9
$PLIMMAX
 10
420.0
 20
297.0
  9
$UNITMODE
 70
     0
  9
$VISRETAIN
 70
     1
  9
$PLINEGEN
 70
     0
  9
$PSLTSCALE
 70
     1
  9
$TREEDEPTH
 70
  3020
  9
$CMLSTYLE
  2
Standard
  9
$CMLJUST
 70
     0
  9
$CMLSCALE
 40
20.0
  9
$PROXYGRAPHICS
 70
     1
  9
$MEASUREMENT
 70
     1
  9
$CELWEIGHT
370
    -1
  9
$ENDCAPS
280
     0
  9
$JOINSTYLE
280
     0
  9
$LWDISPLAY
290
     0
  9
$INSUNITS
 70
     4
  9
$HYPERLINKBASE
  1

  9
$STYLESHEET
  1

  9
$XEDIT
290
     1
  9
$CEPSNTYPE
380
     0
  9
$PSTYLEMODE
290
     1
  9
$FINGERPRINTGUID
  2
{67078C03-B8DA-42E1-B961-AB004B8F3E59}
  9
$VERSIONGUID
  2
{FAEB1C32-E019-11D5-929B-00C0DF256EC4}
  9
$EXTNAMES
290
     1
  9
$PSVPSCALE
 40
0.0
  9
$OLESTARTUP
290
     0
  0
ENDSEC
  0
SECTION
  2
CLASSES
  0
CLASS
  1
ACDBDICTIONARYWDFLT
  2
AcDbDictionaryWithDefault
  3
ObjectDBX Classes
 90
        0
280
     0
281
     0
  0
CLASS
  1
VISUALSTYLE
  2
AcDbVisualStyle
  3
ObjectDBX Classes
 90
     4095
280
     0
281
     0
  0
CLASS
  1
DICTIONARYVAR
  2
AcDbDictionaryVar
  3
ObjectDBX Classes
 90
        0
280
     0
281
     0
  0
CLASS
  1
ACDBPLACEHOLDER
  2
AcDbPlaceHolder
  3
ObjectDBX Classes
 90
        0
280
     0
281
     0
  0
CLASS
  1
LAYOUT
  2
AcDbLayout
  3
ObjectDBX Classes
 90
        0
280
     0
281
     0
  0
ENDSEC
  0
SECTION
  2
TABLES
  0
TABLE
  2
VPORT
  5
8
330
0
100
AcDbSymbolTable
 70
     1
  0
VPORT
  5
29
330
8
100
AcDbSymbolTableRecord
100
AcDbViewportTableRecord
  2
*Active
 70
     0
 10
0.0
 20
0.0
 11
1.0
 21
1.0
 12
344.186916
 22
148.5
 13
0.0
 23
0.0
 14
10.0
 24
10.0
 15
10.0
 25
10.0
 16
0.0
 26
0.0
 36
1.0
 17
0.0
 27
0.0
 37
0.0
 40
297.0
 41
1.972973
 42
50.0
 43
0.0
 44
0.0
 50
0.0
 51
0.0
 71
     0
 72
   100
 73
     1
 74
     3
 75
     0
 76
     0
 77
     0
 78
     0
281
     0
 65
     1
110
0.0
120
0.0
130
0.0
111
1.0
121
0.0
131
0.0
112
0.0
122
1.0
132
0.0
 79
     0
146
0.0
  0
ENDTAB
  0
TABLE
  2
LTYPE
  5
5
330
0
100
AcDbSymbolTable
 70
     1
  0
LTYPE
  5
14
330
5
100
AcDbSymbolTableRecord
100
AcDbLinetypeTableRecord
  2
ByBlock
 70
     0
  3

 72
    65
 73
     0
 40
0.0
  0
LTYPE
  5
15
330
5
100
AcDbSymbolTableRecord
100
AcDbLinetypeTableRecord
  2
ByLayer
 70
     0
  3

 72
    65
 73
     0
 40
0.0
  0
LTYPE
  5
16
330
5
100
AcDbSymbolTableRecord
100
AcDbLinetypeTableRecord
  2
Continuous
 70
     0
  3
Solid line
 72
    65
 73
     0
 40
0.0
  0
ENDTAB
  0
TABLE
  2
LAYER
  5
2
330
0
100
AcDbSymbolTable
 70
     1
  0
LAYER
  5
10
330
2
100
AcDbSymbolTableRecord
100
AcDbLayerTableRecord
  2
0
 70
     0
 62
   106
  6
Continuous
370
     0
390
F
  0
ENDTAB
  0
TABLE
  2
STYLE
  5
3
330
0
100
AcDbSymbolTable
 70
     4
  0
STYLE
  5
11
330
3
100
AcDbSymbolTableRecord
100
AcDbTextStyleTableRecord
  2
Standard
 70
     0
 40
0.0
 41
1.0
 50
0.0
 71
     0
 42
2.5
  3
txt
  4

  0
STYLE
  5
3B
330
3
100
AcDbSymbolTableRecord
100
AcDbTextStyleTableRecord
  2
Default
 70
     0
 40
0.0
 41
1.0
 50
0.0
 71
     0
 42
0.2
  3

  4

1001
ACAD
1000
txt
1071
        0
  0
STYLE
  5
3C
330
3
100
AcDbSymbolTableRecord
100
AcDbTextStyleTableRecord
  2
ISO
 70
     0
 40
0.0
 41
1.0
 50
0.0
 71
     0
 42
0.2
  3

  4

1001
ACAD
1000
txt
1071
        0
  0
STYLE
  5
3D
330
3
100
AcDbSymbolTableRecord
100
AcDbTextStyleTableRecord
  2
GIANLU
 70
     0
 40
0.0
 41
1.0
 50
0.0
 71
     0
 42
0.2
  3

  4

1001
ACAD
1000
Arial
1071
        0
  0
ENDTAB
  0
TABLE
  2
VIEW
  5
6
330
0
100
AcDbSymbolTable
 70
     0
  0
ENDTAB
  0
TABLE
  2
UCS
  5
7
330
0
100
AcDbSymbolTable
 70
     0
  0
ENDTAB
  0
TABLE
  2
APPID
  5
9
330
0
100
AcDbSymbolTable
 70
     1
  0
APPID
  5
12
330
9
100
AcDbSymbolTableRecord
100
AcDbRegAppTableRecord
  2
ACAD
 70
     0
  0
ENDTAB
  0
TABLE
  2
DIMSTYLE
  5
A
330
0
100
AcDbSymbolTable
 70
     4
100
AcDbDimStyleTable
  0
DIMSTYLE
105
27
330
A
100
AcDbSymbolTableRecord
100
AcDbDimStyleTableRecord
  2
ISO-25
 70
     0
 41
2.5
 42
0.625
 43
3.75
 44
1.25
 73
     0
 74
     0
 77
     1
 78
     8
140
2.5
141
2.5
143
0.03937
147
0.625
171
     3
172
     1
271
     2
272
     2
274
     3
278
    44
283
     0
284
     8
340
11
  0
DIMSTYLE
105
3E
330
A
100
AcDbSymbolTableRecord
100
AcDbDimStyleTableRecord
  2
Default
 70
     0
  3
<>
 41
4.375
 42
1.05
 44
2.1
 73
     0
 74
     0
 77
     1
 78
     8
140
3.5
146
0.4
147
1.75
178
     3
271
     2
272
     3
284
     8
340
3B
341
3F
342
3F
  0
DIMSTYLE
105
46
330
A
100
AcDbSymbolTableRecord
100
AcDbDimStyleTableRecord
  2
ISO
 70
     0
  3
<>
 41
4.375
 42
1.05
 44
2.1
 73
     0
 74
     0
 77
     1
 78
     8
140
3.5
146
0.4
147
1.75
178
     3
271
     2
272
     3
284
     8
340
3C
341
3F
342
3F
  0
DIMSTYLE
105
47
330
A
100
AcDbSymbolTableRecord
100
AcDbDimStyleTableRecord
  2
zucchetti_unico
 70
     0
  3
<>
 41
3.0
 42
0.9
 44
1.8
 73
     0
 74
     0
 77
     1
 78
     8
140
3.0
146
0.6
147
1.5
176
   104
177
     3
178
     3
271
     2
272
     2
284
     8
340
3D
  0
ENDTAB
  0
TABLE
  2
BLOCK_RECORD
  5
1
330
0
100
AcDbSymbolTable
 70
     7
  0
BLOCK_RECORD
  5
1F
330
1
100
AcDbSymbolTableRecord
100
AcDbBlockTableRecord
  2
*Model_Space
340
22
  0
BLOCK_RECORD
  5
1B
330
1
100
AcDbSymbolTableRecord
100
AcDbBlockTableRecord
  2
*Paper_Space
340
1E
  0
BLOCK_RECORD
  5
23
330
1
100
AcDbSymbolTableRecord
100
AcDbBlockTableRecord
  2
*Paper_Space0
340
26
  0
BLOCK_RECORD
  5
3F
330
1
100
AcDbSymbolTableRecord
100
AcDbBlockTableRecord
  2
_CLOSED
340
0
  0
BLOCK_RECORD
  5
48
330
1
100
AcDbSymbolTableRecord
100
AcDbBlockTableRecord
  2
a
340
0
102
{BLKREFS
331
131
102
}
  0
BLOCK_RECORD
  5
132
330
1
100
AcDbSymbolTableRecord
100
AcDbBlockTableRecord
  2
b
340
0
102
{BLKREFS
331
17B
102
}
  0
BLOCK_RECORD
  5
17C
330
1
100
AcDbSymbolTableRecord
100
AcDbBlockTableRecord
  2
c
340
0
102
{BLKREFS
331
26E
102
}
  0
BLOCK_RECORD
  5
26F
330
1
100
AcDbSymbolTableRecord
100
AcDbBlockTableRecord
  2
d
340
0
102
{BLKREFS
331
371
102
}
  0
BLOCK_RECORD
  5
372
330
1
100
AcDbSymbolTableRecord
100
AcDbBlockTableRecord
  2
e
340
0
102
{BLKREFS
331
45F
102
}
  0
ENDTAB
  0
ENDSEC
  0
SECTION
  2
BLOCKS
  0
BLOCK
  5
20
330
1F
100
AcDbEntity
  8
0
100
AcDbBlockBegin
  2
*Model_Space
 70
     0
 10
0.0
 20
0.0
 30
0.0
  3
*Model_Space
  1

  0
ENDBLK
  5
21
330
1F
100
AcDbEntity
  8
0
100
AcDbBlockEnd
  0
BLOCK
  5
1C
330
1B
100
AcDbEntity
 67
     1
  8
0
100
AcDbBlockBegin
  2
*Paper_Space
 70
     0
 10
0.0
 20
0.0
 30
0.0
  3
*Paper_Space
  1

  0
ENDBLK
  5
1D
330
1B
100
AcDbEntity
 67
     1
  8
0
100
AcDbBlockEnd
  0
BLOCK
  5
24
330
23
100
AcDbEntity
  8
0
100
AcDbBlockBegin
  2
*Paper_Space0
 70
     0
 10
0.0
 20
0.0
 30
0.0
  3
*Paper_Space0
  1

  0
ENDBLK
  5
25
330
23
100
AcDbEntity
  8
0
100
AcDbBlockEnd
  0
BLOCK
  5
40
330
3F
100
AcDbEntity
  8
0
100
AcDbBlockBegin
  2
_CLOSED
 70
     0
 10
0.0
 20
0.0
 30
0.0
  3
_CLOSED
  1

  0
LINE
  5
42
330
3F
100
AcDbEntity
  8
0
  6
ByBlock
 62
     0
370
    -2
100
AcDbLine
 10
-1.0
 20
0.166667
 30
0.0
 11
0.0
 21
0.0
 31
0.0
  0
LINE
  5
43
330
3F
100
AcDbEntity
  8
0
  6
ByBlock
 62
     0
370
    -2
100
AcDbLine
 10
0.0
 20
0.0
 30
0.0
 11
-1.0
 21
-0.166667
 31
0.0
  0
LINE
  5
44
330
3F
100
AcDbEntity
  8
0
  6
ByBlock
 62
     0
370
    -2
100
AcDbLine
 10
-1.0
 20
0.166667
 30
0.0
 11
-1.0
 21
-0.166667
 31
0.0
  0
LINE
  5
45
330
3F
100
AcDbEntity
  8
0
  6
ByBlock
 62
     0
370
    -2
100
AcDbLine
 10
0.0
 20
0.0
 30
0.0
 11
-1.0
 21
0.0
 31
0.0
  0
ENDBLK
  5
41
330
3F
100
AcDbEntity
  8
0
100
AcDbBlockEnd
  0
BLOCK
  5
12F
330
48
100
AcDbEntity
  8
0
100
AcDbBlockBegin
  2
a
 70
     0
 10
17.136677
 20
99.038429
 30
0.0
  3
a
  1

  0
ARC
  5
49
330
48
100
AcDbEntity
  8
0
  6
Continuous
 62
     0
370
    30
100
AcDbCircle
 10
105.515439
 20
706.1166
 30
0.0
 40
19.66608080893975
100
AcDbArc
 50
269.999397
 51
78.265003
  0
ARC
  5
4A
330
48
100
AcDbEntity
  8
0
  6
Continuous
 62
     0
370
    30
100
AcDbCircle
 10
105.515025
 20
706.1166
 30
0.0
 40
19.66608080893975
100
AcDbArc
 50
101.734997
 51
270.000603
  0
ARC
  5
4B
330
48
100
AcDbEntity
  8
0
  6
Continuous
 62
     0
370
    30
100
AcDbCircle
 10
105.515819
 20
706.070976
 30
0.0
 40
59.99882685985408
100
AcDbArc
 50
269.99944
 51
90.00056
  0
ARC
  5
4C
330
48
100
AcDbEntity
  8
0
  6
Continuous
 62
     0
370
    30
100
AcDbCircle
 10
105.514646
 20
706.070976
 30
0.0
 40
59.99882685985408
100
AcDbArc
 50
89.99944
 51
270.00056
  0
ARC
  5
4D
330
48
100
AcDbEntity
  8
0
  6
Continuous
 62
     0
370
     0
100
AcDbCircle
 10
105.514651
 20
706.115184
 30
0.0
 40
59.45461899556535
100
AcDbArc
 50
89.99944
 51
270.00056
  0
ARC
  5
4E
330
48
100
AcDbEntity
  8
0
  6
Continuous
 62
     0
370
     0
100
AcDbCircle
 10
105.515813
 20
706.115184
 30
0.0
 40
59.45461899556535
100
AcDbArc
 50
269.99944
 51
90.00056
  0
ARC
  5
4F
330
48
100
AcDbEntity
  8
0
  6
Continuous
 62
     0
370
    30
100
AcDbCircle
 10
105.515818
 20
706.112983
 30
0.0
 40
59.95682010142477
100
AcDbArc
 50
269.99944
 51
90.00056
  0
ARC
  5
50
330
48
100
AcDbEntity
  8
0
  6
Continuous
 62
     0
370
    30
100
AcDbCircle
 10
105.514646
 20
706.112983
 30
0.0
 40
59.95682010142477
100
AcDbArc
 50
89.99944
 51
270.00056
  0
ARC
  5
51
330
48
100
AcDbEntity
  8
0
  6
Continuous
 62
     0
370
     0
100
AcDbCircle
 10
105.515046
 20
706.283087
 30
0.0
 40
18.99962850561706
100
AcDbArc
 50
89.99944
 51
270.00056
  0
ARC
  5
52
330
48
100
AcDbEntity
  8
0
  6
Continuous
 62
     0
370
     0
100
AcDbCircle
 10
105.515418
 20
706.283087
 30
0.0
 40
18.99962850561706
100
AcDbArc
 50
269.99944
 51
90.00056
  0
ARC
  5
53
330
48
100
AcDbEntity
  8
0
  6
Continuous
 62
     0
370
    30
100
AcDbCircle
 10
105.515423
 20
706.280886
 30
0.0
 40
19.50182961147284
100
AcDbArc
 50
269.99944
 51
90.00056
  0
ARC
  5
54
330
48
100
AcDbEntity
  8
0
  6
Continuous
 62
     0
370
    30
100
AcDbCircle
 10
105.515041
 20
706.280886
 30
0.0
 40
19.50182961147284
100
AcDbArc
 50
89.99944
 51
270.00056
  0
LINE
  5
55
330
48
100
AcDbEntity
  8
0
  6
Continuous
 62
     0
370
     0
100
AcDbLine
 10
104.349846
 20
732.783087
 30
0.0
 11
101.515232
 21
732.783087
 31
0.0
  0
LINE
  5
56
330
48
100
AcDbEntity
  8
0
  6
Continuous
 62
     0
370
     0
100
AcDbLine
 10
109.515232
 20
732.783087
 30
0.0
 11
104.349846
 21
732.783087
 31
0.0
  0
LINE
  5
57
330
48
100
AcDbEntity
  8
0
  6
Continuous
 62
     0
370
    30
100
AcDbLine
 10
109.015232
 20
733.283087
 30
0.0
 11
104.495519
 21
733.283087
 31
0.0
  0
LINE
  5
58
330
48
100
AcDbEntity
  8
0
  6
Continuous
 62
     0
370
    30
100
AcDbLine
 10
104.495519
 20
733.283087
 30
0.0
 11
102.015232
 21
733.283087
 31
0.0
  0
ARC
  5
59
330
48
100
AcDbEntity
  8
0
  6
Continuous
 62
     0
370
    30
100
AcDbCircle
 10
109.015069
 20
732.783094
 30
0.0
 40
0.4999921416634377
100
AcDbArc
 50
359.999099
 51
89.980905
  0
ARC
  5
5A
330
48
100
AcDbEntity
  8
0
  6
Continuous
 62
     0
370
    30
100
AcDbCircle
 10
102.01524
 20
732.783084
 30
0.0
 40
0.5000024122982065
100
AcDbArc
 50
90.002903
 51
179.999724
  0
LINE
  5
5B
330
48
100
AcDbEntity
  8
0
  6
Continuous
 62
     0
370
    30
100
AcDbLine
 10
101.515232
 20
732.783087
 30
0.0
 11
101.515232
 21
725.369218
 31
0.0
  0
LINE
  5
5C
330
48
100
AcDbEntity
  8
0
  6
Continuous
 62
     0
370
    30
100
AcDbLine
 10
109.515232
 20
732.783087
 30
0.0
 11
109.515232
 21
725.368979
 31
0.0
  0
LINE
  5
5D
330
48
100
AcDbEntity
  8
0
  6
Continuous
 62
     0
370
     0
100
AcDbLine
 10
111.227152
 20
859.430561
 30
0.0
 11
111.254974
 21
861.240438
 31
0.0
  0
ARC
  5
5E
330
48
100
AcDbEntity
  8
0
  6
Continuous
 62
     0
370
    30
100
AcDbCircle
 10
105.515234
 20
811.572059
 30
0.0
 40
49.99892436391242
100
AcDbArc
 50
83.408068
 51
96.591937
  0
LINE
  5
5F
330
48
100
AcDbEntity
  8
0
  6
Continuous
 62
     0
370
     0
100
AcDbLine
 10
99.77549
 20
861.240437
 30
0.0
 11
99.803312
 21
859.430561
 31
0.0
  0
ARC
  5
60
330
48
100
AcDbEntity
  8
0
  6
Continuous
 62
     0
370
     0
100
AcDbCircle
 10
105.515236
 20
-455.963823
 30
0.0
 40
1315.406785989005
100
AcDbArc
 50
89.751203
 51
90.248798
  0
LWPOLYLINE
  5
61
330
48
100
AcDbEntity
  8
0
  6
Continuous
 62
     0
370
     0
100
AcDbPolyline
 90
        3
 70
     0
 43
0.0
 10
126.882759
 20
859.329773
 10
127.027954
 20
859.383545
 10
127.198158
 20
859.398071
  0
LINE
  5
62
330
48
100
AcDbEntity
  8
0
  6
Continuous
 62
     0
370
    30
100
AcDbLine
 10
126.809387
 20
859.442989
 30
0.0
 11
111.254974
 21
861.240438
 31
0.0
  0
ARC
  5
63
330
48
100
AcDbEntity
  8
0
  6
Continuous
 62
     0
370
     0
100
AcDbCircle
 10
95.587315
 20
-2785.289671
 30
0.0
 40
3644.753787511123
100
AcDbArc
 50
89.508027
 51
89.75414
  0
ARC
  5
64
330
48
100
AcDbEntity
  8
0
  6
Continuous
 62
     0
370
    30
100
AcDbCircle
 10
127.08337
 20
853.737315
 30
0.0
 40
1.00003357810921
100
AcDbArc
 50
276.591075
 51
359.998766
  0
LINE
  5
65
330
48
100
AcDbEntity
  8
0
  6
Continuous
 62
     0
370
    30
100
AcDbLine
 10
111.254974
 20
850.901515
 30
0.0
 11
126.809387
 21
852.698965
 31
0.0
  0
ARC
  5
66
330
48
100
AcDbEntity
  8
0
  6
Continuous
 62
     0
370
    30
100
AcDbCircle
 10
105.51523
 20
900.569939
 30
0.0
 40
49.99896991763178
100
AcDbArc
 50
263.408074
 51
276.591931
  0
LINE
  5
67
330
48
100
AcDbEntity
  8
0
  6
Continuous
 62
     0
370
    30
100
AcDbLine
 10
84.217646
 20
852.69936
 30
0.0
 11
99.77549
 21
850.901515
 31
0.0
  0
ARC
  5
68
330
48
100
AcDbEntity
  8
0
  6
Continuous
 62
     0
370
    30
100
AcDbCircle
 10
83.947094
 20
853.737313
 30
0.0
 40
1.000033531310699
100
AcDbArc
 50
180.001222
 51
263.408931
  0
LINE
  5
69
330
48
100
AcDbEntity
  8
0
  6
Continuous
 62
     0
370
    30
100
AcDbLine
 10
82.94706
 20
858.404659
 30
0.0
 11
82.947061
 21
853.737292
 31
0.0
  0
ARC
  5
6A
330
48
100
AcDbEntity
  8
0
  6
Continuous
 62
     0
370
    30
100
AcDbCircle
 10
83.947094
 20
858.404638
 30
0.0
 40
1.000033579018021
100
AcDbArc
 50
96.591075
 51
179.998766
  0
LINE
  5
6B
330
48
100
AcDbEntity
  8
0
  6
Continuous
 62
     0
370
    30
100
AcDbLine
 10
99.77549
 20
861.240437
 30
0.0
 11
84.217646
 21
859.442591
 31
0.0
  0
ARC
  5
6C
330
48
100
AcDbEntity
  8
0
  6
Continuous
 62
     0
370
    30
100
AcDbCircle
 10
127.08337
 20
858.40464
 30
0.0
 40
1.00003352725355
100
AcDbArc
 50
0.001221
 51
83.408845
  0
LINE
  5
6D
330
48
100
AcDbEntity
  8
0
  6
Continuous
 62
     0
370
    30
100
AcDbLine
 10
128.083404
 20
853.737293
 30
0.0
 11
128.083404
 21
858.404661
 31
0.0
  0
LWPOLYLINE
  5
6E
330
48
100
AcDbEntity
  8
0
  6
Continuous
 62
     0
370
     0
100
AcDbPolyline
 90
        3
 70
     0
 43
0.0
 10
83.832306
 20
859.398071
 10
83.927795
 20
859.397278
 10
84.147705
 20
859.329773
  0
ARC
  5
6F
330
48
100
AcDbEntity
  8
0
  6
Continuous
 62
     0
370
     0
100
AcDbCircle
 10
115.447864
 20
-2785.972521
 30
0.0
 40
3645.436651232269
100
AcDbArc
 50
90.245888
 51
90.491955
  0
ARC
  5
70
330
48
100
AcDbEntity
  8
0
  6
Continuous
 62
     0
370
     0
100
AcDbCircle
 10
105.515521
 20
-259.973995
 30
0.0
 40
1118.426616325944
100
AcDbArc
 50
89.70766
 51
90.292371
  0
LINE
  5
71
330
48
100
AcDbEntity
  8
0
  6
Continuous
 62
     0
370
     0
100
AcDbLine
 10
111.227152
 20
859.430561
 30
0.0
 11
111.222044
 21
858.438063
 31
0.0
  0
LINE
  5
72
330
48
100
AcDbEntity
  8
0
  6
Continuous
 62
     0
370
     0
100
AcDbLine
 10
99.808392
 20
858.43806
 30
0.0
 11
99.803311
 21
859.430559
 31
0.0
  0
ARC
  5
73
330
48
100
AcDbEntity
  8
0
  6
Continuous
 62
     0
370
     0
100
AcDbCircle
 10
126.873761
 20
858.329678
 30
0.0
 40
1.000122158134687
100
AcDbArc
 50
0.009049
 51
89.484348
  0
ARC
  5
74
330
48
100
AcDbEntity
  8
0
  6
Continuous
 62
     0
370
     0
100
AcDbCircle
 10
128.050638
 20
858.165655
 30
0.0
 40
0.2412418694962075
100
AcDbArc
 50
82.19385
 51
137.112223
  0
ARC
  5
75
330
48
100
AcDbEntity
  8
0
  6
Continuous
 62
     0
370
     0
100
AcDbCircle
 10
89.726356
 20
-3382.021275
 30
0.0
 40
4240.513820642898
100
AcDbArc
 50
89.498074
 51
89.709559
  0
LINE
  5
76
330
48
100
AcDbEntity
  8
0
  6
Continuous
 62
     0
370
     0
100
AcDbLine
 10
126.882761
 20
859.329756
 30
0.0
 11
126.873921
 21
858.329833
 31
0.0
  0
LINE
  5
77
330
48
100
AcDbEntity
  8
0
  6
Continuous
 62
     0
370
     0
100
AcDbLine
 10
127.873883
 20
853.812119
 30
0.0
 11
127.873883
 21
858.329836
 31
0.0
  0
ARC
  5
78
330
48
100
AcDbEntity
  8
0
  6
Continuous
 62
     0
370
     0
100
AcDbCircle
 10
128.050638
 20
853.9763
 30
0.0
 40
0.2412417709913083
100
AcDbArc
 50
222.887776
 51
277.806171
  0
ARC
  5
79
330
48
100
AcDbEntity
  8
0
  6
Continuous
 62
     0
370
     0
100
AcDbCircle
 10
82.979826
 20
858.165653
 30
0.0
 40
0.2412417721090601
100
AcDbArc
 50
42.887776
 51
97.806171
  0
ARC
  5
7A
330
48
100
AcDbEntity
  8
0
  6
Continuous
 62
     0
370
     0
100
AcDbCircle
 10
84.156703
 20
858.329676
 30
0.0
 40
1.000122158358923
100
AcDbArc
 50
90.515657
 51
179.990956
  0
ARC
  5
7B
330
48
100
AcDbEntity
  8
0
  6
Continuous
 62
     0
370
     0
100
AcDbCircle
 10
82.979826
 20
853.976298
 30
0.0
 40
0.2412418666448657
100
AcDbArc
 50
262.19385
 51
317.112223
  0
LINE
  5
7C
330
48
100
AcDbEntity
  8
0
  6
Continuous
 62
     0
370
     0
100
AcDbLine
 10
83.156581
 20
853.812117
 30
0.0
 11
83.156581
 21
858.329834
 31
0.0
  0
ARC
  5
7D
330
48
100
AcDbEntity
  8
0
  6
Continuous
 62
     0
370
     0
100
AcDbCircle
 10
84.156704
 20
853.812275
 30
0.0
 40
1.000122158097614
100
AcDbArc
 50
180.009049
 51
269.484348
  0
LWPOLYLINE
  5
7E
330
48
100
AcDbEntity
  8
0
  6
Continuous
 62
     0
370
    30
100
AcDbPolyline
 90
        3
 70
     0
 43
0.0
 10
84.147705
 20
852.812195
 10
84.008156
 20
852.759766
 10
83.832306
 20
852.743896
  0
ARC
  5
7F
330
48
100
AcDbEntity
  8
0
  6
Continuous
 62
     0
370
     0
100
AcDbCircle
 10
115.448348
 20
4498.239056
 30
0.0
 40
3645.561234944681
100
AcDbArc
 50
269.508055
 51
269.754113
  0
LINE
  5
80
330
48
100
AcDbEntity
  8
0
  6
Continuous
 62
     0
370
     0
100
AcDbLine
 10
99.803312
 20
852.711391
 30
0.0
 11
99.77549
 21
850.901515
 31
0.0
  0
ARC
  5
81
330
48
100
AcDbEntity
  8
0
  6
Continuous
 62
     0
370
     0
100
AcDbCircle
 10
105.515105
 20
2167.688233
 30
0.0
 40
1314.989246878283
100
AcDbArc
 50
269.751129
 51
270.248882
  0
LINE
  5
82
330
48
100
AcDbEntity
  8
0
  6
Continuous
 62
     0
370
     0
100
AcDbLine
 10
111.227153
 20
852.711392
 30
0.0
 11
111.254974
 21
850.901515
 31
0.0
  0
ARC
  5
83
330
48
100
AcDbEntity
  8
0
  6
Continuous
 62
     0
370
     0
100
AcDbCircle
 10
95.585656
 20
4497.64155
 30
0.0
 40
3644.963719038458
100
AcDbArc
 50
270.245872
 51
270.49197
  0
LWPOLYLINE
  5
84
330
48
100
AcDbEntity
  8
0
  6
Continuous
 62
     0
370
     0
100
AcDbPolyline
 90
        3
 70
     0
 43
0.0
 10
126.882759
 20
852.812195
 10
127.027954
 20
852.758423
 10
127.198158
 20
852.743896
  0
ARC
  5
85
330
48
100
AcDbEntity
  8
0
  6
Continuous
 62
     0
370
     0
100
AcDbCircle
 10
126.873761
 20
853.812277
 30
0.0
 40
1.000122158385637
100
AcDbArc
 50
270.515657
 51
359.990956
  0
ARC
  5
86
330
48
100
AcDbEntity
  8
0
  6
Continuous
 62
     0
370
     0
100
AcDbCircle
 10
121.431058
 20
-3400.678007
 30
0.0
 40
4259.170955700516
100
AcDbArc
 50
90.290877
 51
90.501435
  0
LINE
  5
87
330
48
100
AcDbEntity
  8
0
  6
Continuous
 62
     0
370
     0
100
AcDbLine
 10
84.156546
 20
858.32984
 30
0.0
 11
84.147696
 21
859.329769
 31
0.0
  0
ARC
  5
88
330
48
100
AcDbEntity
  8
0
  6
Continuous
 62
     0
370
     0
100
AcDbCircle
 10
121.424531
 20
5111.790547
 30
0.0
 40
4258.141523501071
100
AcDbArc
 50
269.498531
 51
269.709141
  0
ARC
  5
89
330
48
100
AcDbEntity
  8
0
  6
Continuous
 62
     0
370
     0
100
AcDbCircle
 10
105.515603
 20
1972.014743
 30
0.0
 40
1118.325412324136
100
AcDbArc
 50
269.707601
 51
270.29236
  0
ARC
  5
8A
330
48
100
AcDbEntity
  8
0
  6
Continuous
 62
     0
370
     0
100
AcDbCircle
 10
89.59749
 20
5112.654192
 30
0.0
 40
4259.00520301359
100
AcDbArc
 50
270.290913
 51
270.501481
  0
LINE
  5
8B
330
48
100
AcDbEntity
  8
0
  6
Continuous
 62
     0
370
     0
100
AcDbLine
 10
126.873921
 20
858.329833
 30
0.0
 11
126.873921
 21
853.812121
 31
0.0
  0
LINE
  5
8C
330
48
100
AcDbEntity
  8
0
  6
Continuous
 62
     0
370
     0
100
AcDbLine
 10
84.156543
 20
853.812114
 30
0.0
 11
84.156543
 21
858.32984
 31
0.0
  0
LINE
  5
8D
330
48
100
AcDbEntity
  8
0
  6
Continuous
 62
     0
370
     0
100
AcDbLine
 10
127.873883
 20
853.812119
 30
0.0
 11
126.873921
 21
853.812119
 31
0.0
  0
LINE
  5
8E
330
48
100
AcDbEntity
  8
0
  6
Continuous
 62
     0
370
     0
100
AcDbLine
 10
126.873921
 20
858.329836
 30
0.0
 11
127.873883
 21
858.329836
 31
0.0
  0
LINE
  5
8F
330
48
100
AcDbEntity
  8
0
  6
Continuous
 62
     0
370
     0
100
AcDbLine
 10
83.156581
 20
858.329834
 30
0.0
 11
84.156546
 21
858.329834
 31
0.0
  0
LINE
  5
90
330
48
100
AcDbEntity
  8
0
  6
Continuous
 62
     0
370
     0
100
AcDbLine
 10
84.156556
 20
853.812117
 30
0.0
 11
83.156581
 21
853.812117
 31
0.0
  0
LINE
  5
91
330
48
100
AcDbEntity
  8
0
  6
Continuous
 62
     0
370
     0
100
AcDbLine
 10
84.156556
 20
853.812114
 30
0.0
 11
84.147703
 21
852.812186
 31
0.0
  0
LINE
  5
92
330
48
100
AcDbEntity
  8
0
  6
Continuous
 62
     0
370
     0
100
AcDbLine
 10
99.803312
 20
852.711391
 30
0.0
 11
99.808423
 21
853.70389
 31
0.0
  0
LINE
  5
93
330
48
100
AcDbEntity
  8
0
  6
Continuous
 62
     0
370
     0
100
AcDbLine
 10
111.227153
 20
852.711392
 30
0.0
 11
111.222042
 21
853.703888
 31
0.0
  0
LINE
  5
94
330
48
100
AcDbEntity
  8
0
  6
Continuous
 62
     0
370
     0
100
AcDbLine
 10
126.882762
 20
852.812198
 30
0.0
 11
126.873922
 21
853.812121
 31
0.0
  0
ARC
  5
95
330
48
100
AcDbEntity
  8
0
  6
Continuous
 62
     0
370
     0
100
AcDbCircle
 10
105.515232
 20
856.070976
 30
0.0
 40
32.06095238095237
100
AcDbArc
 50
180.0
 51
0.0
  0
ARC
  5
96
330
48
100
AcDbEntity
  8
0
  6
Continuous
 62
     0
370
     0
100
AcDbCircle
 10
105.515232
 20
856.070976
 30
0.0
 40
32.06095238095237
100
AcDbArc
 50
0.0
 51
180.0
  0
ARC
  5
97
330
48
100
AcDbEntity
  8
0
  6
Continuous
 62
     0
370
    30
100
AcDbCircle
 10
105.515232
 20
856.070976
 30
0.0
 40
32.50000000000001
100
AcDbArc
 50
360.0
 51
180.0
  0
ARC
  5
98
330
48
100
AcDbEntity
  8
0
  6
Continuous
 62
     0
370
    30
100
AcDbCircle
 10
105.515232
 20
856.070976
 30
0.0
 40
32.49999999999999
100
AcDbArc
 50
180.0
 51
360.0
  0
LWPOLYLINE
  5
99
330
48
100
AcDbEntity
  8
0
  6
Continuous
 62
     0
370
     0
100
AcDbPolyline
 90
       14
 70
     0
 43
0.0
 10
111.530579
 20
850.93335
 10
110.797302
 20
850.186401
 10
109.975471
 20
849.53949
 10
109.075996
 20
849.006958
 10
108.113045
 20
848.599609
 10
107.104965
 20
848.32312
 10
106.069397
 20
848.180542
 10
105.024246
 20
848.176331
 10
103.987587
 20
848.310669
 10
102.977341
 20
848.579102
 10
102.011147
 20
848.978638
 10
101.107338
 20
849.503845
 10
100.280533
 20
850.144226
 10
99.499886
 20
850.93335
  0
LWPOLYLINE
  5
9A
330
48
100
AcDbEntity
  8
0
  6
Continuous
 62
     0
370
     0
100
AcDbPolyline
 90
       14
 70
     0
 43
0.0
 10
99.499886
 20
861.208618
 10
100.233162
 20
861.955566
 10
101.054993
 20
862.602478
 10
101.954468
 20
863.13501
 10
102.917419
 20
863.542358
 10
103.925499
 20
863.818848
 10
104.961067
 20
863.961426
 10
106.006218
 20
863.965637
 10
107.042877
 20
863.831299
 10
108.053123
 20
863.562866
 10
109.019318
 20
863.16333
 10
109.923126
 20
862.638123
 10
110.749931
 20
861.997681
 10
111.530579
 20
861.208618
  0
LINE
  5
9B
330
48
100
AcDbEntity
  8
0
  6
Continuous
 62
     0
370
    30
100
AcDbLine
 10
127.197216
 20
852.743784
 30
0.0
 11
127.201072
 21
852.744236
 31
0.0
  0
LINE
  5
9C
330
48
100
AcDbEntity
  8
0
  6
Continuous
 62
     0
370
    30
100
AcDbLine
 10
127.197199
 20
852.743779
 30
0.0
 11
126.809387
 21
852.698965
 31
0.0
  0
LINE
  5
9D
330
48
100
AcDbEntity
  8
0
  6
Continuous
 62
     0
370
    30
100
AcDbLine
 10
84.217646
 20
852.69936
 30
0.0
 11
83.833274
 21
852.743776
 31
0.0
  0
LINE
  5
9E
330
48
100
AcDbEntity
  8
0
  6
Continuous
 62
     0
370
    30
100
AcDbLine
 10
83.833249
 20
852.743783
 30
0.0
 11
83.829391
 21
852.744234
 31
0.0
  0
LINE
  5
9F
330
48
100
AcDbEntity
  8
0
  6
Continuous
 62
     0
370
    30
100
AcDbLine
 10
83.829413
 20
859.397719
 30
0.0
 11
83.833255
 21
859.398169
 31
0.0
  0
LINE
  5
A0
330
48
100
AcDbEntity
  8
0
  6
Continuous
 62
     0
370
    30
100
AcDbLine
 10
127.197216
 20
859.39817
 30
0.0
 11
127.201074
 21
859.397718
 31
0.0
  0
LINE
  5
A1
330
48
100
AcDbEntity
  8
0
  6
Continuous
 62
     0
370
    30
100
AcDbLine
 10
84.217646
 20
859.442591
 30
0.0
 11
83.833274
 21
859.398175
 31
0.0
  0
LINE
  5
A2
330
48
100
AcDbEntity
  8
0
  6
Continuous
 62
     0
370
    30
100
AcDbLine
 10
127.197199
 20
859.398176
 30
0.0
 11
126.809387
 21
859.442989
 31
0.0
  0
LINE
  5
A3
330
48
100
AcDbEntity
  8
0
  6
Continuous
 62
     0
370
     0
100
AcDbLine
 10
111.227152
 20
959.430561
 30
0.0
 11
111.254974
 21
961.240438
 31
0.0
  0
ARC
  5
A4
330
48
100
AcDbEntity
  8
0
  6
Continuous
 62
     0
370
    30
100
AcDbCircle
 10
105.515234
 20
911.572059
 30
0.0
 40
49.99892436391924
100
AcDbArc
 50
83.408068
 51
96.591937
  0
LINE
  5
A5
330
48
100
AcDbEntity
  8
0
  6
Continuous
 62
     0
370
     0
100
AcDbLine
 10
99.77549
 20
961.240437
 30
0.0
 11
99.803312
 21
959.430561
 31
0.0
  0
ARC
  5
A6
330
48
100
AcDbEntity
  8
0
  6
Continuous
 62
     0
370
     0
100
AcDbCircle
 10
105.515236
 20
-355.963823
 30
0.0
 40
1315.406785989138
100
AcDbArc
 50
89.751203
 51
90.248798
  0
LWPOLYLINE
  5
A7
330
48
100
AcDbEntity
  8
0
  6
Continuous
 62
     0
370
     0
100
AcDbPolyline
 90
        3
 70
     0
 43
0.0
 10
126.882759
 20
959.329773
 10
127.027954
 20
959.383545
 10
127.198158
 20
959.398071
  0
LINE
  5
A8
330
48
100
AcDbEntity
  8
0
  6
Continuous
 62
     0
370
    30
100
AcDbLine
 10
126.809387
 20
959.442989
 30
0.0
 11
111.254974
 21
961.240438
 31
0.0
  0
ARC
  5
A9
330
48
100
AcDbEntity
  8
0
  6
Continuous
 62
     0
370
     0
100
AcDbCircle
 10
95.587315
 20
-2685.289671
 30
0.0
 40
3644.75378751794
100
AcDbArc
 50
89.508027
 51
89.75414
  0
ARC
  5
AA
330
48
100
AcDbEntity
  8
0
  6
Continuous
 62
     0
370
    30
100
AcDbCircle
 10
127.08337
 20
953.737315
 30
0.0
 40
1.000033578100752
100
AcDbArc
 50
276.591075
 51
359.998766
  0
LINE
  5
AB
330
48
100
AcDbEntity
  8
0
  6
Continuous
 62
     0
370
    30
100
AcDbLine
 10
111.254974
 20
950.901515
 30
0.0
 11
126.809387
 21
952.698965
 31
0.0
  0
ARC
  5
AC
330
48
100
AcDbEntity
  8
0
  6
Continuous
 62
     0
370
    30
100
AcDbCircle
 10
105.51523
 20
1000.569939
 30
0.0
 40
49.99896991763877
100
AcDbArc
 50
263.408074
 51
276.591931
  0
LINE
  5
AD
330
48
100
AcDbEntity
  8
0
  6
Continuous
 62
     0
370
    30
100
AcDbLine
 10
84.217646
 20
952.69936
 30
0.0
 11
99.77549
 21
950.901515
 31
0.0
  0
ARC
  5
AE
330
48
100
AcDbEntity
  8
0
  6
Continuous
 62
     0
370
    30
100
AcDbCircle
 10
83.947094
 20
953.737313
 30
0.0
 40
1.000033531307302
100
AcDbArc
 50
180.001222
 51
263.408931
  0
LINE
  5
AF
330
48
100
AcDbEntity
  8
0
  6
Continuous
 62
     0
370
    30
100
AcDbLine
 10
82.94706
 20
958.404659
 30
0.0
 11
82.947061
 21
953.737292
 31
0.0
  0
ARC
  5
B0
330
48
100
AcDbEntity
  8
0
  6
Continuous
 62
     0
370
    30
100
AcDbCircle
 10
83.947094
 20
958.404638
 30
0.0
 40
1.000033579024745
100
AcDbArc
 50
96.591075
 51
179.998766
  0
LINE
  5
B1
330
48
100
AcDbEntity
  8
0
  6
Continuous
 62
     0
370
    30
100
AcDbLine
 10
99.77549
 20
961.240437
 30
0.0
 11
84.217646
 21
959.442591
 31
0.0
  0
ARC
  5
B2
330
48
100
AcDbEntity
  8
0
  6
Continuous
 62
     0
370
    30
100
AcDbCircle
 10
127.08337
 20
958.40464
 30
0.0
 40
1.000033527252879
100
AcDbArc
 50
0.001221
 51
83.408845
  0
LINE
  5
B3
330
48
100
AcDbEntity
  8
0
  6
Continuous
 62
     0
370
    30
100
AcDbLine
 10
128.083404
 20
953.737293
 30
0.0
 11
128.083404
 21
958.404661
 31
0.0
  0
LWPOLYLINE
  5
B4
330
48
100
AcDbEntity
  8
0
  6
Continuous
 62
     0
370
     0
100
AcDbPolyline
 90
        3
 70
     0
 43
0.0
 10
83.832306
 20
959.398071
 10
83.927795
 20
959.397278
 10
84.147705
 20
959.329773
  0
ARC
  5
B5
330
48
100
AcDbEntity
  8
0
  6
Continuous
 62
     0
370
     0
100
AcDbCircle
 10
115.447864
 20
-2685.972521
 30
0.0
 40
3645.436651238658
100
AcDbArc
 50
90.245888
 51
90.491955
  0
ARC
  5
B6
330
48
100
AcDbEntity
  8
0
  6
Continuous
 62
     0
370
     0
100
AcDbCircle
 10
105.515521
 20
-159.973995
 30
0.0
 40
1118.426616329502
100
AcDbArc
 50
89.70766
 51
90.292371
  0
LINE
  5
B7
330
48
100
AcDbEntity
  8
0
  6
Continuous
 62
     0
370
     0
100
AcDbLine
 10
111.227152
 20
959.430561
 30
0.0
 11
111.222044
 21
958.438063
 31
0.0
  0
LINE
  5
B8
330
48
100
AcDbEntity
  8
0
  6
Continuous
 62
     0
370
     0
100
AcDbLine
 10
99.808392
 20
958.43806
 30
0.0
 11
99.803311
 21
959.430559
 31
0.0
  0
ARC
  5
B9
330
48
100
AcDbEntity
  8
0
  6
Continuous
 62
     0
370
     0
100
AcDbCircle
 10
126.873761
 20
958.329678
 30
0.0
 40
1.00012215814017
100
AcDbArc
 50
0.009049
 51
89.484348
  0
ARC
  5
BA
330
48
100
AcDbEntity
  8
0
  6
Continuous
 62
     0
370
     0
100
AcDbCircle
 10
128.050638
 20
958.165655
 30
0.0
 40
0.2412418695114714
100
AcDbArc
 50
82.19385
 51
137.112223
  0
ARC
  5
BB
330
48
100
AcDbEntity
  8
0
  6
Continuous
 62
     0
370
     0
100
AcDbCircle
 10
89.726356
 20
-3282.021275
 30
0.0
 40
4240.513820643037
100
AcDbArc
 50
89.498074
 51
89.709559
  0
LINE
  5
BC
330
48
100
AcDbEntity
  8
0
  6
Continuous
 62
     0
370
     0
100
AcDbLine
 10
126.882761
 20
959.329756
 30
0.0
 11
126.873921
 21
958.329833
 31
0.0
  0
LINE
  5
BD
330
48
100
AcDbEntity
  8
0
  6
Continuous
 62
     0
370
     0
100
AcDbLine
 10
127.873883
 20
953.812119
 30
0.0
 11
127.873883
 21
958.329836
 31
0.0
  0
ARC
  5
BE
330
48
100
AcDbEntity
  8
0
  6
Continuous
 62
     0
370
     0
100
AcDbCircle
 10
128.050638
 20
953.9763
 30
0.0
 40
0.2412417709749097
100
AcDbArc
 50
222.887776
 51
277.806171
  0
ARC
  5
BF
330
48
100
AcDbEntity
  8
0
  6
Continuous
 62
     0
370
     0
100
AcDbCircle
 10
82.979826
 20
958.165653
 30
0.0
 40
0.2412417719819956
100
AcDbArc
 50
42.887776
 51
97.806171
  0
ARC
  5
C0
330
48
100
AcDbEntity
  8
0
  6
Continuous
 62
     0
370
     0
100
AcDbCircle
 10
84.156703
 20
958.329676
 30
0.0
 40
1.000122158349638
100
AcDbArc
 50
90.515657
 51
179.990956
  0
ARC
  5
C1
330
48
100
AcDbEntity
  8
0
  6
Continuous
 62
     0
370
     0
100
AcDbCircle
 10
82.979826
 20
953.976298
 30
0.0
 40
0.2412418664851484
100
AcDbArc
 50
262.19385
 51
317.112223
  0
LINE
  5
C2
330
48
100
AcDbEntity
  8
0
  6
Continuous
 62
     0
370
     0
100
AcDbLine
 10
83.156581
 20
953.812117
 30
0.0
 11
83.156581
 21
958.329834
 31
0.0
  0
ARC
  5
C3
330
48
100
AcDbEntity
  8
0
  6
Continuous
 62
     0
370
     0
100
AcDbCircle
 10
84.156704
 20
953.812275
 30
0.0
 40
1.000122158102426
100
AcDbArc
 50
180.009049
 51
269.484348
  0
LWPOLYLINE
  5
C4
330
48
100
AcDbEntity
  8
0
  6
Continuous
 62
     0
370
    30
100
AcDbPolyline
 90
        3
 70
     0
 43
0.0
 10
84.147705
 20
952.812195
 10
84.008156
 20
952.759766
 10
83.832306
 20
952.743896
  0
ARC
  5
C5
330
48
100
AcDbEntity
  8
0
  6
Continuous
 62
     0
370
     0
100
AcDbCircle
 10
115.448348
 20
4598.239056
 30
0.0
 40
3645.561234951261
100
AcDbArc
 50
269.508055
 51
269.754113
  0
LINE
  5
C6
330
48
100
AcDbEntity
  8
0
  6
Continuous
 62
     0
370
     0
100
AcDbLine
 10
99.803312
 20
952.711391
 30
0.0
 11
99.77549
 21
950.901515
 31
0.0
  0
ARC
  5
C7
330
48
100
AcDbEntity
  8
0
  6
Continuous
 62
     0
370
     0
100
AcDbCircle
 10
105.515105
 20
2267.688233
 30
0.0
 40
1314.989246872333
100
AcDbArc
 50
269.751129
 51
270.248882
  0
LINE
  5
C8
330
48
100
AcDbEntity
  8
0
  6
Continuous
 62
     0
370
     0
100
AcDbLine
 10
111.227153
 20
952.711392
 30
0.0
 11
111.254974
 21
950.901515
 31
0.0
  0
ARC
  5
C9
330
48
100
AcDbEntity
  8
0
  6
Continuous
 62
     0
370
     0
100
AcDbCircle
 10
95.585656
 20
4597.64155
 30
0.0
 40
3644.96371903187
100
AcDbArc
 50
270.245872
 51
270.49197
  0
LWPOLYLINE
  5
CA
330
48
100
AcDbEntity
  8
0
  6
Continuous
 62
     0
370
     0
100
AcDbPolyline
 90
        3
 70
     0
 43
0.0
 10
126.882759
 20
952.812195
 10
127.027954
 20
952.758423
 10
127.198158
 20
952.743896
  0
ARC
  5
CB
330
48
100
AcDbEntity
  8
0
  6
Continuous
 62
     0
370
     0
100
AcDbCircle
 10
126.873761
 20
953.812277
 30
0.0
 40
1.000122158382155
100
AcDbArc
 50
270.515657
 51
359.990956
  0
ARC
  5
CC
330
48
100
AcDbEntity
  8
0
  6
Continuous
 62
     0
370
     0
100
AcDbCircle
 10
121.431058
 20
-3300.678007
 30
0.0
 40
4259.170955717423
100
AcDbArc
 50
90.290877
 51
90.501435
  0
LINE
  5
CD
330
48
100
AcDbEntity
  8
0
  6
Continuous
 62
     0
370
     0
100
AcDbLine
 10
84.156546
 20
958.32984
 30
0.0
 11
84.147696
 21
959.329769
 31
0.0
  0
ARC
  5
CE
330
48
100
AcDbEntity
  8
0
  6
Continuous
 62
     0
370
     0
100
AcDbCircle
 10
121.424531
 20
5211.790547
 30
0.0
 40
4258.141523500885
100
AcDbArc
 50
269.498531
 51
269.709141
  0
ARC
  5
CF
330
48
100
AcDbEntity
  8
0
  6
Continuous
 62
     0
370
     0
100
AcDbCircle
 10
105.515603
 20
2072.014743
 30
0.0
 40
1118.325412322976
100
AcDbArc
 50
269.707601
 51
270.29236
  0
ARC
  5
D0
330
48
100
AcDbEntity
  8
0
  6
Continuous
 62
     0
370
     0
100
AcDbCircle
 10
89.59749
 20
5212.654192
 30
0.0
 40
4259.005203022214
100
AcDbArc
 50
270.290913
 51
270.501481
  0
LINE
  5
D1
330
48
100
AcDbEntity
  8
0
  6
Continuous
 62
     0
370
     0
100
AcDbLine
 10
126.873921
 20
958.329833
 30
0.0
 11
126.873921
 21
953.812121
 31
0.0
  0
LINE
  5
D2
330
48
100
AcDbEntity
  8
0
  6
Continuous
 62
     0
370
     0
100
AcDbLine
 10
84.156543
 20
953.812114
 30
0.0
 11
84.156543
 21
958.32984
 31
0.0
  0
LINE
  5
D3
330
48
100
AcDbEntity
  8
0
  6
Continuous
 62
     0
370
     0
100
AcDbLine
 10
127.873883
 20
953.812119
 30
0.0
 11
126.873921
 21
953.812119
 31
0.0
  0
LINE
  5
D4
330
48
100
AcDbEntity
  8
0
  6
Continuous
 62
     0
370
     0
100
AcDbLine
 10
126.873921
 20
958.329836
 30
0.0
 11
127.873883
 21
958.329836
 31
0.0
  0
LINE
  5
D5
330
48
100
AcDbEntity
  8
0
  6
Continuous
 62
     0
370
     0
100
AcDbLine
 10
83.156581
 20
958.329834
 30
0.0
 11
84.156546
 21
958.329834
 31
0.0
  0
LINE
  5
D6
330
48
100
AcDbEntity
  8
0
  6
Continuous
 62
     0
370
     0
100
AcDbLine
 10
84.156556
 20
953.812117
 30
0.0
 11
83.156581
 21
953.812117
 31
0.0
  0
LINE
  5
D7
330
48
100
AcDbEntity
  8
0
  6
Continuous
 62
     0
370
     0
100
AcDbLine
 10
84.156556
 20
953.812114
 30
0.0
 11
84.147703
 21
952.812186
 31
0.0
  0
LINE
  5
D8
330
48
100
AcDbEntity
  8
0
  6
Continuous
 62
     0
370
     0
100
AcDbLine
 10
99.803312
 20
952.711391
 30
0.0
 11
99.808423
 21
953.70389
 31
0.0
  0
LINE
  5
D9
330
48
100
AcDbEntity
  8
0
  6
Continuous
 62
     0
370
     0
100
AcDbLine
 10
111.227153
 20
952.711392
 30
0.0
 11
111.222042
 21
953.703888
 31
0.0
  0
LINE
  5
DA
330
48
100
AcDbEntity
  8
0
  6
Continuous
 62
     0
370
     0
100
AcDbLine
 10
126.882762
 20
952.812198
 30
0.0
 11
126.873922
 21
953.812121
 31
0.0
  0
ARC
  5
DB
330
48
100
AcDbEntity
  8
0
  6
Continuous
 62
     0
370
     0
100
AcDbCircle
 10
105.515232
 20
956.070976
 30
0.0
 40
32.06095238095237
100
AcDbArc
 50
180.0
 51
360.0
  0
ARC
  5
DC
330
48
100
AcDbEntity
  8
0
  6
Continuous
 62
     0
370
     0
100
AcDbCircle
 10
105.515232
 20
956.070976
 30
0.0
 40
32.06095238095236
100
AcDbArc
 50
0.0
 51
180.0
  0
ARC
  5
DD
330
48
100
AcDbEntity
  8
0
  6
Continuous
 62
     0
370
    30
100
AcDbCircle
 10
105.515232
 20
956.070976
 30
0.0
 40
32.5
100
AcDbArc
 50
0.0
 51
180.0
  0
ARC
  5
DE
330
48
100
AcDbEntity
  8
0
  6
Continuous
 62
     0
370
    30
100
AcDbCircle
 10
105.515232
 20
956.070976
 30
0.0
 40
32.5
100
AcDbArc
 50
180.0
 51
360.0
  0
LWPOLYLINE
  5
DF
330
48
100
AcDbEntity
  8
0
  6
Continuous
 62
     0
370
     0
100
AcDbPolyline
 90
       14
 70
     0
 43
0.0
 10
111.530579
 20
950.93335
 10
110.797302
 20
950.186401
 10
109.975471
 20
949.53949
 10
109.075996
 20
949.006958
 10
108.113045
 20
948.599609
 10
107.104965
 20
948.32312
 10
106.069397
 20
948.180542
 10
105.024246
 20
948.176331
 10
103.987587
 20
948.310669
 10
102.977341
 20
948.579102
 10
102.011147
 20
948.978638
 10
101.107338
 20
949.503845
 10
100.280533
 20
950.144226
 10
99.499886
 20
950.93335
  0
LWPOLYLINE
  5
E0
330
48
100
AcDbEntity
  8
0
  6
Continuous
 62
     0
370
     0
100
AcDbPolyline
 90
       14
 70
     0
 43
0.0
 10
99.499886
 20
961.208618
 10
100.233162
 20
961.955566
 10
101.054993
 20
962.602478
 10
101.954468
 20
963.13501
 10
102.917419
 20
963.542358
 10
103.925499
 20
963.818848
 10
104.961067
 20
963.961426
 10
106.006218
 20
963.965637
 10
107.042877
 20
963.831299
 10
108.053123
 20
963.562866
 10
109.019318
 20
963.16333
 10
109.923126
 20
962.638123
 10
110.749931
 20
961.997681
 10
111.530579
 20
961.208618
  0
LINE
  5
E1
330
48
100
AcDbEntity
  8
0
  6
Continuous
 62
     0
370
    30
100
AcDbLine
 10
127.197216
 20
952.743784
 30
0.0
 11
127.201072
 21
952.744236
 31
0.0
  0
LINE
  5
E2
330
48
100
AcDbEntity
  8
0
  6
Continuous
 62
     0
370
    30
100
AcDbLine
 10
127.197199
 20
952.743779
 30
0.0
 11
126.809387
 21
952.698965
 31
0.0
  0
LINE
  5
E3
330
48
100
AcDbEntity
  8
0
  6
Continuous
 62
     0
370
    30
100
AcDbLine
 10
84.217646
 20
952.69936
 30
0.0
 11
83.833274
 21
952.743776
 31
0.0
  0
LINE
  5
E4
330
48
100
AcDbEntity
  8
0
  6
Continuous
 62
     0
370
    30
100
AcDbLine
 10
83.833249
 20
952.743783
 30
0.0
 11
83.829391
 21
952.744234
 31
0.0
  0
LINE
  5
E5
330
48
100
AcDbEntity
  8
0
  6
Continuous
 62
     0
370
    30
100
AcDbLine
 10
83.829413
 20
959.397719
 30
0.0
 11
83.833255
 21
959.398169
 31
0.0
  0
LINE
  5
E6
330
48
100
AcDbEntity
  8
0
  6
Continuous
 62
     0
370
    30
100
AcDbLine
 10
127.197216
 20
959.39817
 30
0.0
 11
127.201074
 21
959.397718
 31
0.0
  0
LINE
  5
E7
330
48
100
AcDbEntity
  8
0
  6
Continuous
 62
     0
370
    30
100
AcDbLine
 10
84.217646
 20
959.442591
 30
0.0
 11
83.833274
 21
959.398175
 31
0.0
  0
LINE
  5
E8
330
48
100
AcDbEntity
  8
0
  6
Continuous
 62
     0
370
    30
100
AcDbLine
 10
127.197199
 20
959.398176
 30
0.0
 11
126.809387
 21
959.442989
 31
0.0
  0
LINE
  5
E9
330
48
100
AcDbEntity
  8
0
  6
Continuous
 62
     0
370
     0
100
AcDbLine
 10
111.227152
 20
1059.430561
 30
0.0
 11
111.254974
 21
1061.240438
 31
0.0
  0
ARC
  5
EA
330
48
100
AcDbEntity
  8
0
  6
Continuous
 62
     0
370
    30
100
AcDbCircle
 10
105.515234
 20
1011.572059
 30
0.0
 40
49.9989243639353
100
AcDbArc
 50
83.408068
 51
96.591937
  0
LINE
  5
EB
330
48
100
AcDbEntity
  8
0
  6
Continuous
 62
     0
370
     0
100
AcDbLine
 10
99.77549
 20
1061.240437
 30
0.0
 11
99.803312
 21
1059.430561
 31
0.0
  0
ARC
  5
EC
330
48
100
AcDbEntity
  8
0
  6
Continuous
 62
     0
370
     0
100
AcDbCircle
 10
105.515236
 20
-255.963823
 30
0.0
 40
1315.406785981265
100
AcDbArc
 50
89.751203
 51
90.248798
  0
LWPOLYLINE
  5
ED
330
48
100
AcDbEntity
  8
0
  6
Continuous
 62
     0
370
     0
100
AcDbPolyline
 90
        3
 70
     0
 43
0.0
 10
126.882759
 20
1059.329712
 10
127.027954
 20
1059.383545
 10
127.198158
 20
1059.398071
  0
LINE
  5
EE
330
48
100
AcDbEntity
  8
0
  6
Continuous
 62
     0
370
    30
100
AcDbLine
 10
126.809387
 20
1059.442989
 30
0.0
 11
111.254974
 21
1061.240438
 31
0.0
  0
ARC
  5
EF
330
48
100
AcDbEntity
  8
0
  6
Continuous
 62
     0
370
     0
100
AcDbCircle
 10
95.587315
 20
-2585.289671
 30
0.0
 40
3644.753787510796
100
AcDbArc
 50
89.508027
 51
89.75414
  0
ARC
  5
F0
330
48
100
AcDbEntity
  8
0
  6
Continuous
 62
     0
370
    30
100
AcDbCircle
 10
127.08337
 20
1053.737315
 30
0.0
 40
1.000033578107052
100
AcDbArc
 50
276.591075
 51
359.998766
  0
LINE
  5
F1
330
48
100
AcDbEntity
  8
0
  6
Continuous
 62
     0
370
    30
100
AcDbLine
 10
111.254974
 20
1050.901515
 30
0.0
 11
126.809387
 21
1052.698965
 31
0.0
  0
ARC
  5
F2
330
48
100
AcDbEntity
  8
0
  6
Continuous
 62
     0
370
    30
100
AcDbCircle
 10
105.51523
 20
1100.569939
 30
0.0
 40
49.9989699176401
100
AcDbArc
 50
263.408074
 51
276.591931
  0
LINE
  5
F3
330
48
100
AcDbEntity
  8
0
  6
Continuous
 62
     0
370
    30
100
AcDbLine
 10
84.217646
 20
1052.69936
 30
0.0
 11
99.77549
 21
1050.901515
 31
0.0
  0
ARC
  5
F4
330
48
100
AcDbEntity
  8
0
  6
Continuous
 62
     0
370
    30
100
AcDbCircle
 10
83.947094
 20
1053.737313
 30
0.0
 40
1.000033531291096
100
AcDbArc
 50
180.001222
 51
263.408931
  0
LINE
  5
F5
330
48
100
AcDbEntity
  8
0
  6
Continuous
 62
     0
370
    30
100
AcDbLine
 10
82.94706
 20
1058.404659
 30
0.0
 11
82.947061
 21
1053.737292
 31
0.0
  0
ARC
  5
F6
330
48
100
AcDbEntity
  8
0
  6
Continuous
 62
     0
370
    30
100
AcDbCircle
 10
83.947094
 20
1058.404638
 30
0.0
 40
1.000033579029264
100
AcDbArc
 50
96.591075
 51
179.998766
  0
LINE
  5
F7
330
48
100
AcDbEntity
  8
0
  6
Continuous
 62
     0
370
    30
100
AcDbLine
 10
99.77549
 20
1061.240437
 30
0.0
 11
84.217646
 21
1059.442591
 31
0.0
  0
ARC
  5
F8
330
48
100
AcDbEntity
  8
0
  6
Continuous
 62
     0
370
    30
100
AcDbCircle
 10
127.08337
 20
1058.40464
 30
0.0
 40
1.000033527254972
100
AcDbArc
 50
0.001221
 51
83.408845
  0
LINE
  5
F9
330
48
100
AcDbEntity
  8
0
  6
Continuous
 62
     0
370
    30
100
AcDbLine
 10
128.083404
 20
1053.737293
 30
0.0
 11
128.083404
 21
1058.404661
 31
0.0
  0
LWPOLYLINE
  5
FA
330
48
100
AcDbEntity
  8
0
  6
Continuous
 62
     0
370
     0
100
AcDbPolyline
 90
        3
 70
     0
 43
0.0
 10
83.832306
 20
1059.398071
 10
83.927795
 20
1059.397217
 10
84.147705
 20
1059.329712
  0
ARC
  5
FB
330
48
100
AcDbEntity
  8
0
  6
Continuous
 62
     0
370
     0
100
AcDbCircle
 10
115.447864
 20
-2585.972521
 30
0.0
 40
3645.436651201316
100
AcDbArc
 50
90.245888
 51
90.491955
  0
ARC
  5
FC
330
48
100
AcDbEntity
  8
0
  6
Continuous
 62
     0
370
     0
100
AcDbCircle
 10
105.515521
 20
-59.973995
 30
0.0
 40
1118.426616323693
100
AcDbArc
 50
89.70766
 51
90.292371
  0
LINE
  5
FD
330
48
100
AcDbEntity
  8
0
  6
Continuous
 62
     0
370
     0
100
AcDbLine
 10
111.227152
 20
1059.430561
 30
0.0
 11
111.222044
 21
1058.438063
 31
0.0
  0
LINE
  5
FE
330
48
100
AcDbEntity
  8
0
  6
Continuous
 62
     0
370
     0
100
AcDbLine
 10
99.808392
 20
1058.43806
 30
0.0
 11
99.803311
 21
1059.430559
 31
0.0
  0
ARC
  5
FF
330
48
100
AcDbEntity
  8
0
  6
Continuous
 62
     0
370
     0
100
AcDbCircle
 10
126.873761
 20
1058.329678
 30
0.0
 40
1.000122158129127
100
AcDbArc
 50
0.009049
 51
89.484348
  0
ARC
  5
100
330
48
100
AcDbEntity
  8
0
  6
Continuous
 62
     0
370
     0
100
AcDbCircle
 10
128.050638
 20
1058.165655
 30
0.0
 40
0.2412418693769693
100
AcDbArc
 50
82.19385
 51
137.112223
  0
ARC
  5
101
330
48
100
AcDbEntity
  8
0
  6
Continuous
 62
     0
370
     0
100
AcDbCircle
 10
89.726356
 20
-3182.021275
 30
0.0
 40
4240.513820693106
100
AcDbArc
 50
89.498074
 51
89.709559
  0
LINE
  5
102
330
48
100
AcDbEntity
  8
0
  6
Continuous
 62
     0
370
     0
100
AcDbLine
 10
126.882761
 20
1059.329756
 30
0.0
 11
126.873921
 21
1058.329833
 31
0.0
  0
LINE
  5
103
330
48
100
AcDbEntity
  8
0
  6
Continuous
 62
     0
370
     0
100
AcDbLine
 10
127.873883
 20
1053.812119
 30
0.0
 11
127.873883
 21
1058.329836
 31
0.0
  0
ARC
  5
104
330
48
100
AcDbEntity
  8
0
  6
Continuous
 62
     0
370
     0
100
AcDbCircle
 10
128.050638
 20
1053.9763
 30
0.0
 40
0.2412417710955387
100
AcDbArc
 50
222.887776
 51
277.806171
  0
ARC
  5
105
330
48
100
AcDbEntity
  8
0
  6
Continuous
 62
     0
370
     0
100
AcDbCircle
 10
82.979826
 20
1058.165653
 30
0.0
 40
0.2412417720834495
100
AcDbArc
 50
42.887776
 51
97.806171
  0
ARC
  5
106
330
48
100
AcDbEntity
  8
0
  6
Continuous
 62
     0
370
     0
100
AcDbCircle
 10
84.156703
 20
1058.329676
 30
0.0
 40
1.000122158364294
100
AcDbArc
 50
90.515657
 51
179.990956
  0
ARC
  5
107
330
48
100
AcDbEntity
  8
0
  6
Continuous
 62
     0
370
     0
100
AcDbCircle
 10
82.979826
 20
1053.976298
 30
0.0
 40
0.2412418666131592
100
AcDbArc
 50
262.19385
 51
317.112223
  0
LINE
  5
108
330
48
100
AcDbEntity
  8
0
  6
Continuous
 62
     0
370
     0
100
AcDbLine
 10
83.156581
 20
1053.812117
 30
0.0
 11
83.156581
 21
1058.329834
 31
0.0
  0
ARC
  5
109
330
48
100
AcDbEntity
  8
0
  6
Continuous
 62
     0
370
     0
100
AcDbCircle
 10
84.156704
 20
1053.812275
 30
0.0
 40
1.000122158087344
100
AcDbArc
 50
180.009049
 51
269.484348
  0
LWPOLYLINE
  5
10A
330
48
100
AcDbEntity
  8
0
  6
Continuous
 62
     0
370
    30
100
AcDbPolyline
 90
        3
 70
     0
 43
0.0
 10
84.147705
 20
1052.812134
 10
84.008156
 20
1052.759766
 10
83.832306
 20
1052.743896
  0
ARC
  5
10B
330
48
100
AcDbEntity
  8
0
  6
Continuous
 62
     0
370
     0
100
AcDbCircle
 10
115.448348
 20
4698.239056
 30
0.0
 40
3645.561234889325
100
AcDbArc
 50
269.508055
 51
269.754113
  0
LINE
  5
10C
330
48
100
AcDbEntity
  8
0
  6
Continuous
 62
     0
370
     0
100
AcDbLine
 10
99.803312
 20
1052.711391
 30
0.0
 11
99.77549
 21
1050.901515
 31
0.0
  0
ARC
  5
10D
330
48
100
AcDbEntity
  8
0
  6
Continuous
 62
     0
370
     0
100
AcDbCircle
 10
105.515105
 20
2367.688233
 30
0.0
 40
1314.989246865102
100
AcDbArc
 50
269.751129
 51
270.248882
  0
LINE
  5
10E
330
48
100
AcDbEntity
  8
0
  6
Continuous
 62
     0
370
     0
100
AcDbLine
 10
111.227153
 20
1052.711392
 30
0.0
 11
111.254974
 21
1050.901515
 31
0.0
  0
ARC
  5
10F
330
48
100
AcDbEntity
  8
0
  6
Continuous
 62
     0
370
     0
100
AcDbCircle
 10
95.585656
 20
4697.64155
 30
0.0
 40
3644.963719007298
100
AcDbArc
 50
270.245872
 51
270.49197
  0
LWPOLYLINE
  5
110
330
48
100
AcDbEntity
  8
0
  6
Continuous
 62
     0
370
     0
100
AcDbPolyline
 90
        3
 70
     0
 43
0.0
 10
126.882759
 20
1052.812256
 10
127.027954
 20
1052.758423
 10
127.198158
 20
1052.743896
  0
ARC
  5
111
330
48
100
AcDbEntity
  8
0
  6
Continuous
 62
     0
370
     0
100
AcDbCircle
 10
126.873761
 20
1053.812277
 30
0.0
 40
1.000122158402278
100
AcDbArc
 50
270.515657
 51
359.990956
  0
ARC
  5
112
330
48
100
AcDbEntity
  8
0
  6
Continuous
 62
     0
370
     0
100
AcDbCircle
 10
121.431058
 20
-3200.678007
 30
0.0
 40
4259.170955701128
100
AcDbArc
 50
90.290877
 51
90.501435
  0
LINE
  5
113
330
48
100
AcDbEntity
  8
0
  6
Continuous
 62
     0
370
     0
100
AcDbLine
 10
84.156546
 20
1058.32984
 30
0.0
 11
84.147696
 21
1059.329769
 31
0.0
  0
ARC
  5
114
330
48
100
AcDbEntity
  8
0
  6
Continuous
 62
     0
370
     0
100
AcDbCircle
 10
121.424531
 20
5311.790547
 30
0.0
 40
4258.141523525695
100
AcDbArc
 50
269.498531
 51
269.709141
  0
ARC
  5
115
330
48
100
AcDbEntity
  8
0
  6
Continuous
 62
     0
370
     0
100
AcDbCircle
 10
105.515603
 20
2172.014743
 30
0.0
 40
1118.32541232298
100
AcDbArc
 50
269.707601
 51
270.29236
  0
ARC
  5
116
330
48
100
AcDbEntity
  8
0
  6
Continuous
 62
     0
370
     0
100
AcDbCircle
 10
89.59749
 20
5312.654192
 30
0.0
 40
4259.005202979964
100
AcDbArc
 50
270.290913
 51
270.501481
  0
LINE
  5
117
330
48
100
AcDbEntity
  8
0
  6
Continuous
 62
     0
370
     0
100
AcDbLine
 10
126.873921
 20
1058.329833
 30
0.0
 11
126.873921
 21
1053.812121
 31
0.0
  0
LINE
  5
118
330
48
100
AcDbEntity
  8
0
  6
Continuous
 62
     0
370
     0
100
AcDbLine
 10
84.156543
 20
1053.812114
 30
0.0
 11
84.156543
 21
1058.32984
 31
0.0
  0
LINE
  5
119
330
48
100
AcDbEntity
  8
0
  6
Continuous
 62
     0
370
     0
100
AcDbLine
 10
127.873883
 20
1053.812119
 30
0.0
 11
126.873921
 21
1053.812119
 31
0.0
  0
LINE
  5
11A
330
48
100
AcDbEntity
  8
0
  6
Continuous
 62
     0
370
     0
100
AcDbLine
 10
126.873921
 20
1058.329836
 30
0.0
 11
127.873883
 21
1058.329836
 31
0.0
  0
LINE
  5
11B
330
48
100
AcDbEntity
  8
0
  6
Continuous
 62
     0
370
     0
100
AcDbLine
 10
83.156581
 20
1058.329834
 30
0.0
 11
84.156546
 21
1058.329834
 31
0.0
  0
LINE
  5
11C
330
48
100
AcDbEntity
  8
0
  6
Continuous
 62
     0
370
     0
100
AcDbLine
 10
84.156556
 20
1053.812117
 30
0.0
 11
83.156581
 21
1053.812117
 31
0.0
  0
LINE
  5
11D
330
48
100
AcDbEntity
  8
0
  6
Continuous
 62
     0
370
     0
100
AcDbLine
 10
84.156556
 20
1053.812114
 30
0.0
 11
84.147703
 21
1052.812186
 31
0.0
  0
LINE
  5
11E
330
48
100
AcDbEntity
  8
0
  6
Continuous
 62
     0
370
     0
100
AcDbLine
 10
99.803312
 20
1052.711391
 30
0.0
 11
99.808423
 21
1053.70389
 31
0.0
  0
LINE
  5
11F
330
48
100
AcDbEntity
  8
0
  6
Continuous
 62
     0
370
     0
100
AcDbLine
 10
111.227153
 20
1052.711392
 30
0.0
 11
111.222042
 21
1053.703888
 31
0.0
  0
LINE
  5
120
330
48
100
AcDbEntity
  8
0
  6
Continuous
 62
     0
370
     0
100
AcDbLine
 10
126.882762
 20
1052.812198
 30
0.0
 11
126.873922
 21
1053.812121
 31
0.0
  0
ARC
  5
121
330
48
100
AcDbEntity
  8
0
  6
Continuous
 62
     0
370
     0
100
AcDbCircle
 10
105.515232
 20
1056.070976
 30
0.0
 40
32.06095238095237
100
AcDbArc
 50
180.0
 51
360.0
  0
ARC
  5
122
330
48
100
AcDbEntity
  8
0
  6
Continuous
 62
     0
370
     0
100
AcDbCircle
 10
105.515232
 20
1056.070976
 30
0.0
 40
32.06095238095237
100
AcDbArc
 50
0.0
 51
180.0
  0
ARC
  5
123
330
48
100
AcDbEntity
  8
0
  6
Continuous
 62
     0
370
    30
100
AcDbCircle
 10
105.515232
 20
1056.070976
 30
0.0
 40
32.5
100
AcDbArc
 50
0.0
 51
180.0
  0
ARC
  5
124
330
48
100
AcDbEntity
  8
0
  6
Continuous
 62
     0
370
    30
100
AcDbCircle
 10
105.515232
 20
1056.070976
 30
0.0
 40
32.5
100
AcDbArc
 50
180.0
 51
360.0
  0
LWPOLYLINE
  5
125
330
48
100
AcDbEntity
  8
0
  6
Continuous
 62
     0
370
     0
100
AcDbPolyline
 90
       14
 70
     0
 43
0.0
 10
111.530579
 20
1050.93335
 10
110.797302
 20
1050.186401
 10
109.975471
 20
1049.539429
 10
109.075996
 20
1049.006958
 10
108.113045
 20
1048.599609
 10
107.104965
 20
1048.32312
 10
106.069397
 20
1048.180542
 10
105.024246
 20
1048.17627
 10
103.987587
 20
1048.310669
 10
102.977341
 20
1048.579102
 10
102.011147
 20
1048.978638
 10
101.107338
 20
1049.503784
 10
100.280533
 20
1050.144287
 10
99.499886
 20
1050.93335
  0
LWPOLYLINE
  5
126
330
48
100
AcDbEntity
  8
0
  6
Continuous
 62
     0
370
     0
100
AcDbPolyline
 90
       14
 70
     0
 43
0.0
 10
99.499886
 20
1061.208618
 10
100.233162
 20
1061.955566
 10
101.054993
 20
1062.602539
 10
101.954468
 20
1063.13501
 10
102.917419
 20
1063.542358
 10
103.925499
 20
1063.818848
 10
104.961067
 20
1063.961426
 10
106.006218
 20
1063.965698
 10
107.042877
 20
1063.831299
 10
108.053123
 20
1063.562866
 10
109.019318
 20
1063.16333
 10
109.923126
 20
1062.638184
 10
110.749931
 20
1061.997681
 10
111.530579
 20
1061.208618
  0
LINE
  5
127
330
48
100
AcDbEntity
  8
0
  6
Continuous
 62
     0
370
    30
100
AcDbLine
 10
127.197216
 20
1052.743784
 30
0.0
 11
127.201072
 21
1052.744236
 31
0.0
  0
LINE
  5
128
330
48
100
AcDbEntity
  8
0
  6
Continuous
 62
     0
370
    30
100
AcDbLine
 10
127.197199
 20
1052.743779
 30
0.0
 11
126.809387
 21
1052.698965
 31
0.0
  0
LINE
  5
129
330
48
100
AcDbEntity
  8
0
  6
Continuous
 62
     0
370
    30
100
AcDbLine
 10
84.217646
 20
1052.69936
 30
0.0
 11
83.833274
 21
1052.743776
 31
0.0
  0
LINE
  5
12A
330
48
100
AcDbEntity
  8
0
  6
Continuous
 62
     0
370
    30
100
AcDbLine
 10
83.833249
 20
1052.743783
 30
0.0
 11
83.829391
 21
1052.744234
 31
0.0
  0
LINE
  5
12B
330
48
100
AcDbEntity
  8
0
  6
Continuous
 62
     0
370
    30
100
AcDbLine
 10
83.829413
 20
1059.397719
 30
0.0
 11
83.833255
 21
1059.398169
 31
0.0
  0
LINE
  5
12C
330
48
100
AcDbEntity
  8
0
  6
Continuous
 62
     0
370
    30
100
AcDbLine
 10
127.197216
 20
1059.39817
 30
0.0
 11
127.201074
 21
1059.397718
 31
0.0
  0
LINE
  5
12D
330
48
100
AcDbEntity
  8
0
  6
Continuous
 62
     0
370
    30
100
AcDbLine
 10
84.217646
 20
1059.442591
 30
0.0
 11
83.833274
 21
1059.398175
 31
0.0
  0
LINE
  5
12E
330
48
100
AcDbEntity
  8
0
  6
Continuous
 62
     0
370
    30
100
AcDbLine
 10
127.197199
 20
1059.398176
 30
0.0
 11
126.809387
 21
1059.442989
 31
0.0
  0
ENDBLK
  5
130
330
48
100
AcDbEntity
  8
0
100
AcDbBlockEnd
  0
BLOCK
  5
179
330
132
100
AcDbEntity
  8
0
100
AcDbBlockBegin
  2
b
 70
     0
 10
54.410412
 20
331.15757
 30
0.0
  3
b
  1

  0
ELLIPSE
  5
133
330
132
100
AcDbEntity
  8
0
  6
Continuous
 62
     0
370
    30
100
AcDbEllipse
 10
105.515236
 20
354.176449
 30
0.0
 11
19.66629030543769
 21
0.0
 31
0.0
210
0.0
220
0.0
230
1.0
 40
0.004422
 41
6.283165754417711
 42
7.511490526591066
  0
ELLIPSE
  5
134
330
132
100
AcDbEntity
  8
0
  6
Continuous
 62
     0
370
    30
100
AcDbEllipse
 10
105.515236
 20
354.176449
 30
0.0
 11
19.66629030543769
 21
0.0
 31
0.0
210
0.0
220
0.0
230
1.0
 40
0.004422
 41
1.913286492970411
 42
3.141612206351668
  0
ELLIPSE
  5
135
330
132
100
AcDbEntity
  8
0
  6
Continuous
 62
     0
370
    30
100
AcDbEllipse
 10
105.515236
 20
364.498104
 30
0.0
 11
59.99941342550657
 21
0.0
 31
0.0
210
0.0
220
0.0
230
1.0
 40
0.004422
 41
6.283165754417716
 42
7.853981633974483
  0
ELLIPSE
  5
136
330
132
100
AcDbEntity
  8
0
  6
Continuous
 62
     0
370
    30
100
AcDbEllipse
 10
105.515236
 20
364.498104
 30
0.0
 11
59.99941342550657
 21
0.0
 31
0.0
210
0.0
220
0.0
230
1.0
 40
0.004422
 41
1.570796326794897
 42
3.141612206351663
  0
ELLIPSE
  5
137
330
132
100
AcDbEntity
  8
0
  6
Continuous
 62
     0
370
    30
100
AcDbEllipse
 10
105.515236
 20
354.50051
 30
0.0
 11
59.45520024088646
 21
0.0
 31
0.0
210
0.0
220
0.0
230
1.0
 40
0.004422
 41
1.77539461858944
 42
4.500202741122468
  0
ELLIPSE
  5
138
330
132
100
AcDbEntity
  8
0
  6
Continuous
 62
     0
370
    30
100
AcDbEllipse
 10
105.515236
 20
354.50051
 30
0.0
 11
59.45520024088646
 21
0.0
 31
0.0
210
0.0
220
0.0
230
1.0
 40
0.004422
 41
4.924575219646908
 42
7.649383342179916
  0
ELLIPSE
  5
139
330
132
100
AcDbEntity
  8
0
  6
Continuous
 62
     0
370
     0
100
AcDbEllipse
 10
105.515236
 20
354.99829
 30
0.0
 11
59.9574062564072
 21
0.0
 31
0.0
210
0.0
220
0.0
230
1.0
 40
0.004422
 41
6.283165754417714
 42
7.512902737185527
  0
ELLIPSE
  5
13A
330
132
100
AcDbEntity
  8
0
  6
Continuous
 62
     0
370
     0
100
AcDbEllipse
 10
105.515236
 20
354.99829
 30
0.0
 11
59.9574062564072
 21
0.0
 31
0.0
210
0.0
220
0.0
230
1.0
 40
0.004422
 41
1.911875223583831
 42
3.141612206351664
  0
ELLIPSE
  5
13B
330
132
100
AcDbEntity
  8
0
  6
Continuous
 62
     0
370
    30
100
AcDbEllipse
 10
105.515236
 20
316.529419
 30
0.0
 11
18.99981425140702
 21
0.0
 31
0.0
210
0.0
220
0.0
230
1.0
 40
0.004422
 41
1.570796326794897
 42
4.71238898038469
  0
ELLIPSE
  5
13C
330
132
100
AcDbEntity
  8
0
  6
Continuous
 62
     0
370
    30
100
AcDbEllipse
 10
105.515236
 20
316.529419
 30
0.0
 11
18.99981425140702
 21
0.0
 31
0.0
210
0.0
220
0.0
230
1.0
 40
0.004422
 41
4.71238898038469
 42
7.853981633974483
  0
ELLIPSE
  5
13D
330
132
100
AcDbEntity
  8
0
  6
Continuous
 62
     0
370
     0
100
AcDbEllipse
 10
105.515236
 20
317.027199
 30
0.0
 11
19.50202026692412
 21
0.0
 31
0.0
210
0.0
220
0.0
230
1.0
 40
0.004422
 41
6.283165754417713
 42
7.853981633974483
  0
ELLIPSE
  5
13E
330
132
100
AcDbEntity
  8
0
  6
Continuous
 62
     0
370
     0
100
AcDbEllipse
 10
105.515236
 20
317.027199
 30
0.0
 11
19.50202026692412
 21
0.0
 31
0.0
210
0.0
220
0.0
230
1.0
 40
0.004422
 41
1.570796326794897
 42
3.141612206351667
  0
LWPOLYLINE
  5
13F
330
132
100
AcDbEntity
  8
0
  6
Continuous
 62
     0
370
    30
100
AcDbPolyline
 90
       53
 70
     0
 43
0.0
 10
55.430153
 20
354.358826
 10
55.079453
 20
354.361267
 10
54.73489
 20
354.363739
 10
54.396507
 20
354.366211
 10
54.064342
 20
354.368713
 10
53.738445
 20
354.371246
 10
53.418854
 20
354.373779
 10
53.105606
 20
354.376343
 10
52.798733
 20
354.378906
 10
52.498276
 20
354.38147
 10
52.204269
 20
354.384064
 10
51.916748
 20
354.386688
 10
51.63575
 20
354.389313
 10
51.361305
 20
354.391937
 10
51.093449
 20
354.394592
 10
50.832211
 20
354.397247
 10
50.577629
 20
354.399933
 10
50.329731
 20
354.402618
 10
50.088554
 20
354.405304
 10
49.854126
 20
354.40802
 10
49.626476
 20
354.410767
 10
49.405636
 20
354.413483
 10
49.191612
 20
354.416229
 10
48.984432
 20
354.419006
 10
48.784107
 20
354.421753
 10
48.590656
 20
354.42453
 10
48.404106
 20
354.427307
 10
48.224472
 20
354.430115
 10
48.051777
 20
354.432922
 10
47.88604
 20
354.43573
 10
47.727295
 20
354.438568
 10
47.575562
 20
354.441376
 10
47.430851
 20
354.444244
 10
47.293167
 20
354.447083
 10
47.162514
 20
354.449921
 10
47.038891
 20
354.452789
 10
46.922298
 20
354.455688
 10
46.81274
 20
354.458557
 10
46.71022
 20
354.461456
 10
46.614723
 20
354.464355
 10
46.526188
 20
354.467285
 10
46.444553
 20
354.470215
 10
46.369762
 20
354.473175
 10
46.301769
 20
354.476166
 10
46.240341
 20
354.479187
 10
46.185085
 20
354.48233
 10
46.135605
 20
354.485596
 10
46.091255
 20
354.489044
 10
46.049576
 20
354.493164
 10
46.006115
 20
354.49884
 10
45.944962
 20
354.511078
 10
45.791424
 20
354.576385
 10
45.557831
 20
354.998291
  0
LWPOLYLINE
  5
140
330
132
100
AcDbEntity
  8
0
  6
Continuous
 62
     0
370
    30
100
AcDbPolyline
 90
       51
 70
     0
 43
0.0
 10
165.472641
 20
354.998291
 10
165.209991
 20
354.559326
 10
165.06752
 20
354.506866
 10
165.008057
 20
354.49649
 10
164.961151
 20
354.491089
 10
164.91304
 20
354.486938
 10
164.859589
 20
354.483215
 10
164.799011
 20
354.479675
 10
164.730743
 20
354.476257
 10
164.654297
 20
354.4729
 10
164.56929
 20
354.469604
 10
164.475601
 20
354.466309
 10
164.373169
 20
354.463043
 10
164.261932
 20
354.459778
 10
164.141876
 20
354.456543
 10
164.01297
 20
354.453308
 10
163.875244
 20
354.450104
 10
163.728668
 20
354.446899
 10
163.573242
 20
354.443695
 10
163.408966
 20
354.440521
 10
163.23584
 20
354.437347
 10
163.053894
 20
354.434174
 10
162.863174
 20
354.43103
 10
162.663727
 20
354.427887
 10
162.455551
 20
354.424774
 10
162.238708
 20
354.421661
 10
162.013214
 20
354.418549
 10
161.779083
 20
354.415466
 10
161.536362
 20
354.412384
 10
161.285065
 20
354.409332
 10
161.025208
 20
354.406281
 10
160.756851
 20
354.403229
 10
160.480026
 20
354.400208
 10
160.194763
 20
354.397217
 10
159.901138
 20
354.394226
 10
159.599182
 20
354.391266
 10
159.288956
 20
354.388306
 10
158.970505
 20
354.385376
 10
158.64386
 20
354.382446
 10
158.309082
 20
354.379547
 10
157.966232
 20
354.376678
 10
157.615341
 20
354.37381
 10
157.25647
 20
354.370972
 10
156.889664
 20
354.368134
 10
156.514984
 20
354.365326
 10
156.132492
 20
354.362549
 10
155.742233
 20
354.359802
 10
155.344299
 20
354.357056
 10
154.938721
 20
354.35434
 10
154.525589
 20
354.351654
 10
154.101685
 20
354.348938
  0
LWPOLYLINE
  5
141
330
132
100
AcDbEntity
  8
0
  6
Continuous
 62
     0
370
    30
100
AcDbPolyline
 90
       56
 70
     0
 43
0.0
 10
92.532135
 20
316.468048
 10
92.320885
 20
316.468933
 10
92.112724
 20
316.469849
 10
91.907715
 20
316.470764
 10
91.705902
 20
316.47168
 10
91.507339
 20
316.472626
 10
91.312065
 20
316.473602
 10
91.12014
 20
316.474548
 10
90.931587
 20
316.475525
 10
90.74646
 20
316.476532
 10
90.564796
 20
316.477539
 10
90.386642
 20
316.478546
 10
90.212029
 20
316.479584
 10
90.041016
 20
316.480621
 10
89.873619
 20
316.481689
 10
89.7099
 20
316.482758
 10
89.549889
 20
316.483826
 10
89.393623
 20
316.484924
 10
89.24115
 20
316.486023
 10
89.092499
 20
316.487122
 10
88.947701
 20
316.488251
 10
88.806793
 20
316.48938
 10
88.669807
 20
316.490509
 10
88.536774
 20
316.491669
 10
88.407715
 20
316.492828
 10
88.282661
 20
316.493988
 10
88.161644
 20
316.495148
 10
88.04467
 20
316.496338
 10
87.931786
 20
316.497528
 10
87.822998
 20
316.498718
 10
87.718338
 20
316.499939
 10
87.617836
 20
316.501129
 10
87.521515
 20
316.50235
 10
87.42939
 20
316.503601
 10
87.341499
 20
316.504822
 10
87.257835
 20
316.506073
 10
87.178413
 20
316.507324
 10
87.103241
 20
316.508575
 10
87.032326
 20
316.509827
 10
86.965683
 20
316.511078
 10
86.903297
 20
316.51236
 10
86.845169
 20
316.513641
 10
86.791267
 20
316.514923
 10
86.741577
 20
316.516235
 10
86.696045
 20
316.517548
 10
86.654617
 20
316.51889
 10
86.617119
 20
316.520233
 10
86.58329
 20
316.521637
 10
86.552795
 20
316.523132
 10
86.525024
 20
316.52475
 10
86.498146
 20
316.526733
 10
86.468102
 20
316.529724
 10
86.420227
 20
316.537201
 10
86.291328
 20
316.581085
 10
86.095009
 20
316.75528
 10
86.013214
 20
317.027191
  0
LWPOLYLINE
  5
142
330
132
100
AcDbEntity
  8
0
  6
Continuous
 62
     0
370
    30
100
AcDbPolyline
 90
       56
 70
     0
 43
0.0
 10
125.017258
 20
317.027191
 10
124.936104
 20
316.756073
 10
124.739494
 20
316.581116
 10
124.61026
 20
316.537231
 10
124.562363
 20
316.529755
 10
124.532204
 20
316.526733
 10
124.505325
 20
316.52475
 10
124.477364
 20
316.523102
 10
124.446846
 20
316.521637
 10
124.412933
 20
316.520233
 10
124.375282
 20
316.51886
 10
124.333687
 20
316.517517
 10
124.287987
 20
316.516205
 10
124.238106
 20
316.514893
 10
124.183998
 20
316.513611
 10
124.125648
 20
316.512329
 10
124.063034
 20
316.511047
 10
123.99614
 20
316.509796
 10
123.924957
 20
316.508514
 10
123.849495
 20
316.507263
 10
123.769768
 20
316.506012
 10
123.685783
 20
316.504791
 10
123.597549
 20
316.50354
 10
123.505074
 20
316.502319
 10
123.408386
 20
316.501099
 10
123.307495
 20
316.499878
 10
123.202438
 20
316.498657
 10
123.093231
 20
316.497467
 10
122.979912
 20
316.496277
 10
122.862488
 20
316.495087
 10
122.74099
 20
316.493927
 10
122.615456
 20
316.492737
 10
122.485893
 20
316.491608
 10
122.352333
 20
316.490448
 10
122.214813
 20
316.489319
 10
122.073349
 20
316.48819
 10
121.927986
 20
316.487061
 10
121.778755
 20
316.485931
 10
121.625694
 20
316.484833
 10
121.468834
 20
316.483765
 10
121.30822
 20
316.482666
 10
121.14389
 20
316.481598
 10
120.975876
 20
316.48056
 10
120.80423
 20
316.479523
 10
120.628967
 20
316.478485
 10
120.45015
 20
316.477448
 10
120.267815
 20
316.47644
 10
120.081993
 20
316.475464
 10
119.892746
 20
316.474457
 10
119.700104
 20
316.473511
 10
119.504112
 20
316.472534
 10
119.304825
 20
316.471588
 10
119.10228
 20
316.470673
 10
118.89653
 20
316.469757
 10
118.687622
 20
316.468842
 10
118.473251
 20
316.467957
  0
LINE
  5
143
330
132
100
AcDbEntity
  8
0
  6
Continuous
 62
     0
370
    30
100
AcDbLine
 10
125.026944
 20
319.218104
 30
0.0
 11
125.017256
 21
317.027197
 31
0.0
  0
LINE
  5
144
330
132
100
AcDbEntity
  8
0
  6
Continuous
 62
     0
370
    30
100
AcDbLine
 10
125.181526
 20
354.176448
 30
0.0
 11
125.137491
 21
344.218104
 31
0.0
  0
LINE
  5
145
330
132
100
AcDbEntity
  8
0
  6
Continuous
 62
     0
370
    30
100
AcDbLine
 10
86.003528
 20
319.218104
 30
0.0
 11
86.013216
 21
317.027197
 31
0.0
  0
LINE
  5
146
330
132
100
AcDbEntity
  8
0
  6
Continuous
 62
     0
370
    30
100
AcDbLine
 10
85.848946
 20
354.176448
 30
0.0
 11
85.89298
 21
344.218104
 31
0.0
  0
LINE
  5
147
330
132
100
AcDbEntity
  8
0
  6
Continuous
 62
     0
370
    30
100
AcDbLine
 10
165.514649
 20
364.498099
 30
0.0
 11
165.472642
 21
354.998285
 31
0.0
  0
LINE
  5
148
330
132
100
AcDbEntity
  8
0
  6
Continuous
 62
     0
370
    30
100
AcDbLine
 10
45.515822
 20
364.498099
 30
0.0
 11
45.55783
 21
354.998285
 31
0.0
  0
LINE
  5
149
330
132
100
AcDbEntity
  8
0
  6
Continuous
 62
     0
370
    30
100
AcDbLine
 10
110.415236
 20
349.218089
 30
0.0
 11
110.415236
 21
344.468089
 31
0.0
  0
LINE
  5
14A
330
132
100
AcDbEntity
  8
0
  6
Continuous
 62
     0
370
    30
100
AcDbLine
 10
100.615236
 20
344.468089
 30
0.0
 11
100.615236
 21
349.218089
 31
0.0
  0
LINE
  5
14B
330
132
100
AcDbEntity
  8
0
  6
Continuous
 62
     0
370
     0
100
AcDbLine
 10
110.415236
 20
344.468089
 30
0.0
 11
100.615236
 21
344.468089
 31
0.0
  0
ARC
  5
14C
330
132
100
AcDbEntity
  8
0
  6
Continuous
 62
     0
370
     0
100
AcDbCircle
 10
-16293.52191
 20
351.077659
 30
0.0
 40
16404.77832172477
100
AcDbArc
 50
359.891792
 51
359.976042
  0
LINE
  5
14D
330
132
100
AcDbEntity
  8
0
  6
Continuous
 62
     0
370
    30
100
AcDbLine
 10
111.254978
 20
344.218089
 30
0.0
 11
99.775494
 21
344.218089
 31
0.0
  0
ARC
  5
14E
330
132
100
AcDbEntity
  8
0
  6
Continuous
 62
     0
370
     0
100
AcDbCircle
 10
16504.460866
 20
351.077659
 30
0.0
 40
16404.68680695937
100
AcDbArc
 50
180.023958
 51
180.108208
  0
ARC
  5
14F
330
132
100
AcDbEntity
  8
0
  6
Continuous
 62
     0
370
     0
100
AcDbCircle
 10
105.51556
 20
1322.515457
 30
0.0
 40
1002.435792270581
100
AcDbArc
 50
269.673506
 51
270.326457
  0
ARC
  5
150
330
132
100
AcDbEntity
  8
0
  6
Continuous
 62
     0
370
     0
100
AcDbCircle
 10
-2608.864574
 20
368.154536
 30
0.0
 40
2736.167435984426
100
AcDbArc
 50
358.99597
 51
359.498761
  0
LINE
  5
151
330
132
100
AcDbEntity
  8
0
  6
Continuous
 62
     0
370
    30
100
AcDbLine
 10
127.19816
 20
344.218089
 30
0.0
 11
111.254978
 21
344.218089
 31
0.0
  0
ARC
  5
152
330
132
100
AcDbEntity
  8
0
  6
Continuous
 62
     0
370
     0
100
AcDbCircle
 10
81.64296
 20
5481.835247
 30
0.0
 40
5161.824090513642
100
AcDbArc
 50
270.328384
 51
270.502164
  0
LINE
  5
153
330
132
100
AcDbEntity
  8
0
  6
Continuous
 62
     0
370
    30
100
AcDbLine
 10
83.832311
 20
344.218089
 30
0.0
 11
82.947064
 21
344.218089
 31
0.0
  0
LINE
  5
154
330
132
100
AcDbEntity
  8
0
  6
Continuous
 62
     0
370
    30
100
AcDbLine
 10
99.775494
 20
344.218089
 30
0.0
 11
83.832311
 21
344.218089
 31
0.0
  0
LINE
  5
155
330
132
100
AcDbEntity
  8
0
  6
Continuous
 62
     0
370
    30
100
AcDbLine
 10
128.083407
 20
344.218089
 30
0.0
 11
127.198162
 21
344.218089
 31
0.0
  0
ARC
  5
156
330
132
100
AcDbEntity
  8
0
  6
Continuous
 62
     0
370
     0
100
AcDbCircle
 10
2819.886607
 20
368.154424
 30
0.0
 40
2736.158996740233
100
AcDbArc
 50
180.501239
 51
181.004031
  0
ARC
  5
157
330
132
100
AcDbEntity
  8
0
  6
Continuous
 62
     0
370
     0
100
AcDbCircle
 10
129.500012
 20
5497.463923
 30
0.0
 40
5177.453154286019
100
AcDbArc
 50
269.498107
 51
269.671363
  0
LINE
  5
158
330
132
100
AcDbEntity
  8
0
  6
Continuous
 62
     0
370
    30
100
AcDbLine
 10
111.222047
 20
319.218089
 30
0.0
 11
99.808396
 21
319.218089
 31
0.0
  0
ARC
  5
159
330
132
100
AcDbEntity
  8
0
  6
Continuous
 62
     0
370
     0
100
AcDbCircle
 10
70.87423
 20
319.891834
 30
0.0
 40
40.35344246442564
100
AcDbArc
 50
359.043339
 51
0.289795
  0
ARC
  5
15A
330
132
100
AcDbEntity
  8
0
  6
Continuous
 62
     0
370
     0
100
AcDbCircle
 10
140.377982
 20
319.891836
 30
0.0
 40
40.57518029935212
100
AcDbArc
 50
179.711787
 51
180.951435
  0
LWPOLYLINE
  5
15B
330
132
100
AcDbEntity
  8
0
  6
Continuous
 62
     0
370
     0
100
AcDbPolyline
 90
        5
 70
     0
 43
0.0
 10
127.873886
 20
320.209351
 10
127.799881
 20
320.206757
 10
127.588768
 20
320.205841
 10
127.271935
 20
320.206726
 10
126.882767
 20
320.209412
  0
LINE
  5
15C
330
132
100
AcDbEntity
  8
0
  6
Continuous
 62
     0
370
    30
100
AcDbLine
 10
128.083407
 20
344.218089
 30
0.0
 11
127.873887
 21
320.209362
 31
0.0
  0
LINE
  5
15D
330
132
100
AcDbEntity
  8
0
  6
Continuous
 62
     0
370
    30
100
AcDbLine
 10
126.873925
 20
319.218089
 30
0.0
 11
111.222047
 21
319.218089
 31
0.0
  0
LWPOLYLINE
  5
15E
330
132
100
AcDbEntity
  8
0
  6
Continuous
 62
     0
370
     0
100
AcDbPolyline
 90
        5
 70
     0
 43
0.0
 10
126.882767
 20
320.209412
 10
126.88208
 20
319.832458
 10
126.880188
 20
319.512634
 10
126.877373
 20
319.297211
 10
126.873924
 20
319.218079
  0
LINE
  5
15F
330
132
100
AcDbEntity
  8
0
  6
Continuous
 62
     0
370
    30
100
AcDbLine
 10
82.947064
 20
344.218089
 30
0.0
 11
83.156585
 21
320.209362
 31
0.0
  0
LWPOLYLINE
  5
160
330
132
100
AcDbEntity
  8
0
  6
Continuous
 62
     0
370
     0
100
AcDbPolyline
 90
        5
 70
     0
 43
0.0
 10
83.156586
 20
320.209351
 10
83.230591
 20
320.206757
 10
83.441704
 20
320.205841
 10
83.758537
 20
320.206726
 10
84.147705
 20
320.209412
  0
ARC
  5
161
330
132
100
AcDbEntity
  8
0
  6
Continuous
 62
     0
370
    30
100
AcDbCircle
 10
110.665236
 20
344.468089
 30
0.0
 40
0.2499999999999108
100
AcDbArc
 50
180.0
 51
269.999999
  0
ARC
  5
162
330
132
100
AcDbEntity
  8
0
  6
Continuous
 62
     0
370
    30
100
AcDbCircle
 10
100.365236
 20
344.468089
 30
0.0
 40
0.2499999999999512
100
AcDbArc
 50
270.000001
 51
360.0
  0
LINE
  5
163
330
132
100
AcDbEntity
  8
0
  6
Continuous
 62
     0
370
    30
100
AcDbLine
 10
99.808396
 20
319.218089
 30
0.0
 11
84.15655
 21
319.218089
 31
0.0
  0
LWPOLYLINE
  5
164
330
132
100
AcDbEntity
  8
0
  6
Continuous
 62
     0
370
     0
100
AcDbPolyline
 90
        5
 70
     0
 43
0.0
 10
84.156548
 20
319.218079
 10
84.153206
 20
319.292114
 10
84.15036
 20
319.503265
 10
84.14843
 20
319.820221
 10
84.147697
 20
320.209412
  0
ARC
  5
165
330
132
100
AcDbEntity
  8
0
  6
Continuous
 62
     0
370
    30
100
AcDbCircle
 10
126.873925
 20
320.218089
 30
0.0
 40
1.0
100
AcDbArc
 50
270.000038
 51
359.5
  0
ARC
  5
166
330
132
100
AcDbEntity
  8
0
  6
Continuous
 62
     0
370
    30
100
AcDbCircle
 10
84.156547
 20
320.218089
 30
0.0
 40
1.0
100
AcDbArc
 50
180.5
 51
270.00018
  0
ARC
  5
167
330
132
100
AcDbEntity
  8
0
  6
Continuous
 62
     0
370
    30
100
AcDbCircle
 10
137.515236
 20
356.940061
 30
0.0
 40
0.5000000000001051
100
AcDbArc
 50
277.002045
 51
360.0
  0
LINE
  5
168
330
132
100
AcDbEntity
  8
0
  6
Continuous
 62
     0
370
     0
100
AcDbLine
 10
73.454284
 20
356.44379
 30
0.0
 11
137.576188
 21
356.44379
 31
0.0
  0
LINE
  5
169
330
132
100
AcDbEntity
  8
0
  6
Continuous
 62
     0
370
     0
100
AcDbLine
 10
138.015236
 20
356.940061
 30
0.0
 11
73.015236
 21
356.940061
 31
0.0
  0
LWPOLYLINE
  5
16A
330
132
100
AcDbEntity
  8
0
  6
Continuous
 62
     0
370
     0
100
AcDbPolyline
 90
       24
 70
     0
 43
0.0
 10
97.605461
 20
354.601257
 10
97.678001
 20
354.601288
 10
97.901367
 20
354.601227
 10
98.263268
 20
354.601196
 10
98.755852
 20
354.601318
 10
99.377739
 20
354.601318
 10
100.11705
 20
354.601196
 10
100.953003
 20
354.601227
 10
101.872795
 20
354.601288
 10
102.861687
 20
354.601257
 10
103.899666
 20
354.601227
 10
104.967339
 20
354.601257
 10
106.04509
 20
354.601257
 10
107.113098
 20
354.601227
 10
108.151733
 20
354.601257
 10
109.141617
 20
354.601288
 10
110.062706
 20
354.601227
 10
110.900154
 20
354.601196
 10
111.641243
 20
354.601318
 10
112.265259
 20
354.601318
 10
112.76001
 20
354.601196
 10
113.124146
 20
354.601196
 10
113.349937
 20
354.601288
 10
113.425011
 20
354.601257
  0
LINE
  5
16B
330
132
100
AcDbEntity
  8
0
  6
Continuous
 62
     0
370
    30
100
AcDbLine
 10
138.015236
 20
356.940061
 30
0.0
 11
138.015236
 21
364.498089
 31
0.0
  0
LINE
  5
16C
330
132
100
AcDbEntity
  8
0
  6
Continuous
 62
     0
370
    30
100
AcDbLine
 10
138.015236
 20
364.498089
 30
0.0
 11
73.015236
 21
364.498089
 31
0.0
  0
LINE
  5
16D
330
132
100
AcDbEntity
  8
0
  6
Continuous
 62
     0
370
    30
100
AcDbLine
 10
110.515236
 20
349.218089
 30
0.0
 11
110.515236
 21
351.602612
 31
0.0
  0
LINE
  5
16E
330
132
100
AcDbEntity
  8
0
  6
Continuous
 62
     0
370
     0
100
AcDbLine
 10
110.515236
 20
351.602612
 30
0.0
 11
100.515236
 21
351.602612
 31
0.0
  0
LINE
  5
16F
330
132
100
AcDbEntity
  8
0
  6
Continuous
 62
     0
370
    30
100
AcDbLine
 10
100.515236
 20
349.218089
 30
0.0
 11
110.515236
 21
349.218089
 31
0.0
  0
ARC
  5
170
330
132
100
AcDbEntity
  8
0
  6
Continuous
 62
     0
370
    30
100
AcDbCircle
 10
113.515236
 20
351.602612
 30
0.0
 40
2.999999999999953
100
AcDbArc
 50
91.723441
 51
180.0
  0
ARC
  5
171
330
132
100
AcDbEntity
  8
0
  6
Continuous
 62
     0
370
    30
100
AcDbCircle
 10
97.515236
 20
351.602612
 30
0.0
 40
2.9999996427217
100
AcDbArc
 50
359.999993
 51
88.276565
  0
LWPOLYLINE
  5
172
330
132
100
AcDbEntity
  8
0
  6
Continuous
 62
     0
370
    30
100
AcDbPolyline
 90
        2
 70
     0
 43
0.0
 10
113.425003
 20
354.601257
 10
113.425011
 20
354.601257
  0
LINE
  5
173
330
132
100
AcDbEntity
  8
0
  6
Continuous
 62
     0
370
    30
100
AcDbLine
 10
100.515236
 20
349.218089
 30
0.0
 11
100.515236
 21
351.602612
 31
0.0
  0
LINE
  5
174
330
132
100
AcDbEntity
  8
0
  6
Continuous
 62
     0
370
    30
100
AcDbLine
 10
73.015236
 20
356.940061
 30
0.0
 11
73.015236
 21
364.498089
 31
0.0
  0
LWPOLYLINE
  5
175
330
132
100
AcDbEntity
  8
0
  6
Continuous
 62
     0
370
    30
100
AcDbPolyline
 90
       30
 70
     0
 43
0.0
 10
137.576187
 20
356.443787
 10
136.747086
 20
356.343292
 10
135.917664
 20
356.245422
 10
135.087936
 20
356.150208
 10
134.257889
 20
356.057617
 10
133.427567
 20
355.967651
 10
132.59697
 20
355.880341
 10
131.766098
 20
355.795654
 10
130.934952
 20
355.713623
 10
130.103561
 20
355.634216
 10
129.271912
 20
355.557434
 10
128.440033
 20
355.483337
 10
127.607918
 20
355.411835
 10
126.775581
 20
355.343018
 10
125.943031
 20
355.276825
 10
125.110268
 20
355.213257
 10
124.277313
 20
355.152313
 10
123.444168
 20
355.094055
 10
122.610847
 20
355.038483
 10
121.777359
 20
354.985626
 10
120.943687
 20
354.935242
 10
120.109833
 20
354.887207
 10
119.275925
 20
354.842712
 10
118.44194
 20
354.801453
 10
117.607376
 20
354.758575
 10
116.772766
 20
354.719025
 10
115.939926
 20
354.700287
 10
115.105286
 20
354.667847
 10
114.263611
 20
354.57132
 10
113.425011
 20
354.601257
  0
LWPOLYLINE
  5
176
330
132
100
AcDbEntity
  8
0
  6
Continuous
 62
     0
370
    30
100
AcDbPolyline
 90
       30
 70
     0
 43
0.0
 10
73.454285
 20
356.443787
 10
74.283386
 20
356.343292
 10
75.112808
 20
356.245422
 10
75.942543
 20
356.150208
 10
76.772575
 20
356.057617
 10
77.602898
 20
355.967651
 10
78.433502
 20
355.880341
 10
79.264381
 20
355.795654
 10
80.09552
 20
355.713623
 10
80.92691
 20
355.634216
 10
81.758553
 20
355.557434
 10
82.590439
 20
355.483337
 10
83.422554
 20
355.411835
 10
84.25489
 20
355.343018
 10
85.08744
 20
355.276825
 10
85.920204
 20
355.213257
 10
86.753159
 20
355.152313
 10
87.586304
 20
355.094055
 10
88.419624
 20
355.038483
 10
89.253113
 20
354.985626
 10
90.086784
 20
354.935242
 10
90.920639
 20
354.887207
 10
91.754547
 20
354.842712
 10
92.588531
 20
354.801453
 10
93.423096
 20
354.758575
 10
94.257706
 20
354.719025
 10
95.090546
 20
354.700287
 10
95.925186
 20
354.667847
 10
96.766861
 20
354.57132
 10
97.605461
 20
354.601257
  0
ARC
  5
177
330
132
100
AcDbEntity
  8
0
  6
Continuous
 62
     0
370
    30
100
AcDbCircle
 10
73.515326
 20
356.94014
 30
0.0
 40
0.5000896921813149
100
AcDbArc
 50
180.009087
 51
262.988868
  0
LINE
  5
178
330
132
100
AcDbEntity
  8
0
  6
Continuous
 62
     0
370
    30
100
AcDbLine
 10
126.889014
 20
319.218214
 30
0.0
 11
126.873927
 21
319.218093
 31
0.0
  0
ENDBLK
  5
17A
330
132
100
AcDbEntity
  8
0
100
AcDbBlockEnd
  0
BLOCK
  5
26C
330
17C
100
AcDbEntity
  8
0
100
AcDbBlockBegin
  2
c
 70
     0
 10
101.963131
 20
105.487831
 30
0.0
  3
c
  1

  0
LINE
  5
17D
330
17C
100
AcDbEntity
  8
0
  6
Continuous
 62
     0
370
    30
100
AcDbLine
 10
330.783695
 20
725.782715
 30
0.0
 11
330.783695
 21
710.782715
 31
0.0
  0
LINE
  5
17E
330
17C
100
AcDbEntity
  8
0
  6
Continuous
 62
     0
370
    30
100
AcDbLine
 10
330.783695
 20
710.782715
 30
0.0
 11
330.824963
 21
701.449932
 31
0.0
  0
LINE
  5
17F
330
17C
100
AcDbEntity
  8
0
  6
Continuous
 62
     0
370
    30
100
AcDbLine
 10
330.783695
 20
725.782715
 30
0.0
 11
330.957616
 21
686.450519
 31
0.0
  0
LINE
  5
180
330
17C
100
AcDbEntity
  8
0
  6
Continuous
 62
     0
370
    30
100
AcDbLine
 10
330.783695
 20
710.782715
 30
0.0
 11
330.525955
 21
710.782715
 31
0.0
  0
LINE
  5
181
330
17C
100
AcDbEntity
  8
0
  6
Continuous
 62
     0
370
    30
100
AcDbLine
 10
320.283695
 20
766.069803
 30
0.0
 11
320.283695
 21
706.069803
 31
0.0
  0
LINE
  5
182
330
17C
100
AcDbEntity
  8
0
  6
Continuous
 62
     0
370
    30
100
AcDbLine
 10
320.283695
 20
766.069803
 30
0.0
 11
320.814306
 21
646.072149
 31
0.0
  0
LINE
  5
183
330
17C
100
AcDbEntity
  8
0
  6
Continuous
 62
     0
370
     0
100
AcDbLine
 10
330.283695
 20
765.569803
 30
0.0
 11
330.809493
 21
646.660565
 31
0.0
  0
LINE
  5
184
330
17C
100
AcDbEntity
  8
0
  6
Continuous
 62
     0
370
    30
100
AcDbLine
 10
329.783695
 20
766.069803
 30
0.0
 11
320.283695
 21
766.069803
 31
0.0
  0
LINE
  5
185
330
17C
100
AcDbEntity
  8
0
  6
Continuous
 62
     0
370
     0
100
AcDbLine
 10
329.783695
 20
766.069803
 30
0.0
 11
330.313935
 21
646.156163
 31
0.0
  0
LINE
  5
186
330
17C
100
AcDbEntity
  8
0
  6
Continuous
 62
     0
370
     0
100
AcDbLine
 10
368.601248
 20
687.385413
 30
0.0
 11
368.601699
 21
687.283458
 31
0.0
  0
LINE
  5
187
330
17C
100
AcDbEntity
  8
0
  6
Continuous
 62
     0
370
     0
100
AcDbLine
 10
368.433672
 20
725.282715
 30
0.0
 11
368.434123
 21
725.180536
 31
0.0
  0
LINE
  5
188
330
17C
100
AcDbEntity
  8
0
  6
Continuous
 62
     0
370
    30
100
AcDbLine
 10
353.517685
 20
725.782715
 30
0.0
 11
330.783695
 21
725.782715
 31
0.0
  0
LINE
  5
189
330
17C
100
AcDbEntity
  8
0
  6
Continuous
 62
     0
370
    30
100
AcDbLine
 10
367.933672
 20
725.782715
 30
0.0
 11
361.517685
 21
725.782715
 31
0.0
  0
LINE
  5
18A
330
17C
100
AcDbEntity
  8
0
  6
Continuous
 62
     0
370
     0
100
AcDbLine
 10
367.933672
 20
725.782715
 30
0.0
 11
368.10614
 21
686.779056
 31
0.0
  0
LINE
  5
18B
330
17C
100
AcDbEntity
  8
0
  6
Continuous
 62
     0
370
    30
100
AcDbLine
 10
361.344155
 20
725.747916
 30
0.0
 11
361.517685
 21
725.782715
 31
0.0
  0
LWPOLYLINE
  5
18C
330
17C
100
AcDbEntity
  8
0
  6
Continuous
 62
     0
370
    30
100
AcDbPolyline
 90
       16
 70
     0
 43
0.0
 10
353.5177
 20
725.782715
 10
353.589386
 20
725.768188
 10
353.801666
 20
725.726624
 10
354.145905
 20
725.664001
 10
354.609711
 20
725.588928
 10
355.176392
 20
725.511963
 10
355.827118
 20
725.443787
 10
356.539398
 20
725.394165
 10
357.287811
 20
725.370544
 10
358.0448
 20
725.376343
 10
358.782166
 20
725.410767
 10
359.473053
 20
725.468628
 10
360.093292
 20
725.541504
 10
360.621429
 20
725.61908
 10
361.04007
 20
725.690552
 10
361.344147
 20
725.747925
  0
ARC
  5
18D
330
17C
100
AcDbEntity
  8
0
  6
Continuous
 62
     0
370
    30
100
AcDbCircle
 10
367.933672
 20
725.282715
 30
0.0
 40
0.5
100
AcDbArc
 50
0.247251
 51
90.0
  0
ARC
  5
18E
330
17C
100
AcDbEntity
  8
0
  6
Continuous
 62
     0
370
    30
100
AcDbCircle
 10
329.783695
 20
765.569803
 30
0.0
 40
0.5
100
AcDbArc
 50
6.899503
 51
90.0
  0
LINE
  5
18F
330
17C
100
AcDbEntity
  8
0
  6
Continuous
 62
     0
370
     0
100
AcDbLine
 10
361.344155
 20
732.783087
 30
0.0
 11
353.517685
 21
732.783087
 31
0.0
  0
LINE
  5
190
330
17C
100
AcDbEntity
  8
0
  6
Continuous
 62
     0
370
     0
100
AcDbLine
 10
361.517685
 20
732.783087
 30
0.0
 11
361.344155
 21
732.783087
 31
0.0
  0
LINE
  5
191
330
17C
100
AcDbEntity
  8
0
  6
Continuous
 62
     0
370
    30
100
AcDbLine
 10
361.017685
 20
733.283087
 30
0.0
 11
360.865847
 21
733.283087
 31
0.0
  0
LINE
  5
192
330
17C
100
AcDbEntity
  8
0
  6
Continuous
 62
     0
370
    30
100
AcDbLine
 10
360.865847
 20
733.283087
 30
0.0
 11
354.017685
 21
733.283087
 31
0.0
  0
ARC
  5
193
330
17C
100
AcDbEntity
  8
0
  6
Continuous
 62
     0
370
    30
100
AcDbCircle
 10
361.017694
 20
732.783083
 30
0.0
 40
0.500003533445756
100
AcDbArc
 50
0.000405
 51
89.989894
  0
ARC
  5
194
330
17C
100
AcDbEntity
  8
0
  6
Continuous
 62
     0
370
    30
100
AcDbCircle
 10
354.01782
 20
732.783093
 30
0.0
 40
0.4999939923124423
100
AcDbArc
 50
90.014141
 51
180.000689
  0
LINE
  5
195
330
17C
100
AcDbEntity
  8
0
  6
Continuous
 62
     0
370
    30
100
AcDbLine
 10
353.517685
 20
732.783087
 30
0.0
 11
353.517685
 21
725.782715
 31
0.0
  0
LINE
  5
196
330
17C
100
AcDbEntity
  8
0
  6
Continuous
 62
     0
370
    30
100
AcDbLine
 10
361.517685
 20
732.783087
 30
0.0
 11
361.517685
 21
725.782715
 31
0.0
  0
ARC
  5
197
330
17C
100
AcDbEntity
  8
0
  6
Continuous
 62
     0
370
    30
100
AcDbCircle
 10
330.30951
 20
646.656146
 30
0.0
 40
0.5000027409869732
100
AcDbArc
 50
270.507018
 51
0.506389
  0
ARC
  5
198
330
17C
100
AcDbEntity
  8
0
  6
Continuous
 62
     0
370
    30
100
AcDbCircle
 10
329.787262
 20
765.569635
 30
0.0
 40
0.4964328316563019
100
AcDbArc
 50
0.019425
 51
6.968232
  0
ARC
  5
199
330
17C
100
AcDbEntity
  8
0
  6
Continuous
 62
     0
370
    30
100
AcDbCircle
 10
368.101715
 20
687.279039
 30
0.0
 40
0.5000027030494718
100
AcDbArc
 50
270.507013
 51
0.506394
  0
LINE
  5
19A
330
17C
100
AcDbEntity
  8
0
  6
Continuous
 62
     0
370
    30
100
AcDbLine
 10
368.433667
 20
725.284873
 30
0.0
 11
368.601712
 21
687.281425
 31
0.0
  0
LINE
  5
19B
330
17C
100
AcDbEntity
  8
0
  6
Continuous
 62
     0
370
    30
100
AcDbLine
 10
330.957616
 20
686.450519
 30
0.0
 11
368.10614
 21
686.779056
 31
0.0
  0
LINE
  5
19C
330
17C
100
AcDbEntity
  8
0
  6
Continuous
 62
     0
370
    30
100
AcDbLine
 10
320.814306
 20
646.072149
 30
0.0
 11
330.313935
 21
646.156163
 31
0.0
  0
LINE
  5
19D
330
17C
100
AcDbEntity
  8
0
  6
Continuous
 62
     0
370
    30
100
AcDbLine
 10
320.814306
 20
646.072149
 30
0.0
 11
320.283695
 21
706.069803
 31
0.0
  0
LINE
  5
19E
330
17C
100
AcDbEntity
  8
0
  6
Continuous
 62
     0
370
    30
100
AcDbLine
 10
330.824963
 20
701.449932
 30
0.0
 11
330.567233
 21
701.447653
 31
0.0
  0
LINE
  5
19F
330
17C
100
AcDbEntity
  8
0
  6
Continuous
 62
     0
370
    30
100
AcDbLine
 10
330.957616
 20
686.450519
 30
0.0
 11
330.824963
 21
701.449932
 31
0.0
  0
LINE
  5
1A0
330
17C
100
AcDbEntity
  8
0
  6
Continuous
 62
     0
370
     0
100
AcDbLine
 10
340.579001
 20
856.070976
 30
0.0
 11
335.829001
 21
856.070976
 31
0.0
  0
LINE
  5
1A1
330
17C
100
AcDbEntity
  8
0
  6
Continuous
 62
     0
370
     0
100
AcDbLine
 10
340.579
 20
860.970976
 30
0.0
 11
340.579
 21
856.070976
 31
0.0
  0
LINE
  5
1A2
330
17C
100
AcDbEntity
  8
0
  6
Continuous
 62
     0
370
     0
100
AcDbLine
 10
340.579
 20
856.070976
 30
0.0
 11
340.579
 21
851.170976
 31
0.0
  0
LINE
  5
1A3
330
17C
100
AcDbEntity
  8
0
  6
Continuous
 62
     0
370
    30
100
AcDbLine
 10
340.829
 20
861.570983
 30
0.0
 11
340.829001
 21
861.240437
 31
0.0
  0
ARC
  5
1A4
330
17C
100
AcDbEntity
  8
0
  6
Continuous
 62
     0
370
     0
100
AcDbCircle
 10
333.87364
 20
606.883174
 30
0.0
 40
254.4523419235501
100
AcDbArc
 50
82.984671
 51
88.433646
  0
LINE
  5
1A5
330
17C
100
AcDbEntity
  8
0
  6
Continuous
 62
     0
370
     0
100
AcDbLine
 10
364.964614
 20
859.440849
 30
0.0
 11
364.965629
 21
859.44161
 31
0.0
  0
LINE
  5
1A6
330
17C
100
AcDbEntity
  8
0
  6
Continuous
 62
     0
370
     0
100
AcDbLine
 10
364.95115
 20
859.430561
 30
0.0
 11
364.964614
 21
859.440849
 31
0.0
  0
LINE
  5
1A7
330
17C
100
AcDbEntity
  8
0
  6
Continuous
 62
     0
370
    30
100
AcDbLine
 10
340.829001
 20
850.901515
 30
0.0
 11
340.829
 21
850.570969
 31
0.0
  0
LINE
  5
1A8
330
17C
100
AcDbEntity
  8
0
  6
Continuous
 62
     0
370
    30
100
AcDbLine
 10
340.829001
 20
852.743889
 30
0.0
 11
340.829001
 21
850.901515
 31
0.0
  0
LINE
  5
1A9
330
17C
100
AcDbEntity
  8
0
  6
Continuous
 62
     0
370
    30
100
AcDbLine
 10
340.829001
 20
853.737292
 30
0.0
 11
340.829001
 21
852.743889
 31
0.0
  0
LINE
  5
1AA
330
17C
100
AcDbEntity
  8
0
  6
Continuous
 62
     0
370
    30
100
AcDbLine
 10
340.829001
 20
858.404659
 30
0.0
 11
340.829001
 21
853.737292
 31
0.0
  0
LINE
  5
1AB
330
17C
100
AcDbEntity
  8
0
  6
Continuous
 62
     0
370
    30
100
AcDbLine
 10
340.829001
 20
859.398062
 30
0.0
 11
340.829001
 21
858.404659
 31
0.0
  0
LINE
  5
1AC
330
17C
100
AcDbEntity
  8
0
  6
Continuous
 62
     0
370
    30
100
AcDbLine
 10
340.829001
 20
861.240437
 30
0.0
 11
340.829001
 21
859.398062
 31
0.0
  0
LWPOLYLINE
  5
1AD
330
17C
100
AcDbEntity
  8
0
  6
Continuous
 62
     0
370
     0
100
AcDbPolyline
 90
        3
 70
     0
 43
0.0
 10
340.82901
 20
859.398071
 10
348.990417
 20
859.398499
 10
364.837677
 20
859.329773
  0
ARC
  5
1AE
330
17C
100
AcDbEntity
  8
0
  6
Continuous
 62
     0
370
     0
100
AcDbCircle
 10
365.692348
 20
858.481994
 30
0.0
 40
1.20380619540862
100
AcDbArc
 50
128.003507
 51
135.232344
  0
ARC
  5
1AF
330
17C
100
AcDbEntity
  8
0
  6
Continuous
 62
     0
370
     0
100
AcDbCircle
 10
364.828956
 20
858.438008
 30
0.0
 40
1.000045039858283
100
AcDbArc
 50
0.002987
 51
82.98156
  0
LWPOLYLINE
  5
1B0
330
17C
100
AcDbEntity
  8
0
  6
Continuous
 62
     0
370
     0
100
AcDbPolyline
 90
        8
 70
     0
 43
0.0
 10
340.82901
 20
858.404663
 10
344.223999
 20
858.406677
 10
347.63443
 20
858.405334
 10
350.963348
 20
858.400452
 10
354.279449
 20
858.391479
 10
357.595428
 20
858.37793
 10
360.911255
 20
858.359314
 10
364.837738
 20
858.329834
  0
LWPOLYLINE
  5
1B1
330
17C
100
AcDbEntity
  8
0
  6
Continuous
 62
     0
370
     0
100
AcDbPolyline
 90
        5
 70
     0
 43
0.0
 10
364.837738
 20
858.329834
 10
364.840332
 20
858.707336
 10
364.841248
 20
859.028931
 10
364.840363
 20
859.247131
 10
364.837677
 20
859.329773
  0
LWPOLYLINE
  5
1B2
330
17C
100
AcDbEntity
  8
0
  6
Continuous
 62
     0
370
     0
100
AcDbPolyline
 90
        8
 70
     0
 43
0.0
 10
340.82901
 20
853.737305
 10
344.231018
 20
853.735291
 10
347.648315
 20
853.736572
 10
350.983856
 20
853.741577
 10
354.306732
 20
853.750549
 10
357.629517
 20
853.76416
 10
360.952148
 20
853.782898
 10
364.837738
 20
853.812134
  0
LINE
  5
1B3
330
17C
100
AcDbEntity
  8
0
  6
Continuous
 62
     0
370
     0
100
AcDbLine
 10
364.837728
 20
853.812117
 30
0.0
 11
364.837728
 21
858.329834
 31
0.0
  0
LWPOLYLINE
  5
1B4
330
17C
100
AcDbEntity
  8
0
  6
Continuous
 62
     0
370
     0
100
AcDbPolyline
 90
        5
 70
     0
 43
0.0
 10
364.837738
 20
853.812134
 10
364.840332
 20
853.434631
 10
364.841248
 20
853.113037
 10
364.840363
 20
852.894836
 10
364.837677
 20
852.812195
  0
LWPOLYLINE
  5
1B5
330
17C
100
AcDbEntity
  8
0
  6
Continuous
 62
     0
370
     0
100
AcDbPolyline
 90
        8
 70
     0
 43
0.0
 10
364.837677
 20
852.812195
 10
361.526733
 20
852.787415
 10
358.210388
 20
852.76886
 10
354.893982
 20
852.755737
 10
351.577606
 20
852.747253
 10
348.256073
 20
852.742676
 10
344.859314
 20
852.741516
 10
340.82901
 20
852.743896
  0
ARC
  5
1B6
330
17C
100
AcDbEntity
  8
0
  6
Continuous
 62
     0
370
     0
100
AcDbCircle
 10
365.691385
 20
853.65891
 30
0.0
 40
1.202386555857305
100
AcDbArc
 50
224.764458
 51
232.001901
  0
ARC
  5
1B7
330
17C
100
AcDbEntity
  8
0
  6
Continuous
 62
     0
370
     0
100
AcDbCircle
 10
333.87364
 20
1105.258778
 30
0.0
 40
254.4523415793752
100
AcDbArc
 50
271.566354
 51
277.01533
  0
LINE
  5
1B8
330
17C
100
AcDbEntity
  8
0
  6
Continuous
 62
     0
370
     0
100
AcDbLine
 10
364.964577
 20
852.701099
 30
0.0
 11
364.965587
 21
852.700338
 31
0.0
  0
LINE
  5
1B9
330
17C
100
AcDbEntity
  8
0
  6
Continuous
 62
     0
370
     0
100
AcDbLine
 10
364.951148
 20
852.711391
 30
0.0
 11
364.964577
 21
852.701099
 31
0.0
  0
LINE
  5
1BA
330
17C
100
AcDbEntity
  8
0
  6
Continuous
 62
     0
370
     0
100
AcDbLine
 10
340.829001
 20
856.070976
 30
0.0
 11
340.579001
 21
856.070976
 31
0.0
  0
LINE
  5
1BB
330
17C
100
AcDbEntity
  8
0
  6
Continuous
 62
     0
370
    30
100
AcDbLine
 10
365.829001
 20
858.438062
 30
0.0
 11
365.829001
 21
858.32984
 31
0.0
  0
ARC
  5
1BC
330
17C
100
AcDbEntity
  8
0
  6
Continuous
 62
     0
370
     0
100
AcDbCircle
 10
364.82895
 20
858.329756
 30
0.0
 40
1.000051553863284
100
AcDbArc
 50
0.004833
 51
89.499575
  0
LINE
  5
1BD
330
17C
100
AcDbEntity
  8
0
  6
Continuous
 62
     0
370
    30
100
AcDbLine
 10
365.829001
 20
853.70389
 30
0.0
 11
365.829001
 21
853.812114
 31
0.0
  0
LINE
  5
1BE
330
17C
100
AcDbEntity
  8
0
  6
Continuous
 62
     0
370
    30
100
AcDbLine
 10
365.829001
 20
853.812114
 30
0.0
 11
365.829001
 21
858.32984
 31
0.0
  0
LINE
  5
1BF
330
17C
100
AcDbEntity
  8
0
  6
Continuous
 62
     0
370
     0
100
AcDbLine
 10
364.837728
 20
858.329834
 30
0.0
 11
365.829001
 21
858.329834
 31
0.0
  0
LINE
  5
1C0
330
17C
100
AcDbEntity
  8
0
  6
Continuous
 62
     0
370
     0
100
AcDbLine
 10
365.829001
 20
853.812117
 30
0.0
 11
364.837728
 21
853.812117
 31
0.0
  0
ARC
  5
1C1
330
17C
100
AcDbEntity
  8
0
  6
Continuous
 62
     0
370
     0
100
AcDbCircle
 10
364.829518
 20
853.811636
 30
0.0
 40
0.9994837267933483
100
AcDbArc
 50
270.468209
 51
0.027388
  0
ARC
  5
1C2
330
17C
100
AcDbEntity
  8
0
  6
Continuous
 62
     0
370
     0
100
AcDbCircle
 10
364.828956
 20
853.703942
 30
0.0
 40
1.00004458149998
100
AcDbArc
 50
277.018611
 51
359.996987
  0
LINE
  5
1C3
330
17C
100
AcDbEntity
  8
0
  6
Continuous
 62
     0
370
     0
100
AcDbLine
 10
328.603299
 20
824.010024
 30
0.0
 11
328.603301
 21
856.070976
 31
0.0
  0
LINE
  5
1C4
330
17C
100
AcDbEntity
  8
0
  6
Continuous
 62
     0
370
     0
100
AcDbLine
 10
328.603301
 20
856.070976
 30
0.0
 11
328.603299
 21
888.131929
 31
0.0
  0
LINE
  5
1C5
330
17C
100
AcDbEntity
  8
0
  6
Continuous
 62
     0
370
     0
100
AcDbLine
 10
328.107029
 20
888.570976
 30
0.0
 11
328.10703
 21
856.070976
 31
0.0
  0
LINE
  5
1C6
330
17C
100
AcDbEntity
  8
0
  6
Continuous
 62
     0
370
     0
100
AcDbLine
 10
328.10703
 20
856.070976
 30
0.0
 11
328.107029
 21
823.570976
 31
0.0
  0
LINE
  5
1C7
330
17C
100
AcDbEntity
  8
0
  6
Continuous
 62
     0
370
     0
100
AcDbLine
 10
330.445822
 20
848.160787
 30
0.0
 11
330.445835
 21
856.070976
 31
0.0
  0
LINE
  5
1C8
330
17C
100
AcDbEntity
  8
0
  6
Continuous
 62
     0
370
     0
100
AcDbLine
 10
330.445835
 20
856.070976
 30
0.0
 11
330.445822
 21
863.981165
 31
0.0
  0
LINE
  5
1C9
330
17C
100
AcDbEntity
  8
0
  6
Continuous
 62
     0
370
    30
100
AcDbLine
 10
320.549
 20
888.570976
 30
0.0
 11
320.549
 21
856.070976
 31
0.0
  0
LINE
  5
1CA
330
17C
100
AcDbEntity
  8
0
  6
Continuous
 62
     0
370
    30
100
AcDbLine
 10
320.549
 20
856.070976
 30
0.0
 11
320.549
 21
823.570976
 31
0.0
  0
LWPOLYLINE
  5
1CB
330
17C
100
AcDbEntity
  8
0
  6
Continuous
 62
     0
370
     0
100
AcDbPolyline
 90
       12
 70
     0
 43
0.0
 10
322.428009
 20
823.570984
 10
322.493256
 20
823.574219
 10
322.68515
 20
823.582764
 10
322.98645
 20
823.594055
 10
323.374603
 20
823.604431
 10
323.81662
 20
823.610596
 10
324.277405
 20
823.610657
 10
324.719635
 20
823.604492
 10
325.108734
 20
823.594116
 10
325.410675
 20
823.582886
 10
325.602234
 20
823.57428
 10
325.670013
 20
823.570984
  0
LINE
  5
1CC
330
17C
100
AcDbEntity
  8
0
  6
Continuous
 62
     0
370
     0
100
AcDbLine
 10
333.444477
 20
861.070976
 30
0.0
 11
333.444477
 21
856.070976
 31
0.0
  0
LINE
  5
1CD
330
17C
100
AcDbEntity
  8
0
  6
Continuous
 62
     0
370
     0
100
AcDbLine
 10
333.444477
 20
856.070976
 30
0.0
 11
333.444477
 21
851.070976
 31
0.0
  0
LINE
  5
1CE
330
17C
100
AcDbEntity
  8
0
  6
Continuous
 62
     0
370
    30
100
AcDbLine
 10
335.829
 20
851.070976
 30
0.0
 11
335.829
 21
856.070976
 31
0.0
  0
LINE
  5
1CF
330
17C
100
AcDbEntity
  8
0
  6
Continuous
 62
     0
370
    30
100
AcDbLine
 10
335.829
 20
856.070976
 30
0.0
 11
335.829
 21
861.070976
 31
0.0
  0
LINE
  5
1D0
330
17C
100
AcDbEntity
  8
0
  6
Continuous
 62
     0
370
    30
100
AcDbLine
 10
322.428
 20
823.570976
 30
0.0
 11
325.67
 21
823.570976
 31
0.0
  0
ARC
  5
1D1
330
17C
100
AcDbEntity
  8
0
  6
Continuous
 62
     0
370
    30
100
AcDbCircle
 10
333.444478
 20
848.070976
 30
0.0
 40
3.000000042507338
100
AcDbArc
 50
90.0
 51
178.263297
  0
ARC
  5
1D2
330
17C
100
AcDbEntity
  8
0
  6
Continuous
 62
     0
370
    30
100
AcDbCircle
 10
333.444478
 20
864.070976
 30
0.0
 40
3.000000042538946
100
AcDbArc
 50
181.736704
 51
270.0
  0
LINE
  5
1D3
330
17C
100
AcDbEntity
  8
0
  6
Continuous
 62
     0
370
    30
100
AcDbLine
 10
335.829
 20
851.070976
 30
0.0
 11
333.444477
 21
851.070976
 31
0.0
  0
LINE
  5
1D4
330
17C
100
AcDbEntity
  8
0
  6
Continuous
 62
     0
370
    30
100
AcDbLine
 10
335.829
 20
861.070976
 30
0.0
 11
333.444477
 21
861.070976
 31
0.0
  0
LINE
  5
1D5
330
17C
100
AcDbEntity
  8
0
  6
Continuous
 62
     0
370
    30
100
AcDbLine
 10
328.107029
 20
823.570976
 30
0.0
 11
325.67
 21
823.570976
 31
0.0
  0
LINE
  5
1D6
330
17C
100
AcDbEntity
  8
0
  6
Continuous
 62
     0
370
    30
100
AcDbLine
 10
322.428
 20
823.570976
 30
0.0
 11
320.549
 21
823.570976
 31
0.0
  0
LINE
  5
1D7
330
17C
100
AcDbEntity
  8
0
  6
Continuous
 62
     0
370
    30
100
AcDbLine
 10
328.107029
 20
888.570976
 30
0.0
 11
320.549
 21
888.570976
 31
0.0
  0
LWPOLYLINE
  5
1D8
330
17C
100
AcDbEntity
  8
0
  6
Continuous
 62
     0
370
    30
100
AcDbPolyline
 90
       46
 70
     0
 43
0.0
 10
328.603302
 20
888.131836
 10
328.668396
 20
887.597534
 10
328.732361
 20
887.063049
 10
328.795258
 20
886.528442
 10
328.857025
 20
885.993713
 10
328.917725
 20
885.458862
 10
328.977325
 20
884.923889
 10
329.035828
 20
884.388794
 10
329.093262
 20
883.853577
 10
329.149567
 20
883.318237
 10
329.204773
 20
882.782776
 10
329.258911
 20
882.247192
 10
329.31192
 20
881.711548
 10
329.363861
 20
881.175781
 10
329.414703
 20
880.639893
 10
329.464447
 20
880.103882
 10
329.513092
 20
879.56781
 10
329.560638
 20
879.031616
 10
329.607086
 20
878.495361
 10
329.652435
 20
877.958984
 10
329.696655
 20
877.422485
 10
329.739807
 20
876.885986
 10
329.78186
 20
876.349304
 10
329.822845
 20
875.812561
 10
329.862732
 20
875.275757
 10
329.90155
 20
874.738831
 10
329.93924
 20
874.201843
 10
329.9758
 20
873.664856
 10
330.011169
 20
873.127747
 10
330.045349
 20
872.590576
 10
330.078491
 20
872.053345
 10
330.11084
 20
871.515991
 10
330.142487
 20
870.978394
 10
330.172729
 20
870.440857
 10
330.200623
 20
869.903687
 10
330.226166
 20
869.36676
 10
330.252472
 20
868.829285
 10
330.283081
 20
868.290039
 10
330.315399
 20
867.749878
 10
330.336792
 20
867.212708
 10
330.335236
 20
866.68219
 10
330.330841
 20
866.152222
 10
330.373444
 20
865.607361
 10
330.496613
 20
865.037231
 10
330.585449
 20
864.477295
 10
330.445831
 20
863.981079
  0
ARC
  5
1D9
330
17C
100
AcDbEntity
  8
0
  6
Continuous
 62
     0
370
    30
100
AcDbCircle
 10
328.106949
 20
824.071066
 30
0.0
 40
0.500089692180822
100
AcDbArc
 50
270.009087
 51
352.988868
  0
ARC
  5
1DA
330
17C
100
AcDbEntity
  8
0
  6
Continuous
 62
     0
370
    30
100
AcDbCircle
 10
328.106949
 20
888.070887
 30
0.0
 40
0.5000896921783209
100
AcDbArc
 50
7.011132
 51
89.990913
  0
LINE
  5
1DB
330
17C
100
AcDbEntity
  8
0
  6
Continuous
 62
     0
370
    30
100
AcDbLine
 10
365.828963
 20
853.804207
 30
0.0
 11
365.828997
 21
853.812117
 31
0.0
  0
ARC
  5
1DC
330
17C
100
AcDbEntity
  8
0
  6
Continuous
 62
     0
370
    30
100
AcDbCircle
 10
364.828923
 20
853.689399
 30
0.0
 40
1.000077725545121
100
AcDbArc
 50
277.959796
 51
359.996125
  0
ARC
  5
1DD
330
17C
100
AcDbEntity
  8
0
  6
Continuous
 62
     0
370
    30
100
AcDbCircle
 10
340.578964
 20
861.221012
 30
0.0
 40
0.2500359660593607
100
AcDbArc
 50
270.008236
 51
359.959348
  0
ARC
  5
1DE
330
17C
100
AcDbEntity
  8
0
  6
Continuous
 62
     0
370
    30
100
AcDbCircle
 10
340.578964
 20
850.92094
 30
0.0
 40
0.2500359660561858
100
AcDbArc
 50
0.040652
 51
89.991764
  0
ARC
  5
1DF
330
17C
100
AcDbEntity
  8
0
  6
Continuous
 62
     0
370
    30
100
AcDbCircle
 10
332.019645
 20
1088.466902
 30
0.0
 40
238.0589831044335
100
AcDbArc
 50
272.12071
 51
277.955365
  0
ARC
  5
1E0
330
17C
100
AcDbEntity
  8
0
  6
Continuous
 62
     0
370
    30
100
AcDbCircle
 10
364.828923
 20
858.452554
 30
0.0
 40
1.000077320011415
100
AcDbArc
 50
0.003864
 51
82.040204
  0
ARC
  5
1E1
330
17C
100
AcDbEntity
  8
0
  6
Continuous
 62
     0
370
    30
100
AcDbCircle
 10
332.019645
 20
623.675052
 30
0.0
 40
238.0589820408821
100
AcDbArc
 50
82.044626
 51
87.87929
  0
LINE
  5
1E2
330
17C
100
AcDbEntity
  8
0
  6
Continuous
 62
     0
370
    30
100
AcDbLine
 10
335.829
 20
851.170976
 30
0.0
 11
340.579
 21
851.170976
 31
0.0
  0
LINE
  5
1E3
330
17C
100
AcDbEntity
  8
0
  6
Continuous
 62
     0
370
    30
100
AcDbLine
 10
335.829
 20
860.970976
 30
0.0
 11
340.579
 21
860.970976
 31
0.0
  0
LINE
  5
1E4
330
17C
100
AcDbEntity
  8
0
  6
Continuous
 62
     0
370
     0
100
AcDbLine
 10
340.579001
 20
956.070976
 30
0.0
 11
335.829001
 21
956.070976
 31
0.0
  0
LINE
  5
1E5
330
17C
100
AcDbEntity
  8
0
  6
Continuous
 62
     0
370
     0
100
AcDbLine
 10
340.579
 20
960.970976
 30
0.0
 11
340.579
 21
956.070976
 31
0.0
  0
LINE
  5
1E6
330
17C
100
AcDbEntity
  8
0
  6
Continuous
 62
     0
370
     0
100
AcDbLine
 10
340.579
 20
956.070976
 30
0.0
 11
340.579
 21
951.170976
 31
0.0
  0
LINE
  5
1E7
330
17C
100
AcDbEntity
  8
0
  6
Continuous
 62
     0
370
    30
100
AcDbLine
 10
340.829
 20
961.570983
 30
0.0
 11
340.829001
 21
961.240437
 31
0.0
  0
ARC
  5
1E8
330
17C
100
AcDbEntity
  8
0
  6
Continuous
 62
     0
370
     0
100
AcDbCircle
 10
333.87364
 20
706.883174
 30
0.0
 40
254.4523419234982
100
AcDbArc
 50
82.984671
 51
88.433646
  0
LINE
  5
1E9
330
17C
100
AcDbEntity
  8
0
  6
Continuous
 62
     0
370
     0
100
AcDbLine
 10
364.964614
 20
959.440849
 30
0.0
 11
364.965629
 21
959.44161
 31
0.0
  0
LINE
  5
1EA
330
17C
100
AcDbEntity
  8
0
  6
Continuous
 62
     0
370
     0
100
AcDbLine
 10
364.95115
 20
959.430561
 30
0.0
 11
364.964614
 21
959.440849
 31
0.0
  0
LINE
  5
1EB
330
17C
100
AcDbEntity
  8
0
  6
Continuous
 62
     0
370
    30
100
AcDbLine
 10
340.829001
 20
950.901515
 30
0.0
 11
340.829
 21
950.570969
 31
0.0
  0
LINE
  5
1EC
330
17C
100
AcDbEntity
  8
0
  6
Continuous
 62
     0
370
    30
100
AcDbLine
 10
340.829001
 20
952.743889
 30
0.0
 11
340.829001
 21
950.901515
 31
0.0
  0
LINE
  5
1ED
330
17C
100
AcDbEntity
  8
0
  6
Continuous
 62
     0
370
    30
100
AcDbLine
 10
340.829001
 20
953.737292
 30
0.0
 11
340.829001
 21
952.743889
 31
0.0
  0
LINE
  5
1EE
330
17C
100
AcDbEntity
  8
0
  6
Continuous
 62
     0
370
    30
100
AcDbLine
 10
340.829001
 20
958.404659
 30
0.0
 11
340.829001
 21
953.737292
 31
0.0
  0
LINE
  5
1EF
330
17C
100
AcDbEntity
  8
0
  6
Continuous
 62
     0
370
    30
100
AcDbLine
 10
340.829001
 20
959.398062
 30
0.0
 11
340.829001
 21
958.404659
 31
0.0
  0
LINE
  5
1F0
330
17C
100
AcDbEntity
  8
0
  6
Continuous
 62
     0
370
    30
100
AcDbLine
 10
340.829001
 20
961.240437
 30
0.0
 11
340.829001
 21
959.398062
 31
0.0
  0
LWPOLYLINE
  5
1F1
330
17C
100
AcDbEntity
  8
0
  6
Continuous
 62
     0
370
     0
100
AcDbPolyline
 90
        3
 70
     0
 43
0.0
 10
340.82901
 20
959.398071
 10
348.990417
 20
959.398499
 10
364.837677
 20
959.329773
  0
ARC
  5
1F2
330
17C
100
AcDbEntity
  8
0
  6
Continuous
 62
     0
370
     0
100
AcDbCircle
 10
365.692348
 20
958.481994
 30
0.0
 40
1.203806195390933
100
AcDbArc
 50
128.003507
 51
135.232344
  0
ARC
  5
1F3
330
17C
100
AcDbEntity
  8
0
  6
Continuous
 62
     0
370
     0
100
AcDbCircle
 10
364.828956
 20
958.438008
 30
0.0
 40
1.000045039859472
100
AcDbArc
 50
0.002987
 51
82.98156
  0
LWPOLYLINE
  5
1F4
330
17C
100
AcDbEntity
  8
0
  6
Continuous
 62
     0
370
     0
100
AcDbPolyline
 90
        8
 70
     0
 43
0.0
 10
340.82901
 20
958.404663
 10
344.223999
 20
958.406677
 10
347.63443
 20
958.405334
 10
350.963348
 20
958.400452
 10
354.279449
 20
958.391479
 10
357.595428
 20
958.37793
 10
360.911255
 20
958.359314
 10
364.837738
 20
958.329834
  0
LWPOLYLINE
  5
1F5
330
17C
100
AcDbEntity
  8
0
  6
Continuous
 62
     0
370
     0
100
AcDbPolyline
 90
        5
 70
     0
 43
0.0
 10
364.837738
 20
958.329834
 10
364.840332
 20
958.707336
 10
364.841248
 20
959.028931
 10
364.840363
 20
959.247131
 10
364.837677
 20
959.329773
  0
LWPOLYLINE
  5
1F6
330
17C
100
AcDbEntity
  8
0
  6
Continuous
 62
     0
370
     0
100
AcDbPolyline
 90
        8
 70
     0
 43
0.0
 10
340.82901
 20
953.737305
 10
344.231018
 20
953.735291
 10
347.648315
 20
953.736572
 10
350.983856
 20
953.741577
 10
354.306732
 20
953.750549
 10
357.629517
 20
953.76416
 10
360.952148
 20
953.782898
 10
364.837738
 20
953.812134
  0
LINE
  5
1F7
330
17C
100
AcDbEntity
  8
0
  6
Continuous
 62
     0
370
     0
100
AcDbLine
 10
364.837728
 20
953.812117
 30
0.0
 11
364.837728
 21
958.329834
 31
0.0
  0
LWPOLYLINE
  5
1F8
330
17C
100
AcDbEntity
  8
0
  6
Continuous
 62
     0
370
     0
100
AcDbPolyline
 90
        5
 70
     0
 43
0.0
 10
364.837738
 20
953.812134
 10
364.840332
 20
953.434631
 10
364.841248
 20
953.113037
 10
364.840363
 20
952.894836
 10
364.837677
 20
952.812195
  0
LWPOLYLINE
  5
1F9
330
17C
100
AcDbEntity
  8
0
  6
Continuous
 62
     0
370
     0
100
AcDbPolyline
 90
        8
 70
     0
 43
0.0
 10
364.837677
 20
952.812195
 10
361.526733
 20
952.787415
 10
358.210388
 20
952.76886
 10
354.893982
 20
952.755737
 10
351.577606
 20
952.747253
 10
348.256073
 20
952.742676
 10
344.859314
 20
952.741516
 10
340.82901
 20
952.743896
  0
ARC
  5
1FA
330
17C
100
AcDbEntity
  8
0
  6
Continuous
 62
     0
370
     0
100
AcDbCircle
 10
365.691385
 20
953.65891
 30
0.0
 40
1.202386557647917
100
AcDbArc
 50
224.764458
 51
232.001901
  0
ARC
  5
1FB
330
17C
100
AcDbEntity
  8
0
  6
Continuous
 62
     0
370
     0
100
AcDbCircle
 10
333.87364
 20
1205.258778
 30
0.0
 40
254.4523415793653
100
AcDbArc
 50
271.566354
 51
277.01533
  0
LINE
  5
1FC
330
17C
100
AcDbEntity
  8
0
  6
Continuous
 62
     0
370
     0
100
AcDbLine
 10
364.964577
 20
952.701099
 30
0.0
 11
364.965587
 21
952.700338
 31
0.0
  0
LINE
  5
1FD
330
17C
100
AcDbEntity
  8
0
  6
Continuous
 62
     0
370
     0
100
AcDbLine
 10
364.951148
 20
952.711391
 30
0.0
 11
364.964577
 21
952.701099
 31
0.0
  0
LINE
  5
1FE
330
17C
100
AcDbEntity
  8
0
  6
Continuous
 62
     0
370
     0
100
AcDbLine
 10
340.829001
 20
956.070976
 30
0.0
 11
340.579001
 21
956.070976
 31
0.0
  0
LINE
  5
1FF
330
17C
100
AcDbEntity
  8
0
  6
Continuous
 62
     0
370
    30
100
AcDbLine
 10
365.829001
 20
958.438062
 30
0.0
 11
365.829001
 21
958.32984
 31
0.0
  0
ARC
  5
200
330
17C
100
AcDbEntity
  8
0
  6
Continuous
 62
     0
370
     0
100
AcDbCircle
 10
364.82895
 20
958.329756
 30
0.0
 40
1.000051553868607
100
AcDbArc
 50
0.004833
 51
89.499575
  0
LINE
  5
201
330
17C
100
AcDbEntity
  8
0
  6
Continuous
 62
     0
370
    30
100
AcDbLine
 10
365.829001
 20
953.70389
 30
0.0
 11
365.829001
 21
953.812114
 31
0.0
  0
LINE
  5
202
330
17C
100
AcDbEntity
  8
0
  6
Continuous
 62
     0
370
    30
100
AcDbLine
 10
365.829001
 20
953.812114
 30
0.0
 11
365.829001
 21
958.32984
 31
0.0
  0
LINE
  5
203
330
17C
100
AcDbEntity
  8
0
  6
Continuous
 62
     0
370
     0
100
AcDbLine
 10
364.837728
 20
958.329834
 30
0.0
 11
365.829001
 21
958.329834
 31
0.0
  0
LINE
  5
204
330
17C
100
AcDbEntity
  8
0
  6
Continuous
 62
     0
370
     0
100
AcDbLine
 10
365.829001
 20
953.812117
 30
0.0
 11
364.837728
 21
953.812117
 31
0.0
  0
ARC
  5
205
330
17C
100
AcDbEntity
  8
0
  6
Continuous
 62
     0
370
     0
100
AcDbCircle
 10
364.829518
 20
953.811636
 30
0.0
 40
0.9994837267855781
100
AcDbArc
 50
270.468209
 51
0.027388
  0
ARC
  5
206
330
17C
100
AcDbEntity
  8
0
  6
Continuous
 62
     0
370
     0
100
AcDbCircle
 10
364.828956
 20
953.703942
 30
0.0
 40
1.000044581502539
100
AcDbArc
 50
277.018611
 51
359.996987
  0
LINE
  5
207
330
17C
100
AcDbEntity
  8
0
  6
Continuous
 62
     0
370
     0
100
AcDbLine
 10
328.603299
 20
924.010024
 30
0.0
 11
328.603301
 21
956.070976
 31
0.0
  0
LINE
  5
208
330
17C
100
AcDbEntity
  8
0
  6
Continuous
 62
     0
370
     0
100
AcDbLine
 10
328.603301
 20
956.070976
 30
0.0
 11
328.603299
 21
988.131929
 31
0.0
  0
LINE
  5
209
330
17C
100
AcDbEntity
  8
0
  6
Continuous
 62
     0
370
     0
100
AcDbLine
 10
328.107029
 20
988.570976
 30
0.0
 11
328.10703
 21
956.070976
 31
0.0
  0
LINE
  5
20A
330
17C
100
AcDbEntity
  8
0
  6
Continuous
 62
     0
370
     0
100
AcDbLine
 10
328.10703
 20
956.070976
 30
0.0
 11
328.107029
 21
923.570976
 31
0.0
  0
LINE
  5
20B
330
17C
100
AcDbEntity
  8
0
  6
Continuous
 62
     0
370
     0
100
AcDbLine
 10
330.445822
 20
948.160787
 30
0.0
 11
330.445835
 21
956.070976
 31
0.0
  0
LINE
  5
20C
330
17C
100
AcDbEntity
  8
0
  6
Continuous
 62
     0
370
     0
100
AcDbLine
 10
330.445835
 20
956.070976
 30
0.0
 11
330.445822
 21
963.981165
 31
0.0
  0
LINE
  5
20D
330
17C
100
AcDbEntity
  8
0
  6
Continuous
 62
     0
370
    30
100
AcDbLine
 10
320.549
 20
988.570976
 30
0.0
 11
320.549
 21
956.070976
 31
0.0
  0
LINE
  5
20E
330
17C
100
AcDbEntity
  8
0
  6
Continuous
 62
     0
370
    30
100
AcDbLine
 10
320.549
 20
956.070976
 30
0.0
 11
320.549
 21
923.570976
 31
0.0
  0
LWPOLYLINE
  5
20F
330
17C
100
AcDbEntity
  8
0
  6
Continuous
 62
     0
370
     0
100
AcDbPolyline
 90
       12
 70
     0
 43
0.0
 10
322.428009
 20
923.570984
 10
322.493256
 20
923.574219
 10
322.68515
 20
923.582764
 10
322.98645
 20
923.594055
 10
323.374603
 20
923.604431
 10
323.81662
 20
923.610596
 10
324.277405
 20
923.610657
 10
324.719635
 20
923.604492
 10
325.108734
 20
923.594116
 10
325.410675
 20
923.582886
 10
325.602234
 20
923.57428
 10
325.670013
 20
923.570984
  0
LINE
  5
210
330
17C
100
AcDbEntity
  8
0
  6
Continuous
 62
     0
370
     0
100
AcDbLine
 10
333.444477
 20
961.070976
 30
0.0
 11
333.444477
 21
956.070976
 31
0.0
  0
LINE
  5
211
330
17C
100
AcDbEntity
  8
0
  6
Continuous
 62
     0
370
     0
100
AcDbLine
 10
333.444477
 20
956.070976
 30
0.0
 11
333.444477
 21
951.070976
 31
0.0
  0
LINE
  5
212
330
17C
100
AcDbEntity
  8
0
  6
Continuous
 62
     0
370
    30
100
AcDbLine
 10
335.829
 20
951.070976
 30
0.0
 11
335.829
 21
956.070976
 31
0.0
  0
LINE
  5
213
330
17C
100
AcDbEntity
  8
0
  6
Continuous
 62
     0
370
    30
100
AcDbLine
 10
335.829
 20
956.070976
 30
0.0
 11
335.829
 21
961.070976
 31
0.0
  0
LINE
  5
214
330
17C
100
AcDbEntity
  8
0
  6
Continuous
 62
     0
370
    30
100
AcDbLine
 10
322.428
 20
923.570976
 30
0.0
 11
325.67
 21
923.570976
 31
0.0
  0
ARC
  5
215
330
17C
100
AcDbEntity
  8
0
  6
Continuous
 62
     0
370
    30
100
AcDbCircle
 10
333.444478
 20
948.070976
 30
0.0
 40
3.000000042507347
100
AcDbArc
 50
90.0
 51
178.263297
  0
ARC
  5
216
330
17C
100
AcDbEntity
  8
0
  6
Continuous
 62
     0
370
    30
100
AcDbCircle
 10
333.444478
 20
964.070976
 30
0.0
 40
3.000000042538124
100
AcDbArc
 50
181.736704
 51
270.0
  0
LINE
  5
217
330
17C
100
AcDbEntity
  8
0
  6
Continuous
 62
     0
370
    30
100
AcDbLine
 10
335.829
 20
951.070976
 30
0.0
 11
333.444477
 21
951.070976
 31
0.0
  0
LINE
  5
218
330
17C
100
AcDbEntity
  8
0
  6
Continuous
 62
     0
370
    30
100
AcDbLine
 10
335.829
 20
961.070976
 30
0.0
 11
333.444477
 21
961.070976
 31
0.0
  0
LINE
  5
219
330
17C
100
AcDbEntity
  8
0
  6
Continuous
 62
     0
370
    30
100
AcDbLine
 10
328.107029
 20
923.570976
 30
0.0
 11
325.67
 21
923.570976
 31
0.0
  0
LINE
  5
21A
330
17C
100
AcDbEntity
  8
0
  6
Continuous
 62
     0
370
    30
100
AcDbLine
 10
322.428
 20
923.570976
 30
0.0
 11
320.549
 21
923.570976
 31
0.0
  0
LINE
  5
21B
330
17C
100
AcDbEntity
  8
0
  6
Continuous
 62
     0
370
    30
100
AcDbLine
 10
328.107029
 20
988.570976
 30
0.0
 11
320.549
 21
988.570976
 31
0.0
  0
LWPOLYLINE
  5
21C
330
17C
100
AcDbEntity
  8
0
  6
Continuous
 62
     0
370
    30
100
AcDbPolyline
 90
       46
 70
     0
 43
0.0
 10
328.603302
 20
988.131836
 10
328.668396
 20
987.597534
 10
328.732361
 20
987.063049
 10
328.795258
 20
986.528442
 10
328.857025
 20
985.993713
 10
328.917725
 20
985.458862
 10
328.977325
 20
984.923889
 10
329.035828
 20
984.388794
 10
329.093262
 20
983.853577
 10
329.149567
 20
983.318237
 10
329.204773
 20
982.782776
 10
329.258911
 20
982.247192
 10
329.31192
 20
981.711548
 10
329.363861
 20
981.175781
 10
329.414703
 20
980.639893
 10
329.464447
 20
980.103882
 10
329.513092
 20
979.56781
 10
329.560638
 20
979.031616
 10
329.607086
 20
978.495361
 10
329.652435
 20
977.958984
 10
329.696655
 20
977.422485
 10
329.739807
 20
976.885986
 10
329.78186
 20
976.349304
 10
329.822845
 20
975.812561
 10
329.862732
 20
975.275757
 10
329.90155
 20
974.738831
 10
329.93924
 20
974.201843
 10
329.9758
 20
973.664856
 10
330.011169
 20
973.127747
 10
330.045349
 20
972.590576
 10
330.078491
 20
972.053345
 10
330.11084
 20
971.515991
 10
330.142487
 20
970.978394
 10
330.172729
 20
970.440857
 10
330.200623
 20
969.903687
 10
330.226166
 20
969.36676
 10
330.252472
 20
968.829285
 10
330.283081
 20
968.290039
 10
330.315399
 20
967.749878
 10
330.336792
 20
967.212708
 10
330.335236
 20
966.68219
 10
330.330841
 20
966.152222
 10
330.373444
 20
965.607361
 10
330.496613
 20
965.037231
 10
330.585449
 20
964.477295
 10
330.445831
 20
963.981079
  0
ARC
  5
21D
330
17C
100
AcDbEntity
  8
0
  6
Continuous
 62
     0
370
    30
100
AcDbCircle
 10
328.106949
 20
924.071066
 30
0.0
 40
0.5000896921708122
100
AcDbArc
 50
270.009087
 51
352.988868
  0
ARC
  5
21E
330
17C
100
AcDbEntity
  8
0
  6
Continuous
 62
     0
370
    30
100
AcDbCircle
 10
328.106949
 20
988.070887
 30
0.0
 40
0.500089692166392
100
AcDbArc
 50
7.011132
 51
89.990913
  0
LINE
  5
21F
330
17C
100
AcDbEntity
  8
0
  6
Continuous
 62
     0
370
    30
100
AcDbLine
 10
365.828963
 20
953.804207
 30
0.0
 11
365.828997
 21
953.812117
 31
0.0
  0
ARC
  5
220
330
17C
100
AcDbEntity
  8
0
  6
Continuous
 62
     0
370
    30
100
AcDbCircle
 10
364.828923
 20
953.689399
 30
0.0
 40
1.000077725541612
100
AcDbArc
 50
277.959796
 51
359.996125
  0
ARC
  5
221
330
17C
100
AcDbEntity
  8
0
  6
Continuous
 62
     0
370
    30
100
AcDbCircle
 10
340.578964
 20
961.221012
 30
0.0
 40
0.2500359660525039
100
AcDbArc
 50
270.008236
 51
359.959348
  0
ARC
  5
222
330
17C
100
AcDbEntity
  8
0
  6
Continuous
 62
     0
370
    30
100
AcDbCircle
 10
340.578964
 20
950.92094
 30
0.0
 40
0.2500359660715207
100
AcDbArc
 50
0.040652
 51
89.991764
  0
ARC
  5
223
330
17C
100
AcDbEntity
  8
0
  6
Continuous
 62
     0
370
    30
100
AcDbCircle
 10
332.019645
 20
1188.466902
 30
0.0
 40
238.0589831044612
100
AcDbArc
 50
272.12071
 51
277.955365
  0
ARC
  5
224
330
17C
100
AcDbEntity
  8
0
  6
Continuous
 62
     0
370
    30
100
AcDbCircle
 10
364.828923
 20
958.452554
 30
0.0
 40
1.000077320008617
100
AcDbArc
 50
0.003864
 51
82.040204
  0
ARC
  5
225
330
17C
100
AcDbEntity
  8
0
  6
Continuous
 62
     0
370
    30
100
AcDbCircle
 10
332.019645
 20
723.675052
 30
0.0
 40
238.0589820408502
100
AcDbArc
 50
82.044626
 51
87.87929
  0
LINE
  5
226
330
17C
100
AcDbEntity
  8
0
  6
Continuous
 62
     0
370
    30
100
AcDbLine
 10
335.829
 20
951.170976
 30
0.0
 11
340.579
 21
951.170976
 31
0.0
  0
LINE
  5
227
330
17C
100
AcDbEntity
  8
0
  6
Continuous
 62
     0
370
    30
100
AcDbLine
 10
335.829
 20
960.970976
 30
0.0
 11
340.579
 21
960.970976
 31
0.0
  0
LINE
  5
228
330
17C
100
AcDbEntity
  8
0
  6
Continuous
 62
     0
370
     0
100
AcDbLine
 10
340.579001
 20
1056.070976
 30
0.0
 11
335.829001
 21
1056.070976
 31
0.0
  0
LINE
  5
229
330
17C
100
AcDbEntity
  8
0
  6
Continuous
 62
     0
370
     0
100
AcDbLine
 10
340.579
 20
1060.970976
 30
0.0
 11
340.579
 21
1056.070976
 31
0.0
  0
LINE
  5
22A
330
17C
100
AcDbEntity
  8
0
  6
Continuous
 62
     0
370
     0
100
AcDbLine
 10
340.579
 20
1056.070976
 30
0.0
 11
340.579
 21
1051.170976
 31
0.0
  0
LINE
  5
22B
330
17C
100
AcDbEntity
  8
0
  6
Continuous
 62
     0
370
    30
100
AcDbLine
 10
340.829
 20
1061.570983
 30
0.0
 11
340.829001
 21
1061.240437
 31
0.0
  0
ARC
  5
22C
330
17C
100
AcDbEntity
  8
0
  6
Continuous
 62
     0
370
     0
100
AcDbCircle
 10
333.87364
 20
806.883174
 30
0.0
 40
254.4523419235611
100
AcDbArc
 50
82.984671
 51
88.433646
  0
LINE
  5
22D
330
17C
100
AcDbEntity
  8
0
  6
Continuous
 62
     0
370
     0
100
AcDbLine
 10
364.964614
 20
1059.440849
 30
0.0
 11
364.965629
 21
1059.44161
 31
0.0
  0
LINE
  5
22E
330
17C
100
AcDbEntity
  8
0
  6
Continuous
 62
     0
370
     0
100
AcDbLine
 10
364.95115
 20
1059.430561
 30
0.0
 11
364.964614
 21
1059.440849
 31
0.0
  0
LINE
  5
22F
330
17C
100
AcDbEntity
  8
0
  6
Continuous
 62
     0
370
    30
100
AcDbLine
 10
340.829001
 20
1050.901515
 30
0.0
 11
340.829
 21
1050.570969
 31
0.0
  0
LINE
  5
230
330
17C
100
AcDbEntity
  8
0
  6
Continuous
 62
     0
370
    30
100
AcDbLine
 10
340.829001
 20
1052.743889
 30
0.0
 11
340.829001
 21
1050.901515
 31
0.0
  0
LINE
  5
231
330
17C
100
AcDbEntity
  8
0
  6
Continuous
 62
     0
370
    30
100
AcDbLine
 10
340.829001
 20
1053.737292
 30
0.0
 11
340.829001
 21
1052.743889
 31
0.0
  0
LINE
  5
232
330
17C
100
AcDbEntity
  8
0
  6
Continuous
 62
     0
370
    30
100
AcDbLine
 10
340.829001
 20
1058.404659
 30
0.0
 11
340.829001
 21
1053.737292
 31
0.0
  0
LINE
  5
233
330
17C
100
AcDbEntity
  8
0
  6
Continuous
 62
     0
370
    30
100
AcDbLine
 10
340.829001
 20
1059.398062
 30
0.0
 11
340.829001
 21
1058.404659
 31
0.0
  0
LINE
  5
234
330
17C
100
AcDbEntity
  8
0
  6
Continuous
 62
     0
370
    30
100
AcDbLine
 10
340.829001
 20
1061.240437
 30
0.0
 11
340.829001
 21
1059.398062
 31
0.0
  0
LWPOLYLINE
  5
235
330
17C
100
AcDbEntity
  8
0
  6
Continuous
 62
     0
370
     0
100
AcDbPolyline
 90
        3
 70
     0
 43
0.0
 10
340.82901
 20
1059.398071
 10
348.990417
 20
1059.398438
 10
364.837677
 20
1059.329712
  0
ARC
  5
236
330
17C
100
AcDbEntity
  8
0
  6
Continuous
 62
     0
370
     0
100
AcDbCircle
 10
365.692348
 20
1058.481994
 30
0.0
 40
1.203806195369682
100
AcDbArc
 50
128.003507
 51
135.232344
  0
ARC
  5
237
330
17C
100
AcDbEntity
  8
0
  6
Continuous
 62
     0
370
     0
100
AcDbCircle
 10
364.828956
 20
1058.438008
 30
0.0
 40
1.000045039862746
100
AcDbArc
 50
0.002987
 51
82.98156
  0
LWPOLYLINE
  5
238
330
17C
100
AcDbEntity
  8
0
  6
Continuous
 62
     0
370
     0
100
AcDbPolyline
 90
        8
 70
     0
 43
0.0
 10
340.82901
 20
1058.404663
 10
344.223999
 20
1058.406616
 10
347.63443
 20
1058.405396
 10
350.963348
 20
1058.400391
 10
354.279449
 20
1058.391479
 10
357.595428
 20
1058.37793
 10
360.911255
 20
1058.359253
 10
364.837738
 20
1058.329834
  0
LWPOLYLINE
  5
239
330
17C
100
AcDbEntity
  8
0
  6
Continuous
 62
     0
370
     0
100
AcDbPolyline
 90
        5
 70
     0
 43
0.0
 10
364.837738
 20
1058.329834
 10
364.840332
 20
1058.707397
 10
364.841248
 20
1059.028931
 10
364.840363
 20
1059.247192
 10
364.837677
 20
1059.329712
  0
LWPOLYLINE
  5
23A
330
17C
100
AcDbEntity
  8
0
  6
Continuous
 62
     0
370
     0
100
AcDbPolyline
 90
        8
 70
     0
 43
0.0
 10
340.82901
 20
1053.737305
 10
344.231018
 20
1053.735229
 10
347.648315
 20
1053.736572
 10
350.983856
 20
1053.741577
 10
354.306732
 20
1053.75061
 10
357.629517
 20
1053.76416
 10
360.952148
 20
1053.782959
 10
364.837738
 20
1053.812134
  0
LINE
  5
23B
330
17C
100
AcDbEntity
  8
0
  6
Continuous
 62
     0
370
     0
100
AcDbLine
 10
364.837728
 20
1053.812117
 30
0.0
 11
364.837728
 21
1058.329834
 31
0.0
  0
LWPOLYLINE
  5
23C
330
17C
100
AcDbEntity
  8
0
  6
Continuous
 62
     0
370
     0
100
AcDbPolyline
 90
        5
 70
     0
 43
0.0
 10
364.837738
 20
1053.812134
 10
364.840332
 20
1053.43457
 10
364.841248
 20
1053.113037
 10
364.840363
 20
1052.894775
 10
364.837677
 20
1052.812134
  0
LWPOLYLINE
  5
23D
330
17C
100
AcDbEntity
  8
0
  6
Continuous
 62
     0
370
     0
100
AcDbPolyline
 90
        8
 70
     0
 43
0.0
 10
364.837677
 20
1052.812134
 10
361.526733
 20
1052.787354
 10
358.210388
 20
1052.768799
 10
354.893982
 20
1052.755737
 10
351.577606
 20
1052.747192
 10
348.256073
 20
1052.742676
 10
344.859314
 20
1052.741577
 10
340.82901
 20
1052.743896
  0
ARC
  5
23E
330
17C
100
AcDbEntity
  8
0
  6
Continuous
 62
     0
370
     0
100
AcDbCircle
 10
365.691385
 20
1053.65891
 30
0.0
 40
1.202386555385772
100
AcDbArc
 50
224.764458
 51
232.001901
  0
ARC
  5
23F
330
17C
100
AcDbEntity
  8
0
  6
Continuous
 62
     0
370
     0
100
AcDbCircle
 10
333.87364
 20
1305.258778
 30
0.0
 40
254.4523415793422
100
AcDbArc
 50
271.566354
 51
277.01533
  0
LINE
  5
240
330
17C
100
AcDbEntity
  8
0
  6
Continuous
 62
     0
370
     0
100
AcDbLine
 10
364.964577
 20
1052.701099
 30
0.0
 11
364.965587
 21
1052.700338
 31
0.0
  0
LINE
  5
241
330
17C
100
AcDbEntity
  8
0
  6
Continuous
 62
     0
370
     0
100
AcDbLine
 10
364.951148
 20
1052.711391
 30
0.0
 11
364.964577
 21
1052.701099
 31
0.0
  0
LINE
  5
242
330
17C
100
AcDbEntity
  8
0
  6
Continuous
 62
     0
370
     0
100
AcDbLine
 10
340.829001
 20
1056.070976
 30
0.0
 11
340.579001
 21
1056.070976
 31
0.0
  0
LINE
  5
243
330
17C
100
AcDbEntity
  8
0
  6
Continuous
 62
     0
370
    30
100
AcDbLine
 10
365.829001
 20
1058.438062
 30
0.0
 11
365.829001
 21
1058.32984
 31
0.0
  0
ARC
  5
244
330
17C
100
AcDbEntity
  8
0
  6
Continuous
 62
     0
370
     0
100
AcDbCircle
 10
364.82895
 20
1058.329756
 30
0.0
 40
1.000051553856846
100
AcDbArc
 50
0.004833
 51
89.499575
  0
LINE
  5
245
330
17C
100
AcDbEntity
  8
0
  6
Continuous
 62
     0
370
    30
100
AcDbLine
 10
365.829001
 20
1053.70389
 30
0.0
 11
365.829001
 21
1053.812114
 31
0.0
  0
LINE
  5
246
330
17C
100
AcDbEntity
  8
0
  6
Continuous
 62
     0
370
    30
100
AcDbLine
 10
365.829001
 20
1053.812114
 30
0.0
 11
365.829001
 21
1058.32984
 31
0.0
  0
LINE
  5
247
330
17C
100
AcDbEntity
  8
0
  6
Continuous
 62
     0
370
     0
100
AcDbLine
 10
364.837728
 20
1058.329834
 30
0.0
 11
365.829001
 21
1058.329834
 31
0.0
  0
LINE
  5
248
330
17C
100
AcDbEntity
  8
0
  6
Continuous
 62
     0
370
     0
100
AcDbLine
 10
365.829001
 20
1053.812117
 30
0.0
 11
364.837728
 21
1053.812117
 31
0.0
  0
ARC
  5
249
330
17C
100
AcDbEntity
  8
0
  6
Continuous
 62
     0
370
     0
100
AcDbCircle
 10
364.829518
 20
1053.811636
 30
0.0
 40
0.9994837268054151
100
AcDbArc
 50
270.468209
 51
0.027388
  0
ARC
  5
24A
330
17C
100
AcDbEntity
  8
0
  6
Continuous
 62
     0
370
     0
100
AcDbCircle
 10
364.828956
 20
1053.703942
 30
0.0
 40
1.000044581483428
100
AcDbArc
 50
277.018611
 51
359.996987
  0
LINE
  5
24B
330
17C
100
AcDbEntity
  8
0
  6
Continuous
 62
     0
370
     0
100
AcDbLine
 10
328.603299
 20
1024.010024
 30
0.0
 11
328.603301
 21
1056.070976
 31
0.0
  0
LINE
  5
24C
330
17C
100
AcDbEntity
  8
0
  6
Continuous
 62
     0
370
     0
100
AcDbLine
 10
328.603301
 20
1056.070976
 30
0.0
 11
328.603299
 21
1088.131929
 31
0.0
  0
LINE
  5
24D
330
17C
100
AcDbEntity
  8
0
  6
Continuous
 62
     0
370
     0
100
AcDbLine
 10
328.107029
 20
1088.570976
 30
0.0
 11
328.10703
 21
1056.070976
 31
0.0
  0
LINE
  5
24E
330
17C
100
AcDbEntity
  8
0
  6
Continuous
 62
     0
370
     0
100
AcDbLine
 10
328.10703
 20
1056.070976
 30
0.0
 11
328.107029
 21
1023.570976
 31
0.0
  0
LINE
  5
24F
330
17C
100
AcDbEntity
  8
0
  6
Continuous
 62
     0
370
     0
100
AcDbLine
 10
330.445822
 20
1048.160787
 30
0.0
 11
330.445835
 21
1056.070976
 31
0.0
  0
LINE
  5
250
330
17C
100
AcDbEntity
  8
0
  6
Continuous
 62
     0
370
     0
100
AcDbLine
 10
330.445835
 20
1056.070976
 30
0.0
 11
330.445822
 21
1063.981165
 31
0.0
  0
LINE
  5
251
330
17C
100
AcDbEntity
  8
0
  6
Continuous
 62
     0
370
    30
100
AcDbLine
 10
320.549
 20
1088.570976
 30
0.0
 11
320.549
 21
1056.070976
 31
0.0
  0
LINE
  5
252
330
17C
100
AcDbEntity
  8
0
  6
Continuous
 62
     0
370
    30
100
AcDbLine
 10
320.549
 20
1056.070976
 30
0.0
 11
320.549
 21
1023.570976
 31
0.0
  0
LWPOLYLINE
  5
253
330
17C
100
AcDbEntity
  8
0
  6
Continuous
 62
     0
370
     0
100
AcDbPolyline
 90
       12
 70
     0
 43
0.0
 10
322.428009
 20
1023.570984
 10
322.493256
 20
1023.574219
 10
322.68515
 20
1023.582764
 10
322.98645
 20
1023.594055
 10
323.374603
 20
1023.604431
 10
323.81662
 20
1023.610596
 10
324.277405
 20
1023.610657
 10
324.719635
 20
1023.604492
 10
325.108734
 20
1023.594116
 10
325.410675
 20
1023.582886
 10
325.602234
 20
1023.57428
 10
325.670013
 20
1023.570984
  0
LINE
  5
254
330
17C
100
AcDbEntity
  8
0
  6
Continuous
 62
     0
370
     0
100
AcDbLine
 10
333.444477
 20
1061.070976
 30
0.0
 11
333.444477
 21
1056.070976
 31
0.0
  0
LINE
  5
255
330
17C
100
AcDbEntity
  8
0
  6
Continuous
 62
     0
370
     0
100
AcDbLine
 10
333.444477
 20
1056.070976
 30
0.0
 11
333.444477
 21
1051.070976
 31
0.0
  0
LINE
  5
256
330
17C
100
AcDbEntity
  8
0
  6
Continuous
 62
     0
370
    30
100
AcDbLine
 10
335.829
 20
1051.070976
 30
0.0
 11
335.829
 21
1056.070976
 31
0.0
  0
LINE
  5
257
330
17C
100
AcDbEntity
  8
0
  6
Continuous
 62
     0
370
    30
100
AcDbLine
 10
335.829
 20
1056.070976
 30
0.0
 11
335.829
 21
1061.070976
 31
0.0
  0
LINE
  5
258
330
17C
100
AcDbEntity
  8
0
  6
Continuous
 62
     0
370
    30
100
AcDbLine
 10
322.428
 20
1023.570976
 30
0.0
 11
325.67
 21
1023.570976
 31
0.0
  0
ARC
  5
259
330
17C
100
AcDbEntity
  8
0
  6
Continuous
 62
     0
370
    30
100
AcDbCircle
 10
333.444478
 20
1048.070976
 30
0.0
 40
3.000000042510421
100
AcDbArc
 50
90.0
 51
178.263297
  0
ARC
  5
25A
330
17C
100
AcDbEntity
  8
0
  6
Continuous
 62
     0
370
    30
100
AcDbCircle
 10
333.444478
 20
1064.070976
 30
0.0
 40
3.000000042540353
100
AcDbArc
 50
181.736704
 51
270.0
  0
LINE
  5
25B
330
17C
100
AcDbEntity
  8
0
  6
Continuous
 62
     0
370
    30
100
AcDbLine
 10
335.829
 20
1051.070976
 30
0.0
 11
333.444477
 21
1051.070976
 31
0.0
  0
LINE
  5
25C
330
17C
100
AcDbEntity
  8
0
  6
Continuous
 62
     0
370
    30
100
AcDbLine
 10
335.829
 20
1061.070976
 30
0.0
 11
333.444477
 21
1061.070976
 31
0.0
  0
LINE
  5
25D
330
17C
100
AcDbEntity
  8
0
  6
Continuous
 62
     0
370
    30
100
AcDbLine
 10
328.107029
 20
1023.570976
 30
0.0
 11
325.67
 21
1023.570976
 31
0.0
  0
LINE
  5
25E
330
17C
100
AcDbEntity
  8
0
  6
Continuous
 62
     0
370
    30
100
AcDbLine
 10
322.428
 20
1023.570976
 30
0.0
 11
320.549
 21
1023.570976
 31
0.0
  0
LINE
  5
25F
330
17C
100
AcDbEntity
  8
0
  6
Continuous
 62
     0
370
    30
100
AcDbLine
 10
328.107029
 20
1088.570976
 30
0.0
 11
320.549
 21
1088.570976
 31
0.0
  0
LWPOLYLINE
  5
260
330
17C
100
AcDbEntity
  8
0
  6
Continuous
 62
     0
370
    30
100
AcDbPolyline
 90
       46
 70
     0
 43
0.0
 10
328.603302
 20
1088.131836
 10
328.668396
 20
1087.597534
 10
328.732361
 20
1087.06311
 10
328.795258
 20
1086.528442
 10
328.857025
 20
1085.993774
 10
328.917725
 20
1085.458862
 10
328.977325
 20
1084.923828
 10
329.035828
 20
1084.388794
 10
329.093262
 20
1083.853516
 10
329.149567
 20
1083.318237
 10
329.204773
 20
1082.782837
 10
329.258911
 20
1082.247192
 10
329.31192
 20
1081.711548
 10
329.363861
 20
1081.175781
 10
329.414703
 20
1080.639893
 10
329.464447
 20
1080.103882
 10
329.513092
 20
1079.567871
 10
329.560638
 20
1079.031616
 10
329.607086
 20
1078.495361
 10
329.652435
 20
1077.958984
 10
329.696655
 20
1077.422485
 10
329.739807
 20
1076.885986
 10
329.78186
 20
1076.349365
 10
329.822845
 20
1075.812622
 10
329.862732
 20
1075.275757
 10
329.90155
 20
1074.738892
 10
329.93924
 20
1074.201904
 10
329.9758
 20
1073.664795
 10
330.011169
 20
1073.127686
 10
330.045349
 20
1072.590576
 10
330.078491
 20
1072.053345
 10
330.11084
 20
1071.515991
 10
330.142487
 20
1070.978394
 10
330.172729
 20
1070.440918
 10
330.200623
 20
1069.903687
 10
330.226166
 20
1069.366821
 10
330.252472
 20
1068.829224
 10
330.283081
 20
1068.290039
 10
330.315399
 20
1067.749878
 10
330.336792
 20
1067.212646
 10
330.335236
 20
1066.682251
 10
330.330841
 20
1066.152222
 10
330.373444
 20
1065.6073
 10
330.496613
 20
1065.037231
 10
330.585449
 20
1064.477295
 10
330.445831
 20
1063.981079
  0
ARC
  5
261
330
17C
100
AcDbEntity
  8
0
  6
Continuous
 62
     0
370
    30
100
AcDbCircle
 10
328.106949
 20
1024.071066
 30
0.0
 40
0.500089692144815
100
AcDbArc
 50
270.009087
 51
352.988868
  0
ARC
  5
262
330
17C
100
AcDbEntity
  8
0
  6
Continuous
 62
     0
370
    30
100
AcDbCircle
 10
328.106949
 20
1088.070887
 30
0.0
 40
0.500089692247613
100
AcDbArc
 50
7.011132
 51
89.990913
  0
LINE
  5
263
330
17C
100
AcDbEntity
  8
0
  6
Continuous
 62
     0
370
    30
100
AcDbLine
 10
365.828963
 20
1053.804207
 30
0.0
 11
365.828997
 21
1053.812117
 31
0.0
  0
ARC
  5
264
330
17C
100
AcDbEntity
  8
0
  6
Continuous
 62
     0
370
    30
100
AcDbCircle
 10
364.828923
 20
1053.689399
 30
0.0
 40
1.000077725564789
100
AcDbArc
 50
277.959796
 51
359.996125
  0
ARC
  5
265
330
17C
100
AcDbEntity
  8
0
  6
Continuous
 62
     0
370
    30
100
AcDbCircle
 10
340.578964
 20
1061.221012
 30
0.0
 40
0.2500359660303
100
AcDbArc
 50
270.008236
 51
359.959348
  0
ARC
  5
266
330
17C
100
AcDbEntity
  8
0
  6
Continuous
 62
     0
370
    30
100
AcDbCircle
 10
340.578964
 20
1050.92094
 30
0.0
 40
0.2500359660544082
100
AcDbArc
 50
0.040652
 51
89.991764
  0
ARC
  5
267
330
17C
100
AcDbEntity
  8
0
  6
Continuous
 62
     0
370
    30
100
AcDbCircle
 10
332.019645
 20
1288.466902
 30
0.0
 40
238.0589831044504
100
AcDbArc
 50
272.12071
 51
277.955365
  0
ARC
  5
268
330
17C
100
AcDbEntity
  8
0
  6
Continuous
 62
     0
370
    30
100
AcDbCircle
 10
364.828923
 20
1058.452554
 30
0.0
 40
1.000077320024699
100
AcDbArc
 50
0.003864
 51
82.040204
  0
ARC
  5
269
330
17C
100
AcDbEntity
  8
0
  6
Continuous
 62
     0
370
    30
100
AcDbCircle
 10
332.019645
 20
823.675052
 30
0.0
 40
238.0589820409114
100
AcDbArc
 50
82.044626
 51
87.87929
  0
LINE
  5
26A
330
17C
100
AcDbEntity
  8
0
  6
Continuous
 62
     0
370
    30
100
AcDbLine
 10
335.829
 20
1051.170976
 30
0.0
 11
340.579
 21
1051.170976
 31
0.0
  0
LINE
  5
26B
330
17C
100
AcDbEntity
  8
0
  6
Continuous
 62
     0
370
    30
100
AcDbLine
 10
335.829
 20
1060.970976
 30
0.0
 11
340.579
 21
1060.970976
 31
0.0
  0
ENDBLK
  5
26D
330
17C
100
AcDbEntity
  8
0
100
AcDbBlockEnd
  0
BLOCK
  5
36F
330
26F
100
AcDbEntity
  8
0
100
AcDbBlockBegin
  2
d
 70
     0
 10
115.806271
 20
175.5658
 30
0.0
  3
d
  1

  0
ELLIPSE
  5
270
330
26F
100
AcDbEntity
  8
0
  6
Continuous
 62
     0
370
    30
100
AcDbEllipse
 10
352.203437
 20
262.351788
 30
0.0
 11
11.30685426018487
 21
-16.09092977788082
 31
0.0
210
0.0
220
0.0
230
1.0
 40
0.503122
 41
6.2806110886569
 42
8.470942952160758
  0
ELLIPSE
  5
271
330
26F
100
AcDbEntity
  8
0
  6
Continuous
 62
     0
370
    30
100
AcDbEllipse
 10
352.203437
 20
262.351788
 30
0.0
 11
11.30685426018487
 21
-16.09092977788082
 31
0.0
210
0.0
220
0.0
230
1.0
 40
0.503122
 41
2.187757644981174
 42
3.144166992626626
  0
ELLIPSE
  5
272
330
26F
100
AcDbEntity
  8
0
  6
Continuous
 62
     0
370
    30
100
AcDbEllipse
 10
359.501949
 20
267.480343
 30
0.0
 11
34.49581048394693
 21
-49.0914317418068
 31
0.0
210
0.0
220
0.0
230
1.0
 40
0.503122
 41
6.280611088656961
 42
8.470942952160822
  0
ELLIPSE
  5
273
330
26F
100
AcDbEntity
  8
0
  6
Continuous
 62
     0
370
    30
100
AcDbEllipse
 10
359.501949
 20
267.480343
 30
0.0
 11
34.49581048394693
 21
-49.0914317418068
 31
0.0
210
0.0
220
0.0
230
1.0
 40
0.503122
 41
2.187757644981236
 42
3.14416699262669
  0
ELLIPSE
  5
274
330
26F
100
AcDbEntity
  8
0
  6
Continuous
 62
     0
370
     0
100
AcDbEllipse
 10
352.432583
 20
262.512806
 30
0.0
 11
34.18292284375929
 21
-48.64615731526493
 31
0.0
210
0.0
220
0.0
230
0.9999999999999998
 40
0.503122
 41
5.046964922065226
 42
5.329350298571
  0
ELLIPSE
  5
275
330
26F
100
AcDbEntity
  8
0
  6
Continuous
 62
     0
370
     0
100
AcDbEllipse
 10
352.432583
 20
262.512806
 30
0.0
 11
34.18292284375929
 21
-48.64615731526493
 31
0.0
210
0.0
220
0.0
230
0.9999999999999998
 40
0.503122
 41
2.187757644981207
 42
4.3778131592184
  0
ELLIPSE
  5
276
330
26F
100
AcDbEntity
  8
0
  6
Continuous
 62
     0
370
     0
100
AcDbEllipse
 10
352.432583
 20
262.512806
 30
0.0
 11
34.18292284375929
 21
-48.64615731526493
 31
0.0
210
0.0
220
0.0
230
0.9999999999999998
 40
0.503122
 41
5.329350298571
 42
8.470942952160794
  0
ELLIPSE
  5
277
330
26F
100
AcDbEntity
  8
0
  6
Continuous
 62
     0
370
     0
100
AcDbEllipse
 10
352.784566
 20
262.760139
 30
0.0
 11
34.47165905876819
 21
-49.05706153788567
 31
0.0
210
0.0
220
0.0
230
0.9999999999999999
 40
0.503122
 41
6.268169346850645
 42
8.470942952160804
  0
ELLIPSE
  5
278
330
26F
100
AcDbEntity
  8
0
  6
Continuous
 62
     0
370
     0
100
AcDbEllipse
 10
352.784566
 20
262.760139
 30
0.0
 11
34.47165905876819
 21
-49.05706153788567
 31
0.0
210
0.0
220
0.0
230
0.9999999999999999
 40
0.503122
 41
2.187757644981218
 42
3.155053554912752
  0
ELLIPSE
  5
279
330
26F
100
AcDbEntity
  8
0
  6
Continuous
 62
     0
370
     0
100
AcDbEllipse
 10
325.582967
 20
243.645984
 30
0.0
 11
10.92367331991517
 21
-15.54562005156895
 31
0.0
210
0.0
220
0.0
230
1.0
 40
0.503122
 41
2.187757644981216
 42
5.32935029857101
  0
ELLIPSE
  5
27A
330
26F
100
AcDbEntity
  8
0
  6
Continuous
 62
     0
370
     0
100
AcDbEllipse
 10
325.582967
 20
243.645984
 30
0.0
 11
10.92367331991517
 21
-15.54562005156895
 31
0.0
210
0.0
220
0.0
230
1.0
 40
0.503122
 41
5.32935029857101
 42
8.470942952160803
  0
LWPOLYLINE
  5
27B
330
26F
100
AcDbEntity
  8
0
  6
Continuous
 62
     0
370
    30
100
AcDbPolyline
 90
       13
 70
     0
 43
0.0
 10
330.532715
 20
260.934296
 10
331.139374
 20
260.571259
 10
331.830536
 20
260.278656
 10
332.578888
 20
260.070953
 10
333.35611
 20
259.960724
 10
334.133423
 20
259.958038
 10
334.882324
 20
260.069611
 10
335.574371
 20
260.297363
 10
336.182281
 20
260.636719
 10
336.68161
 20
261.075775
 10
337.052734
 20
261.595551
 10
337.281891
 20
262.171753
 10
337.361053
 20
262.789368
  0
ELLIPSE
  5
27C
330
26F
100
AcDbEntity
  8
0
  6
Continuous
 62
     0
370
     0
100
AcDbEllipse
 10
325.93495
 20
243.893318
 30
0.0
 11
11.21240953492196
 21
-15.95652427418673
 31
0.0
210
0.0
220
0.0
230
0.9999999999999999
 40
0.503122
 41
6.274129449750338
 42
8.47094295216084
  0
ELLIPSE
  5
27D
330
26F
100
AcDbEntity
  8
0
  6
Continuous
 62
     0
370
     0
100
AcDbEllipse
 10
325.93495
 20
243.893318
 30
0.0
 11
11.21240953492196
 21
-15.95652427418673
 31
0.0
210
0.0
220
0.0
230
0.9999999999999999
 40
0.503122
 41
2.187757644981254
 42
3.148539264948434
  0
ARC
  5
27E
330
26F
100
AcDbEntity
  8
0
  6
Continuous
 62
     0
370
    30
100
AcDbCircle
 10
332.508534
 20
263.787053
 30
0.0
 40
3.470164265497446
100
AcDbArc
 50
219.512873
 51
235.293452
  0
LWPOLYLINE
  5
27F
330
26F
100
AcDbEntity
  8
0
  6
Continuous
 62
     0
370
    30
100
AcDbPolyline
 90
        4
 70
     0
 43
0.0
 10
329.361237
 20
262.789551
 10
329.402802
 20
262.423737
 10
329.526978
 20
262.062439
 10
329.83136
 20
261.579163
  0
ELLIPSE
  5
280
330
26F
100
AcDbEntity
  8
0
  6
Continuous
 62
     0
370
     0
100
AcDbEllipse
 10
333.361142
 20
267.884314
 30
0.0
 11
4.0
 21
0.0
 31
0.0
210
0.0
220
0.0
230
-1.0
 40
0.707107
 41
2.651828698699818
 42
3.158681405645726
  0
ELLIPSE
  5
281
330
26F
100
AcDbEntity
  8
0
  6
Continuous
 62
     0
370
     0
100
AcDbEllipse
 10
333.361142
 20
267.884314
 30
0.0
 11
4.0
 21
0.0
 31
0.0
210
0.0
220
0.0
230
-1.0
 40
0.707107
 41
6.260148506565435
 42
8.935014005879404
  0
ELLIPSE
  5
282
330
26F
100
AcDbEntity
  8
0
  6
Continuous
 62
     0
370
     0
100
AcDbEllipse
 10
333.361142
 20
268.237867
 30
0.0
 11
3.5
 21
0.0
 31
0.0
210
0.0
220
0.0
230
-1.0
 40
0.707107
 41
5.793421352289611
 42
8.935014005879403
  0
ELLIPSE
  5
283
330
26F
100
AcDbEntity
  8
0
  6
Continuous
 62
     0
370
     0
100
AcDbEllipse
 10
333.361142
 20
268.237867
 30
0.0
 11
3.5
 21
0.0
 31
0.0
210
0.0
220
0.0
230
-1.0
 40
0.707107
 41
2.651828698699818
 42
5.793421352289611
  0
LWPOLYLINE
  5
284
330
26F
100
AcDbEntity
  8
0
  6
Continuous
 62
     0
370
    30
100
AcDbPolyline
 90
       18
 70
     0
 43
0.0
 10
329.361206
 20
267.884186
 10
329.433105
 20
268.450653
 10
329.644989
 20
268.99176
 10
329.982727
 20
269.485352
 10
330.431519
 20
269.917816
 10
330.974701
 20
270.277832
 10
331.593933
 20
270.556549
 10
332.26947
 20
270.747467
 10
332.979828
 20
270.845612
 10
333.702423
 20
270.848358
 10
334.414124
 20
270.755554
 10
335.092041
 20
270.569641
 10
335.714905
 20
270.29538
 10
336.262817
 20
269.939423
 10
336.717712
 20
269.511108
 10
337.062012
 20
269.020538
 10
337.280762
 20
268.481842
 10
337.360992
 20
267.885742
  0
LINE
  5
285
330
26F
100
AcDbEntity
  8
0
  6
Continuous
 62
     0
370
    30
100
AcDbLine
 10
329.361142
 20
267.884314
 30
0.0
 11
329.361142
 21
262.788745
 31
0.0
  0
LINE
  5
286
330
26F
100
AcDbEntity
  8
0
  6
Continuous
 62
     0
370
    30
100
AcDbLine
 10
337.361142
 20
267.884314
 30
0.0
 11
337.361142
 21
262.788958
 31
0.0
  0
LWPOLYLINE
  5
287
330
26F
100
AcDbEntity
  8
0
  6
Continuous
 62
     0
370
    30
100
AcDbPolyline
 90
       26
 70
     0
 43
0.0
 10
318.027679
 20
262.197754
 10
316.863342
 20
264.75946
 10
315.785858
 20
267.316132
 10
314.797791
 20
269.861664
 10
313.90155
 20
272.389893
 10
313.099457
 20
274.894684
 10
312.393463
 20
277.370087
 10
311.785156
 20
279.810181
 10
311.276031
 20
282.209167
 10
310.867584
 20
284.561249
 10
310.560822
 20
286.86084
 10
310.356415
 20
289.1026
 10
310.254944
 20
291.281219
 10
310.256989
 20
293.391541
 10
310.362762
 20
295.428558
 10
310.572205
 20
297.387665
 10
310.884918
 20
299.264282
 10
311.300476
 20
301.053894
 10
311.818359
 20
302.752045
 10
312.437744
 20
304.354401
 10
313.157471
 20
305.856995
 10
313.976227
 20
307.255859
 10
314.892517
 20
308.547241
 10
315.904083
 20
309.727295
 10
317.008148
 20
310.792114
 10
318.246674
 20
311.770203
  0
LWPOLYLINE
  5
288
330
26F
100
AcDbEntity
  8
0
  6
Continuous
 62
     0
370
    30
100
AcDbPolyline
 90
       26
 70
     0
 43
0.0
 10
387.19397
 20
213.659637
 10
385.903107
 20
212.852951
 10
384.530243
 20
212.169983
 10
383.080078
 20
211.61293
 10
381.557281
 20
211.183319
 10
379.966187
 20
210.882065
 10
378.310944
 20
210.708984
 10
376.595642
 20
210.664047
 10
374.824463
 20
210.747208
 10
373.001709
 20
210.95784
 10
371.131744
 20
211.2948
 10
369.218994
 20
211.756882
 10
367.267822
 20
212.342896
 10
365.282715
 20
213.051437
 10
363.268311
 20
213.880524
 10
361.229218
 20
214.828064
 10
359.170135
 20
215.891846
 10
357.095917
 20
217.069107
 10
355.011536
 20
218.356842
 10
352.921906
 20
219.752075
 10
350.832001
 20
221.251617
 10
348.746765
 20
222.851639
 10
346.671204
 20
224.54808
 10
344.610321
 20
226.336899
 10
342.569061
 20
228.214005
 10
340.476532
 20
230.250717
  0
LWPOLYLINE
  5
289
330
26F
100
AcDbEntity
  8
0
  6
Continuous
 62
     0
370
    30
100
AcDbPolyline
 90
       37
 70
     0
 43
0.0
 10
337.127106
 20
227.922668
 10
336.336212
 20
227.46788
 10
335.465363
 20
227.145432
 10
334.526642
 20
226.958069
 10
333.529053
 20
226.904709
 10
332.480408
 20
226.983185
 10
331.388397
 20
227.190979
 10
330.260284
 20
227.524918
 10
329.103302
 20
227.981567
 10
327.924805
 20
228.557053
 10
326.732666
 20
229.246872
 10
325.535156
 20
230.045776
 10
324.340729
 20
230.947479
 10
323.157928
 20
231.945572
 10
321.99527
 20
233.032578
 10
320.861267
 20
234.20015
 10
319.764435
 20
235.439819
 10
318.71286
 20
236.742203
 10
317.714325
 20
238.097397
 10
316.776489
 20
239.495407
 10
315.906281
 20
240.925659
 10
315.110199
 20
242.37738
 10
314.394531
 20
243.839813
 10
313.764252
 20
245.302155
 10
313.224152
 20
246.753616
 10
312.778687
 20
248.183533
 10
312.431122
 20
249.581558
 10
312.184357
 20
250.937576
 10
312.040466
 20
252.242279
 10
312.000824
 20
253.487
 10
312.066864
 20
254.663101
 10
312.239441
 20
255.762436
 10
312.519043
 20
256.777252
 10
312.905396
 20
257.699554
 10
313.397736
 20
258.521118
 10
313.994202
 20
259.233276
 10
314.701477
 20
259.83493
  0
LINE
  5
28A
330
26F
100
AcDbEntity
  8
0
  6
Continuous
 62
     0
370
    30
100
AcDbLine
 10
363.489414
 20
246.246268
 30
0.0
 11
337.126657
 21
227.922325
 31
0.0
  0
LINE
  5
28B
330
26F
100
AcDbEntity
  8
0
  6
Continuous
 62
     0
370
    30
100
AcDbLine
 10
340.875779
 20
278.42802
 30
0.0
 11
314.701911
 21
259.835267
 31
0.0
  0
LINE
  5
28C
330
26F
100
AcDbEntity
  8
0
  6
Continuous
 62
     0
370
    30
100
AcDbLine
 10
393.934065
 20
218.344397
 30
0.0
 11
387.193999
 21
213.659584
 31
0.0
  0
LINE
  5
28D
330
26F
100
AcDbEntity
  8
0
  6
Continuous
 62
     0
370
    30
100
AcDbLine
 10
324.94267
 20
316.526933
 30
0.0
 11
318.249482
 21
311.77239
 31
0.0
  0
LINE
  5
28E
330
26F
100
AcDbEntity
  8
0
  6
Continuous
 62
     0
370
     0
100
AcDbLine
 10
352.162181
 20
363.456356
 30
0.0
 11
351.060982
 21
362.677691
 31
0.0
  0
ELLIPSE
  5
28F
330
26F
100
AcDbEntity
  8
0
  6
Continuous
 62
     0
370
    30
100
AcDbEllipse
 10
348.697358
 20
365.906356
 30
0.0
 11
-2.829016382379727
 21
4.000833201750247
 31
0.0
210
0.0
220
0.0
230
-0.9999999999999998
 40
0.5
 41
6.28318524711185
 42
8.809298240875883
  0
ELLIPSE
  5
290
330
26F
100
AcDbEntity
  8
0
  6
Continuous
 62
     0
370
    30
100
AcDbEllipse
 10
348.697358
 20
365.906356
 30
0.0
 11
-2.829016382379727
 21
4.000833201750247
 31
0.0
210
0.0
220
0.0
230
-0.9999999999999998
 40
0.5
 41
2.526112933696297
 42
3.018220053588523
  0
LWPOLYLINE
  5
291
330
26F
100
AcDbEntity
  8
0
  6
Continuous
 62
     0
370
     0
100
AcDbPolyline
 90
        5
 70
     0
 43
0.0
 10
332.143829
 20
350.864899
 10
336.014618
 20
354.025726
 10
339.892731
 20
357.109955
 10
343.776245
 20
360.116028
 10
349.220428
 20
364.191833
  0
LWPOLYLINE
  5
292
330
26F
100
AcDbEntity
  8
0
  6
Continuous
 62
     0
370
    30
100
AcDbPolyline
 90
        5
 70
     0
 43
0.0
 10
349.220428
 20
364.191833
 10
347.293549
 20
365.723755
 10
345.364441
 20
367.151611
 10
343.43512
 20
368.474243
 10
341.10321
 20
369.93158
  0
LWPOLYLINE
  5
293
330
26F
100
AcDbEntity
  8
0
  6
Continuous
 62
     0
370
     0
100
AcDbPolyline
 90
        5
 70
     0
 43
0.0
 10
341.10321
 20
369.93158
 10
337.19928
 20
367.018555
 10
333.300659
 20
364.022583
 10
329.409302
 20
360.94519
 10
324.065948
 20
356.576813
  0
ARC
  5
294
330
26F
100
AcDbEntity
  8
0
  6
Continuous
 62
     0
370
     0
100
AcDbCircle
 10
1480.944235
 20
1984.080805
 30
0.0
 40
1996.781551056278
100
AcDbArc
 50
234.593652
 51
234.877532
  0
LWPOLYLINE
  5
295
330
26F
100
AcDbEntity
  8
0
  6
Continuous
 62
     0
370
     0
100
AcDbPolyline
 90
        3
 70
     0
 43
0.0
 10
343.29425
 20
343.022552
 10
345.408569
 20
344.483551
 10
360.493958
 20
354.917511
  0
LINE
  5
296
330
26F
100
AcDbEntity
  8
0
  6
Continuous
 62
     0
370
    30
100
AcDbLine
 10
360.493967
 20
354.9175
 30
0.0
 11
349.220434
 21
364.191846
 31
0.0
  0
LINE
  5
297
330
26F
100
AcDbEntity
  8
0
  6
Continuous
 62
     0
370
     0
100
AcDbLine
 10
332.143824
 20
350.864904
 30
0.0
 11
343.294248
 21
343.022556
 31
0.0
  0
LWPOLYLINE
  5
298
330
26F
100
AcDbEntity
  8
0
  6
Continuous
 62
     0
370
    30
100
AcDbPolyline
 90
        3
 70
     0
 43
0.0
 10
360.986511
 20
350.153076
 10
361.064087
 20
350.236176
 10
361.119934
 20
350.472107
  0
LWPOLYLINE
  5
299
330
26F
100
AcDbEntity
  8
0
  6
Continuous
 62
     0
370
    30
100
AcDbPolyline
 90
        4
 70
     0
 43
0.0
 10
329.829681
 20
376.600433
 10
329.675323
 20
376.673859
 10
329.532776
 20
376.705475
 10
329.329895
 20
376.654541
  0
LINE
  5
29A
330
26F
100
AcDbEntity
  8
0
  6
Continuous
 62
     0
370
    30
100
AcDbLine
 10
341.103213
 20
369.931588
 30
0.0
 11
329.829681
 21
376.600423
 31
0.0
  0
LWPOLYLINE
  5
29B
330
26F
100
AcDbEntity
  8
0
  6
Continuous
 62
     0
370
    30
100
AcDbPolyline
 90
        5
 70
     0
 43
0.0
 10
361.119934
 20
353.77243
 10
361.079163
 20
354.037842
 10
360.961639
 20
354.3302
 10
360.780884
 20
354.615906
 10
360.493958
 20
354.917511
  0
LINE
  5
29C
330
26F
100
AcDbEntity
  8
0
  6
Continuous
 62
     0
370
    30
100
AcDbLine
 10
361.119931
 20
350.472107
 30
0.0
 11
361.119931
 21
353.772434
 31
0.0
  0
ARC
  5
29D
330
26F
100
AcDbEntity
  8
0
  6
Continuous
 62
     0
370
     0
100
AcDbCircle
 10
1162.374441
 20
-783.324807
 30
0.0
 40
1427.780557151097
100
AcDbArc
 50
125.669169
 51
126.5011
  0
LINE
  5
29E
330
26F
100
AcDbEntity
  8
0
  6
Continuous
 62
     0
370
     0
100
AcDbLine
 10
313.075996
 20
364.390084
 30
0.0
 11
324.065948
 21
356.576825
 31
0.0
  0
ARC
  5
29F
330
26F
100
AcDbEntity
  8
0
  6
Continuous
 62
     0
370
     0
100
AcDbCircle
 10
-511.320909
 20
-833.669752
 30
0.0
 40
1452.86171452881
100
AcDbArc
 50
54.540714
 51
54.930525
  0
LWPOLYLINE
  5
2A0
330
26F
100
AcDbEntity
  8
0
  6
Continuous
 62
     0
370
     0
100
AcDbPolyline
 90
        5
 70
     0
 43
0.0
 10
332.143829
 20
350.864899
 10
331.914764
 20
350.634521
 10
331.721558
 20
350.358368
 10
331.585938
 20
350.067383
 10
331.51947
 20
349.726746
  0
LWPOLYLINE
  5
2A1
330
26F
100
AcDbEntity
  8
0
  6
Continuous
 62
     0
370
     0
100
AcDbPolyline
 90
        5
 70
     0
 43
0.0
 10
323.448822
 20
355.433563
 10
323.488068
 20
355.698425
 10
323.603027
 20
355.989441
 10
323.780823
 20
356.273895
 10
324.065948
 20
356.576813
  0
LWPOLYLINE
  5
2A2
330
26F
100
AcDbEntity
  8
0
  6
Continuous
 62
     0
370
     0
100
AcDbPolyline
 90
        5
 70
     0
 43
0.0
 10
343.995056
 20
341.819916
 10
343.944031
 20
342.112671
 10
343.80249
 20
342.434845
 10
343.59021
 20
342.741669
 10
343.29425
 20
343.022552
  0
ARC
  5
2A3
330
26F
100
AcDbEntity
  8
0
  6
Continuous
 62
     0
370
     0
100
AcDbCircle
 10
2227.996798
 20
-2339.227595
 30
0.0
 40
3276.809178392
100
AcDbArc
 50
124.730982
 51
125.096138
  0
ARC
  5
2A4
330
26F
100
AcDbEntity
  8
0
  6
Continuous
 62
     0
370
     0
100
AcDbCircle
 10
-2895.234685
 20
-4181.101336
 30
0.0
 40
5562.40464440928
100
AcDbArc
 50
54.402303
 51
54.542383
  0
LWPOLYLINE
  5
2A5
330
26F
100
AcDbEntity
  8
0
  6
Continuous
 62
     0
370
     0
100
AcDbPolyline
 90
        5
 70
     0
 43
0.0
 10
343.29425
 20
343.022552
 10
343.03479
 20
342.788208
 10
342.811554
 20
342.489166
 10
342.655579
 20
342.167114
 10
342.587036
 20
341.824249
  0
LINE
  5
2A6
330
26F
100
AcDbEntity
  8
0
  6
Continuous
 62
     0
370
     0
100
AcDbLine
 10
343.995044
 20
338.625413
 30
0.0
 11
343.995044
 21
341.819921
 31
0.0
  0
ARC
  5
2A7
330
26F
100
AcDbEntity
  8
0
  6
Continuous
 62
     0
370
     0
100
AcDbCircle
 10
-1495.478854
 20
3015.961987
 30
0.0
 40
3248.352713525129
100
AcDbArc
 50
304.491154
 51
304.858443
  0
LWPOLYLINE
  5
2A8
330
26F
100
AcDbEntity
  8
0
  6
Continuous
 62
     0
370
     0
100
AcDbPolyline
 90
        4
 70
     0
 43
0.0
 10
312.49115
 20
364.484802
 10
312.626221
 20
364.539948
 10
312.799133
 20
364.524872
 10
313.075989
 20
364.390076
  0
LWPOLYLINE
  5
2A9
330
26F
100
AcDbEntity
  8
0
  6
Continuous
 62
     0
370
     0
100
AcDbPolyline
 90
        3
 70
     0
 43
0.0
 10
343.995056
 20
338.625427
 10
343.975098
 20
338.476074
 10
343.856506
 20
338.302917
  0
ARC
  5
2AA
330
26F
100
AcDbEntity
  8
0
  6
Continuous
 62
     0
370
     0
100
AcDbCircle
 10
-2824.471698
 20
-4128.581695
 30
0.0
 40
5478.667384244704
100
AcDbArc
 50
54.929931
 51
55.071228
  0
LWPOLYLINE
  5
2AB
330
26F
100
AcDbEntity
  8
0
  6
Continuous
 62
     0
370
     0
100
AcDbPolyline
 90
        5
 70
     0
 43
0.0
 10
312.381287
 20
363.182953
 10
312.428284
 20
363.478882
 10
312.567383
 20
363.803223
 10
312.779083
 20
364.11084
 10
313.075989
 20
364.390106
  0
ARC
  5
2AC
330
26F
100
AcDbEntity
  8
0
  6
Continuous
 62
     0
370
     0
100
AcDbCircle
 10
3563.646127
 20
4901.743587
 30
0.0
 40
5585.54051801117
100
AcDbArc
 50
234.402606
 51
234.542106
  0
ARC
  5
2AD
330
26F
100
AcDbEntity
  8
0
  6
Continuous
 62
     0
370
     0
100
AcDbCircle
 10
1166.225179
 20
1535.390912
 30
0.0
 40
1452.749990482334
100
AcDbArc
 50
234.540677
 51
234.930516
  0
ARC
  5
2AE
330
26F
100
AcDbEntity
  8
0
  6
Continuous
 62
     0
370
     0
100
AcDbCircle
 10
3479.338502
 20
4830.254051
 30
0.0
 40
5478.494189345947
100
AcDbArc
 50
234.929956
 51
235.071257
  0
LINE
  5
2AF
330
26F
100
AcDbEntity
  8
0
  6
Continuous
 62
     0
370
     0
100
AcDbLine
 10
342.587028
 20
341.824264
 30
0.0
 11
342.587028
 21
338.629759
 31
0.0
  0
LINE
  5
2B0
330
26F
100
AcDbEntity
  8
0
  6
Continuous
 62
     0
370
     0
100
AcDbLine
 10
312.381281
 20
359.988444
 30
0.0
 11
312.381281
 21
363.182958
 31
0.0
  0
ELLIPSE
  5
2B1
330
26F
100
AcDbEntity
  8
0
  6
Continuous
 62
     0
370
     0
100
AcDbEllipse
 10
343.294135
 20
339.129758
 30
0.0
 11
0.9999999999999992
 21
4.289181336230542E-8
 31
0.0
210
0.0
220
0.0
230
-1.0
 40
0.707107
 41
0.7941248399878121
 42
2.356194520521343
  0
ELLIPSE
  5
2B2
330
26F
100
AcDbEntity
  8
0
  6
Continuous
 62
     0
370
     0
100
AcDbEllipse
 10
343.294135
 20
342.324266
 30
0.0
 11
-0.9999999999999992
 21
-4.289181336230542E-8
 31
0.0
210
0.0
220
0.0
230
1.0
 40
0.707107
 41
0.7853988038683832
 42
2.347467813601896
  0
ELLIPSE
  5
2B3
330
26F
100
AcDbEntity
  8
0
  6
Continuous
 62
     0
370
     0
100
AcDbEllipse
 10
313.088387
 20
363.682954
 30
0.0
 11
-0.9999999999999991
 21
-4.289181298739870E-8
 31
0.0
210
0.0
220
0.0
230
1.0
 40
0.707107
 41
6.283185286277921
 42
7.068586581147988
  0
ELLIPSE
  5
2B4
330
26F
100
AcDbEntity
  8
0
  6
Continuous
 62
     0
370
     0
100
AcDbEllipse
 10
313.088387
 20
360.488446
 30
0.0
 11
0.9999999999999991
 21
4.289181298739870E-8
 31
0.0
210
0.0
220
0.0
230
-1.0
 40
0.707107
 41
2.356182033021375
 42
3.14159267449145
  0
LWPOLYLINE
  5
2B5
330
26F
100
AcDbEntity
  8
0
  6
Continuous
 62
     0
370
     0
100
AcDbPolyline
 90
        3
 70
     0
 43
0.0
 10
312.381287
 20
359.988434
 10
312.399139
 20
359.839661
 10
312.51358
 20
359.670135
  0
LWPOLYLINE
  5
2B6
330
26F
100
AcDbEntity
  8
0
  6
Continuous
 62
     0
370
     0
100
AcDbPolyline
 90
        3
 70
     0
 43
0.0
 10
323.575958
 20
351.771362
 10
323.503265
 20
351.851013
 10
323.448822
 20
352.085968
  0
LWPOLYLINE
  5
2B7
330
26F
100
AcDbEntity
  8
0
  6
Continuous
 62
     0
370
     0
100
AcDbPolyline
 90
        3
 70
     0
 43
0.0
 10
331.652191
 20
346.060638
 10
331.576996
 20
346.142029
 10
331.51947
 20
346.379181
  0
LWPOLYLINE
  5
2B8
330
26F
100
AcDbEntity
  8
0
  6
Continuous
 62
     0
370
     0
100
AcDbPolyline
 90
        3
 70
     0
 43
0.0
 10
342.732849
 20
338.30246
 10
342.645294
 20
338.392059
 10
342.587036
 20
338.629761
  0
LWPOLYLINE
  5
2B9
330
26F
100
AcDbEntity
  8
0
  6
Continuous
 62
     0
370
     0
100
AcDbPolyline
 90
        7
 70
     0
 43
0.0
 10
333.214355
 20
374.598236
 10
332.559082
 20
376.638428
 10
332.032013
 20
378.606323
 10
331.631012
 20
380.489014
 10
331.352081
 20
382.275848
 10
331.189453
 20
383.958679
 10
331.136169
 20
385.549683
  0
LWPOLYLINE
  5
2BA
330
26F
100
AcDbEntity
  8
0
  6
Continuous
 62
     0
370
     0
100
AcDbPolyline
 90
       24
 70
     0
 43
0.0
 10
376.477203
 20
353.488739
 10
376.436676
 20
352.162018
 10
376.311371
 20
350.868835
 10
376.096344
 20
349.619904
 10
375.787323
 20
348.426392
 10
375.381042
 20
347.299652
 10
374.875275
 20
346.250824
 10
374.269043
 20
345.290802
 10
373.562775
 20
344.429749
 10
372.758301
 20
343.676971
 10
371.858978
 20
343.040558
 10
370.869568
 20
342.5271
 10
369.796234
 20
342.141602
 10
368.646423
 20
341.887238
 10
367.42865
 20
341.765381
 10
366.152344
 20
341.775391
 10
364.827515
 20
341.914856
 10
363.46463
 20
342.179626
 10
362.074249
 20
342.563934
 10
360.666901
 20
343.060669
 10
359.252686
 20
343.661652
 10
357.841187
 20
344.357758
 10
356.441376
 20
345.139313
 10
355.031403
 20
346.015808
  0
LWPOLYLINE
  5
2BB
330
26F
100
AcDbEntity
  8
0
  6
Continuous
 62
     0
370
     0
100
AcDbPolyline
 90
       48
 70
     0
 43
0.0
 10
331.136169
 20
385.549683
 10
331.178223
 20
386.900055
 10
331.308197
 20
388.215515
 10
331.531342
 20
389.48468
 10
331.852112
 20
390.69574
 10
332.273895
 20
391.836823
 10
332.79895
 20
392.896057
 10
333.428131
 20
393.862091
 10
334.160797
 20
394.724274
 10
334.994873
 20
395.472961
 10
335.926544
 20
396.099823
 10
336.950531
 20
396.598206
 10
338.060028
 20
396.963135
 10
339.247009
 20
397.191681
 10
340.502197
 20
397.282898
 10
341.815491
 20
397.237885
 10
343.176117
 20
397.059723
 10
344.573059
 20
396.753265
 10
345.995117
 20
396.325012
 10
347.431335
 20
395.782898
 10
348.871155
 20
395.135895
 10
350.304749
 20
394.39386
 10
351.722961
 20
393.567169
 10
353.117645
 20
392.666473
 10
354.490082
 20
391.696198
 10
355.884644
 20
390.624969
 10
357.302795
 20
389.446411
 10
358.736328
 20
388.161499
 10
360.176147
 20
386.772675
 10
361.612396
 20
385.284088
 10
363.034546
 20
383.70163
 10
364.43158
 20
382.032867
 10
365.792419
 20
380.287079
 10
367.105927
 20
378.475067
 10
368.361359
 20
376.608917
 10
369.548645
 20
374.701904
 10
370.658478
 20
372.767944
 10
371.682831
 20
370.821472
 10
372.614899
 20
368.876984
 10
373.449371
 20
366.948669
 10
374.182465
 20
365.050171
 10
374.812073
 20
363.194153
 10
375.337555
 20
361.39212
 10
375.759766
 20
359.654297
 10
376.080933
 20
357.989288
 10
376.304474
 20
356.404205
 10
376.434814
 20
354.904572
 10
376.477203
 20
353.488739
  0
LWPOLYLINE
  5
2BC
330
26F
100
AcDbEntity
  8
0
  6
Continuous
 62
     0
370
     0
100
AcDbPolyline
 90
       39
 70
     0
 43
0.0
 10
377.13858
 20
353.517334
 10
377.09671
 20
354.933441
 10
376.967346
 20
356.438599
 10
376.74527
 20
358.028961
 10
376.426117
 20
359.699127
 10
376.006439
 20
361.442108
 10
375.484009
 20
363.249451
 10
374.85788
 20
365.111206
 10
374.128601
 20
367.016083
 10
373.298157
 20
368.951569
 10
372.370178
 20
370.904388
 10
371.349731
 20
372.860474
 10
370.243378
 20
374.805603
 10
369.05899
 20
376.725464
 10
367.805573
 20
378.606201
 10
366.492981
 20
380.434692
 10
365.131775
 20
382.198822
 10
363.73288
 20
383.887726
 10
362.307312
 20
385.492004
 10
360.865906
 20
387.003937
 10
359.419189
 20
388.417389
 10
357.97699
 20
389.727997
 10
356.548492
 20
390.933014
 10
355.141907
 20
392.031219
 10
353.761688
 20
393.024841
 10
352.366669
 20
393.944824
 10
350.946503
 20
394.793457
 10
349.509064
 20
395.560272
 10
348.06308
 20
396.234924
 10
346.618164
 20
396.807556
 10
345.18457
 20
397.269012
 10
343.77301
 20
397.611206
 10
342.39447
 20
397.827301
 10
341.059967
 20
397.912018
 10
339.780182
 20
397.861755
 10
338.565338
 20
397.674866
 10
337.424866
 20
397.351654
 10
336.367065
 20
396.894379
 10
335.393738
 20
396.303467
  0
LWPOLYLINE
  5
2BD
330
26F
100
AcDbEntity
  8
0
  6
Continuous
 62
     0
370
     0
100
AcDbPolyline
 90
       11
 70
     0
 43
0.0
 10
372.921509
 20
343.231201
 10
373.738678
 20
343.891998
 10
374.468964
 20
344.65451
 10
375.110077
 20
345.511414
 10
375.660858
 20
346.454498
 10
376.121338
 20
347.475006
 10
376.492584
 20
348.563568
 10
376.776642
 20
349.710663
 10
376.97641
 20
350.906708
 10
377.095581
 20
352.142273
 10
377.13858
 20
353.517334
  0
LWPOLYLINE
  5
2BE
330
26F
100
AcDbEntity
  8
0
  6
Continuous
 62
     0
370
     0
100
AcDbPolyline
 90
        3
 70
     0
 43
0.0
 10
347.115784
 20
370.911743
 10
346.97229
 20
371.678802
 10
346.910767
 20
372.552826
  0
LWPOLYLINE
  5
2BF
330
26F
100
AcDbEntity
  8
0
  6
Continuous
 62
     0
370
     0
100
AcDbPolyline
 90
       12
 70
     0
 43
0.0
 10
358.096893
 20
364.643066
 10
358.045654
 20
363.918762
 10
357.887787
 20
363.280487
 10
357.63208
 20
362.742065
 10
357.284119
 20
362.311371
 10
356.844696
 20
361.999695
 10
356.322205
 20
361.81308
 10
355.731537
 20
361.748718
 10
355.081604
 20
361.810852
 10
354.382751
 20
362.001038
 10
353.64917
 20
362.313904
 10
352.888367
 20
362.746124
  0
LWPOLYLINE
  5
2C0
330
26F
100
AcDbEntity
  8
0
  6
Continuous
 62
     0
370
     0
100
AcDbPolyline
 90
       24
 70
     0
 43
0.0
 10
346.910767
 20
372.552826
 10
346.962128
 20
373.277618
 10
347.120087
 20
373.916168
 10
347.376129
 20
374.454773
 10
347.724701
 20
374.885559
 10
348.164673
 20
375.197083
 10
348.687622
 20
375.38324
 10
349.279053
 20
375.447144
 10
349.929779
 20
375.384369
 10
350.629303
 20
375.193298
 10
351.363556
 20
374.879456
 10
352.118774
 20
374.450073
 10
352.881073
 20
373.911591
 10
353.636414
 20
373.273865
 10
354.370972
 20
372.550171
 10
355.070953
 20
371.752625
 10
355.722168
 20
370.895721
 10
356.314178
 20
369.995819
 10
356.838074
 20
369.07016
 10
357.278992
 20
368.136414
 10
357.628326
 20
367.212555
 10
357.885345
 20
366.311554
 10
358.044495
 20
365.449005
 10
358.096893
 20
364.643066
  0
ELLIPSE
  5
2C1
330
26F
100
AcDbEntity
  8
0
  6
Continuous
 62
     0
370
    30
100
AcDbEllipse
 10
359.501949
 20
373.546356
 30
0.0
 11
18.76388416884513
 21
-26.53613858303735
 31
0.0
210
0.0
220
0.0
230
1.0
 40
0.5
 41
0.6154796770017041
 42
3.141592713657523
  0
ELLIPSE
  5
2C2
330
26F
100
AcDbEntity
  8
0
  6
Continuous
 62
     0
370
    30
100
AcDbEllipse
 10
359.501949
 20
373.546356
 30
0.0
 11
18.76388416884513
 21
-26.53613858303735
 31
0.0
210
0.0
220
0.0
230
1.0
 40
0.5
 41
0.0000000600677303
 42
0.6154796770017041
  0
ELLIPSE
  5
2C3
330
26F
100
AcDbEntity
  8
0
  6
Continuous
 62
     0
370
     0
100
AcDbEllipse
 10
350.38347
 20
367.098618
 30
0.0
 11
2.886751410591557
 21
-4.082482858928822
 31
0.0
210
0.0
220
0.0
230
0.9999999999999998
 40
0.5
 41
0.6154796770017059
 42
3.141592713657527
  0
ELLIPSE
  5
2C4
330
26F
100
AcDbEntity
  8
0
  6
Continuous
 62
     0
370
     0
100
AcDbEllipse
 10
350.38347
 20
367.098618
 30
0.0
 11
2.886751410591557
 21
-4.082482858928822
 31
0.0
210
0.0
220
0.0
230
0.9999999999999998
 40
0.5
 41
0.0000000562002782
 42
0.6154796770017059
  0
ELLIPSE
  5
2C5
330
26F
100
AcDbEntity
  8
0
  6
Continuous
 62
     0
370
    30
100
AcDbEllipse
 10
348.697358
 20
365.906356
 30
0.0
 11
-2.886751410591557
 21
4.082482858928822
 31
0.0
210
0.0
220
0.0
230
-0.9999999999999998
 40
0.5
 41
2.526112976588089
 42
3.010312230459612
  0
ELLIPSE
  5
2C6
330
26F
100
AcDbEntity
  8
0
  6
Continuous
 62
     0
370
    30
100
AcDbEllipse
 10
348.697358
 20
365.906356
 30
0.0
 11
-2.886751410591557
 21
4.082482858928822
 31
0.0
210
0.0
220
0.0
230
-0.9999999999999998
 40
0.5
 41
6.082850404788763
 42
8.809298283767676
  0
LWPOLYLINE
  5
2C7
330
26F
100
AcDbEntity
  8
0
  6
Continuous
 62
     0
370
    30
100
AcDbPolyline
 90
        4
 70
     0
 43
0.0
 10
347.768829
 20
371.487915
 10
347.745026
 20
371.441284
 10
347.663971
 20
371.330933
 10
347.496735
 20
371.181091
  0
LWPOLYLINE
  5
2C8
330
26F
100
AcDbEntity
  8
0
  6
Continuous
 62
     0
370
    30
100
AcDbPolyline
 90
        4
 70
     0
 43
0.0
 10
353.270233
 20
363.016144
 10
353.434723
 20
363.110138
 10
353.576172
 20
363.158691
 10
353.650177
 20
363.17038
  0
LINE
  5
2C9
330
26F
100
AcDbEntity
  8
0
  6
Continuous
 62
     0
370
    30
100
AcDbLine
 10
351.860921
 20
362.019609
 30
0.0
 11
353.270222
 21
363.016135
 31
0.0
  0
LINE
  5
2CA
330
26F
100
AcDbEntity
  8
0
  6
Continuous
 62
     0
370
    30
100
AcDbLine
 10
345.810606
 20
369.988839
 30
0.0
 11
347.496718
 21
371.1811
 31
0.0
  0
LINE
  5
2CB
330
26F
100
AcDbEntity
  8
0
  6
Continuous
 62
     0
370
    30
100
AcDbLine
 10
372.921501
 20
343.231204
 30
0.0
 11
378.265834
 21
347.010218
 31
0.0
  0
LINE
  5
2CC
330
26F
100
AcDbEntity
  8
0
  6
Continuous
 62
     0
370
    30
100
AcDbLine
 10
335.393731
 20
396.30348
 30
0.0
 11
340.738064
 21
400.082494
 31
0.0
  0
LWPOLYLINE
  5
2CD
330
26F
100
AcDbEntity
  8
0
  6
Continuous
 62
     0
370
    30
100
AcDbPolyline
 90
       15
 70
     0
 43
0.0
 10
354.974823
 20
345.976593
 10
356.453278
 20
345.050476
 10
357.922607
 20
344.226501
 10
359.377106
 20
343.507996
 10
360.811157
 20
342.897949
 10
362.219238
 20
342.399078
 10
363.596039
 20
342.013763
 10
364.936401
 20
341.743896
 10
366.235229
 20
341.591217
 10
367.487457
 20
341.557281
 10
368.687988
 20
341.643372
 10
369.83136
 20
341.849792
 10
370.911896
 20
342.176697
 10
371.923828
 20
342.623779
 10
372.921509
 20
343.231201
  0
LWPOLYLINE
  5
2CE
330
26F
100
AcDbEntity
  8
0
  6
Continuous
 62
     0
370
    30
100
AcDbPolyline
 90
       17
 70
     0
 43
0.0
 10
335.393738
 20
396.303467
 10
334.533539
 20
395.607208
 10
333.761139
 20
394.797913
 10
333.081146
 20
393.881073
 10
332.495972
 20
392.862274
 10
332.007568
 20
391.74707
 10
331.61734
 20
390.540924
 10
331.325836
 20
389.249268
 10
331.133331
 20
387.877594
 10
331.039917
 20
386.431427
 10
331.045471
 20
384.916504
 10
331.149475
 20
383.338898
 10
331.351196
 20
381.704926
 10
331.649658
 20
380.021088
 10
332.043243
 20
378.294312
 10
332.530212
 20
376.531738
 10
333.143463
 20
374.640167
  0
LWPOLYLINE
  5
2CF
330
26F
100
AcDbEntity
  8
0
  6
Continuous
 62
     0
370
    30
100
AcDbPolyline
 90
        5
 70
     0
 43
0.0
 10
312.498505
 20
359.680969
 10
312.342194
 20
359.822723
 10
312.219086
 20
359.994171
 10
312.134796
 20
360.187653
 10
312.088379
 20
360.48822
  0
ARC
  5
2D0
330
26F
100
AcDbEntity
  8
0
  6
Continuous
 62
     0
370
    30
100
AcDbCircle
 10
313.087701
 20
363.683046
 30
0.0
 40
0.9993239308139655
100
AcDbArc
 50
125.996965
 51
180.040844
  0
ARC
  5
2D1
330
26F
100
AcDbEntity
  8
0
  6
Continuous
 62
     0
370
    30
100
AcDbCircle
 10
343.294217
 20
339.128828
 30
0.0
 40
0.9989916491727296
100
AcDbArc
 50
235.056081
 51
304.513792
  0
ARC
  5
2D2
330
26F
100
AcDbEntity
  8
0
  6
Continuous
 62
     0
370
    30
100
AcDbCircle
 10
3479.697017
 20
4830.257624
 30
0.0
 40
5478.887584936392
100
AcDbArc
 50
234.929957
 51
235.071274
  0
ARC
  5
2D3
330
26F
100
AcDbEntity
  8
0
  6
Continuous
 62
     0
370
    30
100
AcDbCircle
 10
1166.252416
 20
1534.92916
 30
0.0
 40
1452.572169061148
100
AcDbArc
 50
234.540519
 51
234.930677
  0
ARC
  5
2D4
330
26F
100
AcDbEntity
  8
0
  6
Continuous
 62
     0
370
    30
100
AcDbCircle
 10
3566.483817
 20
4905.228852
 30
0.0
 40
5590.208090564862
100
AcDbArc
 50
234.402659
 51
234.542067
  0
LINE
  5
2D5
330
26F
100
AcDbEntity
  8
0
  6
Continuous
 62
     0
370
    30
100
AcDbLine
 10
312.088387
 20
363.682954
 30
0.0
 11
312.088387
 21
360.488446
 31
0.0
  0
ARC
  5
2D6
330
26F
100
AcDbEntity
  8
0
  6
Continuous
 62
     0
370
    30
100
AcDbCircle
 10
-1497.88128
 20
3018.925894
 30
0.0
 40
3252.343437441811
100
AcDbArc
 50
304.491316
 51
304.858234
  0
ARC
  5
2D7
330
26F
100
AcDbEntity
  8
0
  6
Continuous
 62
     0
370
    30
100
AcDbCircle
 10
2242.859354
 20
-2288.813512
 30
0.0
 40
3281.206306016419
100
AcDbArc
 50
125.674381
 51
126.037026
  0
LINE
  5
2D8
330
26F
100
AcDbEntity
  8
0
  6
Continuous
 62
     0
370
    30
100
AcDbLine
 10
345.868341
 20
369.907189
 30
0.0
 11
343.645292
 21
368.335256
 31
0.0
  0
LINE
  5
2D9
330
26F
100
AcDbEntity
  8
0
  6
Continuous
 62
     0
370
     0
100
AcDbLine
 10
352.162181
 20
434.167032
 30
0.0
 11
351.060982
 21
433.388367
 31
0.0
  0
ELLIPSE
  5
2DA
330
26F
100
AcDbEntity
  8
0
  6
Continuous
 62
     0
370
    30
100
AcDbEllipse
 10
348.697358
 20
436.617032
 30
0.0
 11
-2.829016382379727
 21
4.000833201750247
 31
0.0
210
0.0
220
0.0
230
-0.9999999999999998
 40
0.5
 41
6.28318524711185
 42
8.809298240875892
  0
ELLIPSE
  5
2DB
330
26F
100
AcDbEntity
  8
0
  6
Continuous
 62
     0
370
    30
100
AcDbEllipse
 10
348.697358
 20
436.617032
 30
0.0
 11
-2.829016382379727
 21
4.000833201750247
 31
0.0
210
0.0
220
0.0
230
-0.9999999999999998
 40
0.5
 41
2.526112933696306
 42
3.018220053588512
  0
LWPOLYLINE
  5
2DC
330
26F
100
AcDbEntity
  8
0
  6
Continuous
 62
     0
370
     0
100
AcDbPolyline
 90
        5
 70
     0
 43
0.0
 10
332.143829
 20
421.575592
 10
336.014618
 20
424.73642
 10
339.892731
 20
427.820618
 10
343.776245
 20
430.826721
 10
349.220428
 20
434.902527
  0
LWPOLYLINE
  5
2DD
330
26F
100
AcDbEntity
  8
0
  6
Continuous
 62
     0
370
    30
100
AcDbPolyline
 90
        5
 70
     0
 43
0.0
 10
349.220428
 20
434.902527
 10
347.293549
 20
436.434448
 10
345.364441
 20
437.862274
 10
343.43512
 20
439.184906
 10
341.10321
 20
440.642273
  0
LWPOLYLINE
  5
2DE
330
26F
100
AcDbEntity
  8
0
  6
Continuous
 62
     0
370
     0
100
AcDbPolyline
 90
        5
 70
     0
 43
0.0
 10
341.10321
 20
440.642273
 10
337.19928
 20
437.729248
 10
333.300659
 20
434.733276
 10
329.409302
 20
431.655884
 10
324.065948
 20
427.287506
  0
ARC
  5
2DF
330
26F
100
AcDbEntity
  8
0
  6
Continuous
 62
     0
370
     0
100
AcDbCircle
 10
1480.944235
 20
2054.791481
 30
0.0
 40
1996.781551034875
100
AcDbArc
 50
234.593652
 51
234.877532
  0
LWPOLYLINE
  5
2E0
330
26F
100
AcDbEntity
  8
0
  6
Continuous
 62
     0
370
     0
100
AcDbPolyline
 90
        3
 70
     0
 43
0.0
 10
343.29425
 20
413.733246
 10
345.408569
 20
415.194244
 10
360.493958
 20
425.628174
  0
LINE
  5
2E1
330
26F
100
AcDbEntity
  8
0
  6
Continuous
 62
     0
370
    30
100
AcDbLine
 10
360.493967
 20
425.628175
 30
0.0
 11
349.220434
 21
434.902522
 31
0.0
  0
LINE
  5
2E2
330
26F
100
AcDbEntity
  8
0
  6
Continuous
 62
     0
370
     0
100
AcDbLine
 10
332.143824
 20
421.57558
 30
0.0
 11
343.294248
 21
413.733232
 31
0.0
  0
LWPOLYLINE
  5
2E3
330
26F
100
AcDbEntity
  8
0
  6
Continuous
 62
     0
370
    30
100
AcDbPolyline
 90
        3
 70
     0
 43
0.0
 10
360.986511
 20
420.86377
 10
361.064087
 20
420.946869
 10
361.119934
 20
421.18277
  0
LWPOLYLINE
  5
2E4
330
26F
100
AcDbEntity
  8
0
  6
Continuous
 62
     0
370
    30
100
AcDbPolyline
 90
        4
 70
     0
 43
0.0
 10
329.829681
 20
447.311096
 10
329.675323
 20
447.384552
 10
329.532776
 20
447.416168
 10
329.329895
 20
447.365204
  0
LINE
  5
2E5
330
26F
100
AcDbEntity
  8
0
  6
Continuous
 62
     0
370
    30
100
AcDbLine
 10
341.103213
 20
440.642264
 30
0.0
 11
329.829681
 21
447.311099
 31
0.0
  0
LWPOLYLINE
  5
2E6
330
26F
100
AcDbEntity
  8
0
  6
Continuous
 62
     0
370
    30
100
AcDbPolyline
 90
        5
 70
     0
 43
0.0
 10
361.119934
 20
424.483124
 10
361.079163
 20
424.748505
 10
360.961639
 20
425.040894
 10
360.780884
 20
425.326599
 10
360.493958
 20
425.628174
  0
LINE
  5
2E7
330
26F
100
AcDbEntity
  8
0
  6
Continuous
 62
     0
370
    30
100
AcDbLine
 10
361.119931
 20
421.182783
 30
0.0
 11
361.119931
 21
424.48311
 31
0.0
  0
ARC
  5
2E8
330
26F
100
AcDbEntity
  8
0
  6
Continuous
 62
     0
370
     0
100
AcDbCircle
 10
1162.374441
 20
-712.614132
 30
0.0
 40
1427.780557150367
100
AcDbArc
 50
125.669169
 51
126.5011
  0
LINE
  5
2E9
330
26F
100
AcDbEntity
  8
0
  6
Continuous
 62
     0
370
     0
100
AcDbLine
 10
313.075996
 20
435.100759
 30
0.0
 11
324.065948
 21
427.2875
 31
0.0
  0
ARC
  5
2EA
330
26F
100
AcDbEntity
  8
0
  6
Continuous
 62
     0
370
     0
100
AcDbCircle
 10
-511.320909
 20
-762.959076
 30
0.0
 40
1452.861714534943
100
AcDbArc
 50
54.540714
 51
54.930525
  0
LWPOLYLINE
  5
2EB
330
26F
100
AcDbEntity
  8
0
  6
Continuous
 62
     0
370
     0
100
AcDbPolyline
 90
        5
 70
     0
 43
0.0
 10
332.143829
 20
421.575592
 10
331.914764
 20
421.345215
 10
331.721558
 20
421.069031
 10
331.585938
 20
420.778046
 10
331.51947
 20
420.437408
  0
LWPOLYLINE
  5
2EC
330
26F
100
AcDbEntity
  8
0
  6
Continuous
 62
     0
370
     0
100
AcDbPolyline
 90
        5
 70
     0
 43
0.0
 10
323.448822
 20
426.144226
 10
323.488068
 20
426.409088
 10
323.603027
 20
426.700104
 10
323.780823
 20
426.984589
 10
324.065948
 20
427.287506
  0
LWPOLYLINE
  5
2ED
330
26F
100
AcDbEntity
  8
0
  6
Continuous
 62
     0
370
     0
100
AcDbPolyline
 90
        5
 70
     0
 43
0.0
 10
343.995056
 20
412.530609
 10
343.944031
 20
412.823334
 10
343.80249
 20
413.145538
 10
343.59021
 20
413.452332
 10
343.29425
 20
413.733246
  0
ARC
  5
2EE
330
26F
100
AcDbEntity
  8
0
  6
Continuous
 62
     0
370
     0
100
AcDbCircle
 10
2227.996798
 20
-2268.516919
 30
0.0
 40
3276.809178393543
100
AcDbArc
 50
124.730982
 51
125.096138
  0
ARC
  5
2EF
330
26F
100
AcDbEntity
  8
0
  6
Continuous
 62
     0
370
     0
100
AcDbCircle
 10
-2895.234685
 20
-4110.39066
 30
0.0
 40
5562.404644419034
100
AcDbArc
 50
54.402303
 51
54.542383
  0
LWPOLYLINE
  5
2F0
330
26F
100
AcDbEntity
  8
0
  6
Continuous
 62
     0
370
     0
100
AcDbPolyline
 90
        5
 70
     0
 43
0.0
 10
343.29425
 20
413.733246
 10
343.03479
 20
413.498901
 10
342.811554
 20
413.199829
 10
342.655579
 20
412.877808
 10
342.587036
 20
412.534943
  0
LINE
  5
2F1
330
26F
100
AcDbEntity
  8
0
  6
Continuous
 62
     0
370
     0
100
AcDbLine
 10
343.995044
 20
409.336089
 30
0.0
 11
343.995044
 21
412.530597
 31
0.0
  0
ARC
  5
2F2
330
26F
100
AcDbEntity
  8
0
  6
Continuous
 62
     0
370
     0
100
AcDbCircle
 10
-1495.478854
 20
3086.672663
 30
0.0
 40
3248.352713516992
100
AcDbArc
 50
304.491154
 51
304.858443
  0
LWPOLYLINE
  5
2F3
330
26F
100
AcDbEntity
  8
0
  6
Continuous
 62
     0
370
     0
100
AcDbPolyline
 90
        4
 70
     0
 43
0.0
 10
312.49115
 20
435.195465
 10
312.626221
 20
435.250641
 10
312.799133
 20
435.235535
 10
313.075989
 20
435.100769
  0
LWPOLYLINE
  5
2F4
330
26F
100
AcDbEntity
  8
0
  6
Continuous
 62
     0
370
     0
100
AcDbPolyline
 90
        3
 70
     0
 43
0.0
 10
343.995056
 20
409.33609
 10
343.975098
 20
409.186768
 10
343.856506
 20
409.013611
  0
ARC
  5
2F5
330
26F
100
AcDbEntity
  8
0
  6
Continuous
 62
     0
370
     0
100
AcDbCircle
 10
-2824.471698
 20
-4057.871019
 30
0.0
 40
5478.667384277023
100
AcDbArc
 50
54.929931
 51
55.071228
  0
LWPOLYLINE
  5
2F6
330
26F
100
AcDbEntity
  8
0
  6
Continuous
 62
     0
370
     0
100
AcDbPolyline
 90
        5
 70
     0
 43
0.0
 10
312.381287
 20
433.893646
 10
312.428284
 20
434.189545
 10
312.567383
 20
434.513916
 10
312.779083
 20
434.821503
 10
313.075989
 20
435.100769
  0
ARC
  5
2F7
330
26F
100
AcDbEntity
  8
0
  6
Continuous
 62
     0
370
     0
100
AcDbCircle
 10
3563.646127
 20
4972.454263
 30
0.0
 40
5585.540518032095
100
AcDbArc
 50
234.402606
 51
234.542106
  0
ARC
  5
2F8
330
26F
100
AcDbEntity
  8
0
  6
Continuous
 62
     0
370
     0
100
AcDbCircle
 10
1166.225179
 20
1606.101588
 30
0.0
 40
1452.749990484166
100
AcDbArc
 50
234.540677
 51
234.930516
  0
ARC
  5
2F9
330
26F
100
AcDbEntity
  8
0
  6
Continuous
 62
     0
370
     0
100
AcDbCircle
 10
3479.338502
 20
4900.964726
 30
0.0
 40
5478.494189356294
100
AcDbArc
 50
234.929956
 51
235.071257
  0
LINE
  5
2FA
330
26F
100
AcDbEntity
  8
0
  6
Continuous
 62
     0
370
     0
100
AcDbLine
 10
342.587028
 20
412.53494
 30
0.0
 11
342.587028
 21
409.340435
 31
0.0
  0
LINE
  5
2FB
330
26F
100
AcDbEntity
  8
0
  6
Continuous
 62
     0
370
     0
100
AcDbLine
 10
312.381281
 20
430.699119
 30
0.0
 11
312.381281
 21
433.893634
 31
0.0
  0
ELLIPSE
  5
2FC
330
26F
100
AcDbEntity
  8
0
  6
Continuous
 62
     0
370
     0
100
AcDbEllipse
 10
343.294135
 20
409.840433
 30
0.0
 11
0.9999999999999992
 21
4.289181336230542E-8
 31
0.0
210
0.0
220
0.0
230
-1.0
 40
0.707107
 41
0.7941248399878063
 42
2.356194520521343
  0
ELLIPSE
  5
2FD
330
26F
100
AcDbEntity
  8
0
  6
Continuous
 62
     0
370
     0
100
AcDbEllipse
 10
343.294135
 20
413.034942
 30
0.0
 11
-0.9999999999999992
 21
-4.289181336230542E-8
 31
0.0
210
0.0
220
0.0
230
1.0
 40
0.707107
 41
0.7853988038683788
 42
2.347467813601898
  0
ELLIPSE
  5
2FE
330
26F
100
AcDbEntity
  8
0
  6
Continuous
 62
     0
370
     0
100
AcDbEllipse
 10
313.088387
 20
434.39363
 30
0.0
 11
-0.9999999999999991
 21
-4.289181298739870E-8
 31
0.0
210
0.0
220
0.0
230
1.0
 40
0.707107
 41
6.283185286277915
 42
7.068586581147988
  0
ELLIPSE
  5
2FF
330
26F
100
AcDbEntity
  8
0
  6
Continuous
 62
     0
370
     0
100
AcDbEllipse
 10
313.088387
 20
431.199122
 30
0.0
 11
0.9999999999999991
 21
4.289181298739870E-8
 31
0.0
210
0.0
220
0.0
230
-1.0
 40
0.707107
 41
2.356182033021399
 42
3.141592674491445
  0
LWPOLYLINE
  5
300
330
26F
100
AcDbEntity
  8
0
  6
Continuous
 62
     0
370
     0
100
AcDbPolyline
 90
        3
 70
     0
 43
0.0
 10
312.381287
 20
430.699127
 10
312.399139
 20
430.550323
 10
312.51358
 20
430.380798
  0
LWPOLYLINE
  5
301
330
26F
100
AcDbEntity
  8
0
  6
Continuous
 62
     0
370
     0
100
AcDbPolyline
 90
        3
 70
     0
 43
0.0
 10
323.575958
 20
422.482056
 10
323.503265
 20
422.561676
 10
323.448822
 20
422.796661
  0
LWPOLYLINE
  5
302
330
26F
100
AcDbEntity
  8
0
  6
Continuous
 62
     0
370
     0
100
AcDbPolyline
 90
        3
 70
     0
 43
0.0
 10
331.652222
 20
416.771301
 10
331.576996
 20
416.852722
 10
331.51947
 20
417.089844
  0
LWPOLYLINE
  5
303
330
26F
100
AcDbEntity
  8
0
  6
Continuous
 62
     0
370
     0
100
AcDbPolyline
 90
        3
 70
     0
 43
0.0
 10
342.732849
 20
409.013153
 10
342.645294
 20
409.102753
 10
342.587036
 20
409.340424
  0
LWPOLYLINE
  5
304
330
26F
100
AcDbEntity
  8
0
  6
Continuous
 62
     0
370
     0
100
AcDbPolyline
 90
        7
 70
     0
 43
0.0
 10
333.214355
 20
445.308899
 10
332.559082
 20
447.349121
 10
332.032013
 20
449.317017
 10
331.631012
 20
451.199677
 10
331.352081
 20
452.986511
 10
331.189453
 20
454.669373
 10
331.136169
 20
456.260345
  0
LWPOLYLINE
  5
305
330
26F
100
AcDbEntity
  8
0
  6
Continuous
 62
     0
370
     0
100
AcDbPolyline
 90
       24
 70
     0
 43
0.0
 10
376.477203
 20
424.199402
 10
376.436676
 20
422.872711
 10
376.311371
 20
421.579498
 10
376.096344
 20
420.330566
 10
375.787323
 20
419.137085
 10
375.381042
 20
418.010315
 10
374.875275
 20
416.961487
 10
374.269043
 20
416.001465
 10
373.562775
 20
415.140442
 10
372.758301
 20
414.387665
 10
371.858978
 20
413.751221
 10
370.869568
 20
413.237762
 10
369.796234
 20
412.852264
 10
368.646423
 20
412.597931
 10
367.42865
 20
412.476044
 10
366.152344
 20
412.486053
 10
364.827515
 20
412.625519
 10
363.46463
 20
412.890289
 10
362.074249
 20
413.274597
 10
360.666901
 20
413.771362
 10
359.252686
 20
414.372314
 10
357.841187
 20
415.06842
 10
356.441376
 20
415.849976
 10
355.031403
 20
416.726471
  0
LWPOLYLINE
  5
306
330
26F
100
AcDbEntity
  8
0
  6
Continuous
 62
     0
370
     0
100
AcDbPolyline
 90
       48
 70
     0
 43
0.0
 10
331.136169
 20
456.260345
 10
331.178223
 20
457.610748
 10
331.308197
 20
458.926208
 10
331.531342
 20
460.195343
 10
331.852112
 20
461.406433
 10
332.273895
 20
462.547485
 10
332.79895
 20
463.60675
 10
333.428131
 20
464.572784
 10
334.160797
 20
465.434967
 10
334.994873
 20
466.183624
 10
335.926544
 20
466.810516
 10
336.950531
 20
467.308868
 10
338.060028
 20
467.673798
 10
339.247009
 20
467.902344
 10
340.502197
 20
467.993591
 10
341.815491
 20
467.948578
 10
343.176117
 20
467.770386
 10
344.573059
 20
467.463928
 10
345.995117
 20
467.035706
 10
347.431335
 20
466.493561
 10
348.871155
 20
465.846588
 10
350.304749
 20
465.104553
 10
351.722961
 20
464.277863
 10
353.117645
 20
463.377167
 10
354.490082
 20
462.406891
 10
355.884644
 20
461.335632
 10
357.302795
 20
460.157104
 10
358.736328
 20
458.872192
 10
360.176147
 20
457.483337
 10
361.612396
 20
455.994751
 10
363.034546
 20
454.412292
 10
364.43158
 20
452.74353
 10
365.792419
 20
450.997742
 10
367.105927
 20
449.18573
 10
368.361359
 20
447.319611
 10
369.548645
 20
445.412567
 10
370.658478
 20
443.478607
 10
371.682831
 20
441.532135
 10
372.614899
 20
439.587646
 10
373.449371
 20
437.659363
 10
374.182465
 20
435.760834
 10
374.812073
 20
433.904816
 10
375.337555
 20
432.102814
 10
375.759766
 20
430.36496
 10
376.080933
 20
428.699951
 10
376.304474
 20
427.114868
 10
376.434814
 20
425.615234
 10
376.477203
 20
424.199402
  0
LWPOLYLINE
  5
307
330
26F
100
AcDbEntity
  8
0
  6
Continuous
 62
     0
370
     0
100
AcDbPolyline
 90
       39
 70
     0
 43
0.0
 10
377.13858
 20
424.228027
 10
377.09671
 20
425.644104
 10
376.967346
 20
427.149261
 10
376.74527
 20
428.739624
 10
376.426117
 20
430.40979
 10
376.006439
 20
432.152802
 10
375.484009
 20
433.960144
 10
374.85788
 20
435.821899
 10
374.128601
 20
437.726746
 10
373.298157
 20
439.662262
 10
372.370178
 20
441.615051
 10
371.349731
 20
443.571167
 10
370.243378
 20
445.516266
 10
369.05899
 20
447.436127
 10
367.805573
 20
449.316864
 10
366.492981
 20
451.145386
 10
365.131775
 20
452.909515
 10
363.73288
 20
454.598389
 10
362.307312
 20
456.202698
 10
360.865906
 20
457.7146
 10
359.419189
 20
459.128052
 10
357.97699
 20
460.43866
 10
356.548492
 20
461.643677
 10
355.141907
 20
462.741913
 10
353.761688
 20
463.735535
 10
352.366669
 20
464.655487
 10
350.946503
 20
465.50415
 10
349.509064
 20
466.270966
 10
348.06308
 20
466.945618
 10
346.618164
 20
467.518219
 10
345.18457
 20
467.979706
 10
343.77301
 20
468.321899
 10
342.39447
 20
468.537994
 10
341.059967
 20
468.622681
 10
339.780182
 20
468.572418
 10
338.565338
 20
468.385529
 10
337.424866
 20
468.062317
 10
336.367065
 20
467.605042
 10
335.393738
 20
467.01416
  0
LWPOLYLINE
  5
308
330
26F
100
AcDbEntity
  8
0
  6
Continuous
 62
     0
370
     0
100
AcDbPolyline
 90
       11
 70
     0
 43
0.0
 10
372.921509
 20
413.941864
 10
373.738678
 20
414.602692
 10
374.468964
 20
415.365173
 10
375.110077
 20
416.222076
 10
375.660858
 20
417.165192
 10
376.121338
 20
418.185669
 10
376.492584
 20
419.274231
 10
376.776642
 20
420.421326
 10
376.97641
 20
421.617401
 10
377.095581
 20
422.852966
 10
377.13858
 20
424.228027
  0
LWPOLYLINE
  5
309
330
26F
100
AcDbEntity
  8
0
  6
Continuous
 62
     0
370
     0
100
AcDbPolyline
 90
        3
 70
     0
 43
0.0
 10
347.115784
 20
441.622437
 10
346.97229
 20
442.389496
 10
346.910767
 20
443.263489
  0
LWPOLYLINE
  5
30A
330
26F
100
AcDbEntity
  8
0
  6
Continuous
 62
     0
370
     0
100
AcDbPolyline
 90
       12
 70
     0
 43
0.0
 10
358.096893
 20
435.353729
 10
358.045654
 20
434.629425
 10
357.887787
 20
433.99115
 10
357.63208
 20
433.452728
 10
357.284119
 20
433.022064
 10
356.844696
 20
432.710358
 10
356.322205
 20
432.523773
 10
355.731537
 20
432.459381
 10
355.081604
 20
432.521515
 10
354.382751
 20
432.7117
 10
353.64917
 20
433.024567
 10
352.888367
 20
433.456818
  0
LWPOLYLINE
  5
30B
330
26F
100
AcDbEntity
  8
0
  6
Continuous
 62
     0
370
     0
100
AcDbPolyline
 90
       24
 70
     0
 43
0.0
 10
346.910767
 20
443.263489
 10
346.962128
 20
443.988312
 10
347.120087
 20
444.626831
 10
347.376129
 20
445.165436
 10
347.724701
 20
445.596252
 10
348.164673
 20
445.907776
 10
348.687622
 20
446.093903
 10
349.279053
 20
446.157837
 10
349.929779
 20
446.095032
 10
350.629303
 20
445.903992
 10
351.363556
 20
445.590118
 10
352.118774
 20
445.160767
 10
352.881073
 20
444.622284
 10
353.636414
 20
443.984558
 10
354.370972
 20
443.260864
 10
355.070953
 20
442.463287
 10
355.722168
 20
441.606415
 10
356.314178
 20
440.706482
 10
356.838074
 20
439.780823
 10
357.278992
 20
438.847076
 10
357.628326
 20
437.923218
 10
357.885345
 20
437.022247
 10
358.044495
 20
436.159698
 10
358.096893
 20
435.353729
  0
ELLIPSE
  5
30C
330
26F
100
AcDbEntity
  8
0
  6
Continuous
 62
     0
370
    30
100
AcDbEllipse
 10
359.501949
 20
444.257032
 30
0.0
 11
18.76388416884513
 21
-26.53613858303735
 31
0.0
210
0.0
220
0.0
230
1.0
 40
0.5
 41
0.6154796770017033
 42
3.141592713657524
  0
ELLIPSE
  5
30D
330
26F
100
AcDbEntity
  8
0
  6
Continuous
 62
     0
370
    30
100
AcDbEllipse
 10
359.501949
 20
444.257032
 30
0.0
 11
18.76388416884513
 21
-26.53613858303735
 31
0.0
210
0.0
220
0.0
230
1.0
 40
0.5
 41
0.0000000600677277
 42
0.6154796770017033
  0
ELLIPSE
  5
30E
330
26F
100
AcDbEntity
  8
0
  6
Continuous
 62
     0
370
     0
100
AcDbEllipse
 10
350.38347
 20
437.809293
 30
0.0
 11
2.886751410591557
 21
-4.082482858928822
 31
0.0
210
0.0
220
0.0
230
0.9999999999999998
 40
0.5
 41
0.6154796770017024
 42
3.141592713657527
  0
ELLIPSE
  5
30F
330
26F
100
AcDbEntity
  8
0
  6
Continuous
 62
     0
370
     0
100
AcDbEllipse
 10
350.38347
 20
437.809293
 30
0.0
 11
2.886751410591557
 21
-4.082482858928822
 31
0.0
210
0.0
220
0.0
230
0.9999999999999998
 40
0.5
 41
0.0000000559093634
 42
0.6154796770017024
  0
ELLIPSE
  5
310
330
26F
100
AcDbEntity
  8
0
  6
Continuous
 62
     0
370
    30
100
AcDbEllipse
 10
348.697358
 20
436.617032
 30
0.0
 11
-2.886751410591557
 21
4.082482858928822
 31
0.0
210
0.0
220
0.0
230
-0.9999999999999998
 40
0.5
 41
2.526112976588093
 42
3.010312230459595
  0
ELLIPSE
  5
311
330
26F
100
AcDbEntity
  8
0
  6
Continuous
 62
     0
370
    30
100
AcDbEllipse
 10
348.697358
 20
436.617032
 30
0.0
 11
-2.886751410591557
 21
4.082482858928822
 31
0.0
210
0.0
220
0.0
230
-0.9999999999999998
 40
0.5
 41
6.082850404788818
 42
8.80929828376768
  0
LWPOLYLINE
  5
312
330
26F
100
AcDbEntity
  8
0
  6
Continuous
 62
     0
370
    30
100
AcDbPolyline
 90
        4
 70
     0
 43
0.0
 10
347.768829
 20
442.198578
 10
347.745026
 20
442.151978
 10
347.663971
 20
442.041595
 10
347.496735
 20
441.891785
  0
LWPOLYLINE
  5
313
330
26F
100
AcDbEntity
  8
0
  6
Continuous
 62
     0
370
    30
100
AcDbPolyline
 90
        4
 70
     0
 43
0.0
 10
353.270233
 20
433.726807
 10
353.434723
 20
433.820831
 10
353.576172
 20
433.869385
 10
353.650177
 20
433.881042
  0
LINE
  5
314
330
26F
100
AcDbEntity
  8
0
  6
Continuous
 62
     0
370
    30
100
AcDbLine
 10
351.860921
 20
432.730284
 30
0.0
 11
353.270222
 21
433.726811
 31
0.0
  0
LINE
  5
315
330
26F
100
AcDbEntity
  8
0
  6
Continuous
 62
     0
370
    30
100
AcDbLine
 10
345.810606
 20
440.699515
 30
0.0
 11
347.496718
 21
441.891776
 31
0.0
  0
LINE
  5
316
330
26F
100
AcDbEntity
  8
0
  6
Continuous
 62
     0
370
    30
100
AcDbLine
 10
372.921501
 20
413.94188
 30
0.0
 11
378.265834
 21
417.720894
 31
0.0
  0
LINE
  5
317
330
26F
100
AcDbEntity
  8
0
  6
Continuous
 62
     0
370
    30
100
AcDbLine
 10
335.393731
 20
467.014156
 30
0.0
 11
340.738064
 21
470.79317
 31
0.0
  0
LWPOLYLINE
  5
318
330
26F
100
AcDbEntity
  8
0
  6
Continuous
 62
     0
370
    30
100
AcDbPolyline
 90
       15
 70
     0
 43
0.0
 10
354.974823
 20
416.687256
 10
356.453278
 20
415.761169
 10
357.922607
 20
414.937195
 10
359.377106
 20
414.218689
 10
360.811157
 20
413.608612
 10
362.219238
 20
413.109741
 10
363.596039
 20
412.724426
 10
364.936401
 20
412.454559
 10
366.235229
 20
412.30188
 10
367.487457
 20
412.267975
 10
368.687988
 20
412.354034
 10
369.83136
 20
412.560486
 10
370.911896
 20
412.88739
 10
371.923828
 20
413.334442
 10
372.921509
 20
413.941895
  0
LWPOLYLINE
  5
319
330
26F
100
AcDbEntity
  8
0
  6
Continuous
 62
     0
370
    30
100
AcDbPolyline
 90
       17
 70
     0
 43
0.0
 10
335.393738
 20
467.01416
 10
334.533539
 20
466.317871
 10
333.761139
 20
465.508575
 10
333.081146
 20
464.591736
 10
332.495972
 20
463.572937
 10
332.007568
 20
462.457733
 10
331.61734
 20
461.251587
 10
331.325836
 20
459.959961
 10
331.133331
 20
458.588257
 10
331.039917
 20
457.14209
 10
331.045471
 20
455.627197
 10
331.149475
 20
454.049591
 10
331.351196
 20
452.415619
 10
331.649658
 20
450.73175
 10
332.043243
 20
449.005005
 10
332.530212
 20
447.242401
 10
333.143463
 20
445.35083
  0
LWPOLYLINE
  5
31A
330
26F
100
AcDbEntity
  8
0
  6
Continuous
 62
     0
370
    30
100
AcDbPolyline
 90
        5
 70
     0
 43
0.0
 10
312.498505
 20
430.391663
 10
312.342194
 20
430.533417
 10
312.219086
 20
430.704834
 10
312.134796
 20
430.898346
 10
312.088379
 20
431.198914
  0
ARC
  5
31B
330
26F
100
AcDbEntity
  8
0
  6
Continuous
 62
     0
370
    30
100
AcDbCircle
 10
313.087701
 20
434.393721
 30
0.0
 40
0.999323930812708
100
AcDbArc
 50
125.996965
 51
180.040844
  0
ARC
  5
31C
330
26F
100
AcDbEntity
  8
0
  6
Continuous
 62
     0
370
    30
100
AcDbCircle
 10
343.294217
 20
409.839504
 30
0.0
 40
0.9989916491798115
100
AcDbArc
 50
235.056081
 51
304.513792
  0
ARC
  5
31D
330
26F
100
AcDbEntity
  8
0
  6
Continuous
 62
     0
370
    30
100
AcDbCircle
 10
3479.697017
 20
4900.9683
 30
0.0
 40
5478.887584961961
100
AcDbArc
 50
234.929957
 51
235.071274
  0
ARC
  5
31E
330
26F
100
AcDbEntity
  8
0
  6
Continuous
 62
     0
370
    30
100
AcDbCircle
 10
1166.252416
 20
1605.639836
 30
0.0
 40
1452.572169064331
100
AcDbArc
 50
234.540519
 51
234.930677
  0
ARC
  5
31F
330
26F
100
AcDbEntity
  8
0
  6
Continuous
 62
     0
370
    30
100
AcDbCircle
 10
3566.483817
 20
4975.939528
 30
0.0
 40
5590.208090532234
100
AcDbArc
 50
234.402659
 51
234.542067
  0
LINE
  5
320
330
26F
100
AcDbEntity
  8
0
  6
Continuous
 62
     0
370
    30
100
AcDbLine
 10
312.088387
 20
434.39363
 30
0.0
 11
312.088387
 21
431.199122
 31
0.0
  0
ARC
  5
321
330
26F
100
AcDbEntity
  8
0
  6
Continuous
 62
     0
370
    30
100
AcDbCircle
 10
-1497.88128
 20
3089.636569
 30
0.0
 40
3252.343437440009
100
AcDbArc
 50
304.491316
 51
304.858234
  0
ARC
  5
322
330
26F
100
AcDbEntity
  8
0
  6
Continuous
 62
     0
370
    30
100
AcDbCircle
 10
2242.859354
 20
-2218.102837
 30
0.0
 40
3281.206306011907
100
AcDbArc
 50
125.674381
 51
126.037026
  0
LINE
  5
323
330
26F
100
AcDbEntity
  8
0
  6
Continuous
 62
     0
370
    30
100
AcDbLine
 10
345.868341
 20
440.617865
 30
0.0
 11
343.645292
 21
439.045932
 31
0.0
  0
LINE
  5
324
330
26F
100
AcDbEntity
  8
0
  6
Continuous
 62
     0
370
     0
100
AcDbLine
 10
352.162181
 20
504.877708
 30
0.0
 11
351.060982
 21
504.099042
 31
0.0
  0
ELLIPSE
  5
325
330
26F
100
AcDbEntity
  8
0
  6
Continuous
 62
     0
370
    30
100
AcDbEllipse
 10
348.697358
 20
507.327708
 30
0.0
 11
-2.829016382379727
 21
4.000833201750247
 31
0.0
210
0.0
220
0.0
230
-0.9999999999999998
 40
0.5
 41
6.283185247111847
 42
8.809298240875933
  0
ELLIPSE
  5
326
330
26F
100
AcDbEntity
  8
0
  6
Continuous
 62
     0
370
    30
100
AcDbEllipse
 10
348.697358
 20
507.327708
 30
0.0
 11
-2.829016382379727
 21
4.000833201750247
 31
0.0
210
0.0
220
0.0
230
-0.9999999999999998
 40
0.5
 41
2.526112933696347
 42
3.018220053588538
  0
LWPOLYLINE
  5
327
330
26F
100
AcDbEntity
  8
0
  6
Continuous
 62
     0
370
     0
100
AcDbPolyline
 90
        5
 70
     0
 43
0.0
 10
332.143829
 20
492.286255
 10
336.014618
 20
495.447083
 10
339.892731
 20
498.531311
 10
343.776245
 20
501.537384
 10
349.220428
 20
505.61319
  0
LWPOLYLINE
  5
328
330
26F
100
AcDbEntity
  8
0
  6
Continuous
 62
     0
370
    30
100
AcDbPolyline
 90
        5
 70
     0
 43
0.0
 10
349.220428
 20
505.61319
 10
347.293549
 20
507.145111
 10
345.364441
 20
508.572937
 10
343.43512
 20
509.895569
 10
341.10321
 20
511.352936
  0
LWPOLYLINE
  5
329
330
26F
100
AcDbEntity
  8
0
  6
Continuous
 62
     0
370
     0
100
AcDbPolyline
 90
        5
 70
     0
 43
0.0
 10
341.10321
 20
511.352936
 10
337.19928
 20
508.439911
 10
333.300659
 20
505.443939
 10
329.409302
 20
502.366547
 10
324.065948
 20
497.998169
  0
ARC
  5
32A
330
26F
100
AcDbEntity
  8
0
  6
Continuous
 62
     0
370
     0
100
AcDbCircle
 10
1480.944235
 20
2125.502157
 30
0.0
 40
1996.781551057027
100
AcDbArc
 50
234.593652
 51
234.877532
  0
LWPOLYLINE
  5
32B
330
26F
100
AcDbEntity
  8
0
  6
Continuous
 62
     0
370
     0
100
AcDbPolyline
 90
        3
 70
     0
 43
0.0
 10
343.29425
 20
484.443909
 10
345.408569
 20
485.904907
 10
360.493958
 20
496.338837
  0
LINE
  5
32C
330
26F
100
AcDbEntity
  8
0
  6
Continuous
 62
     0
370
    30
100
AcDbLine
 10
360.493967
 20
496.338851
 30
0.0
 11
349.220434
 21
505.613198
 31
0.0
  0
LINE
  5
32D
330
26F
100
AcDbEntity
  8
0
  6
Continuous
 62
     0
370
     0
100
AcDbLine
 10
332.143824
 20
492.286256
 30
0.0
 11
343.294248
 21
484.443907
 31
0.0
  0
LWPOLYLINE
  5
32E
330
26F
100
AcDbEntity
  8
0
  6
Continuous
 62
     0
370
    30
100
AcDbPolyline
 90
        3
 70
     0
 43
0.0
 10
360.986511
 20
491.574432
 10
361.064087
 20
491.657532
 10
361.119934
 20
491.893463
  0
LWPOLYLINE
  5
32F
330
26F
100
AcDbEntity
  8
0
  6
Continuous
 62
     0
370
    30
100
AcDbPolyline
 90
        4
 70
     0
 43
0.0
 10
329.829681
 20
518.02179
 10
329.675323
 20
518.095215
 10
329.532776
 20
518.126831
 10
329.329895
 20
518.075867
  0
LINE
  5
330
330
26F
100
AcDbEntity
  8
0
  6
Continuous
 62
     0
370
    30
100
AcDbLine
 10
341.103213
 20
511.35294
 30
0.0
 11
329.829681
 21
518.021775
 31
0.0
  0
LWPOLYLINE
  5
331
330
26F
100
AcDbEntity
  8
0
  6
Continuous
 62
     0
370
    30
100
AcDbPolyline
 90
        5
 70
     0
 43
0.0
 10
361.119934
 20
495.193787
 10
361.079163
 20
495.459198
 10
360.961639
 20
495.751556
 10
360.780884
 20
496.037262
 10
360.493958
 20
496.338837
  0
LINE
  5
332
330
26F
100
AcDbEntity
  8
0
  6
Continuous
 62
     0
370
    30
100
AcDbLine
 10
361.119931
 20
491.893458
 30
0.0
 11
361.119931
 21
495.193786
 31
0.0
  0
ARC
  5
333
330
26F
100
AcDbEntity
  8
0
  6
Continuous
 62
     0
370
     0
100
AcDbCircle
 10
1162.374441
 20
-641.903456
 30
0.0
 40
1427.780557151018
100
AcDbArc
 50
125.669169
 51
126.5011
  0
LINE
  5
334
330
26F
100
AcDbEntity
  8
0
  6
Continuous
 62
     0
370
     0
100
AcDbLine
 10
313.075996
 20
505.811435
 30
0.0
 11
324.065948
 21
497.998176
 31
0.0
  0
ARC
  5
335
330
26F
100
AcDbEntity
  8
0
  6
Continuous
 62
     0
370
     0
100
AcDbCircle
 10
-511.320909
 20
-692.248401
 30
0.0
 40
1452.861714506328
100
AcDbArc
 50
54.540714
 51
54.930525
  0
LWPOLYLINE
  5
336
330
26F
100
AcDbEntity
  8
0
  6
Continuous
 62
     0
370
     0
100
AcDbPolyline
 90
        5
 70
     0
 43
0.0
 10
332.143829
 20
492.286255
 10
331.914764
 20
492.055878
 10
331.721558
 20
491.779694
 10
331.585938
 20
491.488739
 10
331.51947
 20
491.148071
  0
LWPOLYLINE
  5
337
330
26F
100
AcDbEntity
  8
0
  6
Continuous
 62
     0
370
     0
100
AcDbPolyline
 90
        5
 70
     0
 43
0.0
 10
323.448822
 20
496.854919
 10
323.488068
 20
497.119781
 10
323.603027
 20
497.410797
 10
323.780823
 20
497.695251
 10
324.065948
 20
497.998169
  0
LWPOLYLINE
  5
338
330
26F
100
AcDbEntity
  8
0
  6
Continuous
 62
     0
370
     0
100
AcDbPolyline
 90
        5
 70
     0
 43
0.0
 10
343.995056
 20
483.241272
 10
343.944031
 20
483.534027
 10
343.80249
 20
483.856201
 10
343.59021
 20
484.163025
 10
343.29425
 20
484.443909
  0
ARC
  5
339
330
26F
100
AcDbEntity
  8
0
  6
Continuous
 62
     0
370
     0
100
AcDbCircle
 10
2227.996798
 20
-2197.806243
 30
0.0
 40
3276.809178395023
100
AcDbArc
 50
124.730982
 51
125.096138
  0
ARC
  5
33A
330
26F
100
AcDbEntity
  8
0
  6
Continuous
 62
     0
370
     0
100
AcDbCircle
 10
-2895.234685
 20
-4039.679984
 30
0.0
 40
5562.404644475542
100
AcDbArc
 50
54.402303
 51
54.542383
  0
LWPOLYLINE
  5
33B
330
26F
100
AcDbEntity
  8
0
  6
Continuous
 62
     0
370
     0
100
AcDbPolyline
 90
        5
 70
     0
 43
0.0
 10
343.29425
 20
484.443909
 10
343.03479
 20
484.209564
 10
342.811554
 20
483.910492
 10
342.655579
 20
483.58847
 10
342.587036
 20
483.245605
  0
LINE
  5
33C
330
26F
100
AcDbEntity
  8
0
  6
Continuous
 62
     0
370
     0
100
AcDbLine
 10
343.995044
 20
480.046765
 30
0.0
 11
343.995044
 21
483.241273
 31
0.0
  0
ARC
  5
33D
330
26F
100
AcDbEntity
  8
0
  6
Continuous
 62
     0
370
     0
100
AcDbCircle
 10
-1495.478854
 20
3157.383339
 30
0.0
 40
3248.352713498834
100
AcDbArc
 50
304.491154
 51
304.858443
  0
LWPOLYLINE
  5
33E
330
26F
100
AcDbEntity
  8
0
  6
Continuous
 62
     0
370
     0
100
AcDbPolyline
 90
        4
 70
     0
 43
0.0
 10
312.49115
 20
505.906158
 10
312.626221
 20
505.961304
 10
312.799133
 20
505.946228
 10
313.075989
 20
505.811432
  0
LWPOLYLINE
  5
33F
330
26F
100
AcDbEntity
  8
0
  6
Continuous
 62
     0
370
     0
100
AcDbPolyline
 90
        3
 70
     0
 43
0.0
 10
343.995056
 20
480.046753
 10
343.975098
 20
479.89743
 10
343.856506
 20
479.724274
  0
ARC
  5
340
330
26F
100
AcDbEntity
  8
0
  6
Continuous
 62
     0
370
     0
100
AcDbCircle
 10
-2824.471698
 20
-3987.160343
 30
0.0
 40
5478.667384253365
100
AcDbArc
 50
54.929931
 51
55.071228
  0
LWPOLYLINE
  5
341
330
26F
100
AcDbEntity
  8
0
  6
Continuous
 62
     0
370
     0
100
AcDbPolyline
 90
        5
 70
     0
 43
0.0
 10
312.381287
 20
504.604309
 10
312.428284
 20
504.900208
 10
312.567383
 20
505.224579
 10
312.779083
 20
505.532196
 10
313.075989
 20
505.811462
  0
ARC
  5
342
330
26F
100
AcDbEntity
  8
0
  6
Continuous
 62
     0
370
     0
100
AcDbCircle
 10
3563.646127
 20
5043.164938
 30
0.0
 40
5585.540517986748
100
AcDbArc
 50
234.402606
 51
234.542106
  0
ARC
  5
343
330
26F
100
AcDbEntity
  8
0
  6
Continuous
 62
     0
370
     0
100
AcDbCircle
 10
1166.22518
 20
1676.812263
 30
0.0
 40
1452.749990484746
100
AcDbArc
 50
234.540677
 51
234.930516
  0
ARC
  5
344
330
26F
100
AcDbEntity
  8
0
  6
Continuous
 62
     0
370
     0
100
AcDbCircle
 10
3479.338502
 20
4971.675402
 30
0.0
 40
5478.494189319787
100
AcDbArc
 50
234.929956
 51
235.071257
  0
LINE
  5
345
330
26F
100
AcDbEntity
  8
0
  6
Continuous
 62
     0
370
     0
100
AcDbLine
 10
342.587028
 20
483.245615
 30
0.0
 11
342.587028
 21
480.051111
 31
0.0
  0
LINE
  5
346
330
26F
100
AcDbEntity
  8
0
  6
Continuous
 62
     0
370
     0
100
AcDbLine
 10
312.381281
 20
501.409795
 30
0.0
 11
312.381281
 21
504.60431
 31
0.0
  0
ELLIPSE
  5
347
330
26F
100
AcDbEntity
  8
0
  6
Continuous
 62
     0
370
     0
100
AcDbEllipse
 10
343.294135
 20
480.551109
 30
0.0
 11
0.9999999999999992
 21
4.289181336230542E-8
 31
0.0
210
0.0
220
0.0
230
-1.0
 40
0.707107
 41
0.7941248399877981
 42
2.356194520521377
  0
ELLIPSE
  5
348
330
26F
100
AcDbEntity
  8
0
  6
Continuous
 62
     0
370
     0
100
AcDbEllipse
 10
343.294135
 20
483.745617
 30
0.0
 11
-0.9999999999999992
 21
-4.289181336230542E-8
 31
0.0
210
0.0
220
0.0
230
1.0
 40
0.707107
 41
0.7853988038683877
 42
2.34746781360187
  0
ELLIPSE
  5
349
330
26F
100
AcDbEntity
  8
0
  6
Continuous
 62
     0
370
     0
100
AcDbEllipse
 10
313.088387
 20
505.104305
 30
0.0
 11
-0.9999999999999991
 21
-4.289181298739870E-8
 31
0.0
210
0.0
220
0.0
230
1.0
 40
0.707107
 41
6.283185286277905
 42
7.068586581147988
  0
ELLIPSE
  5
34A
330
26F
100
AcDbEntity
  8
0
  6
Continuous
 62
     0
370
     0
100
AcDbEllipse
 10
313.088387
 20
501.909797
 30
0.0
 11
0.9999999999999991
 21
4.289181298739870E-8
 31
0.0
210
0.0
220
0.0
230
-1.0
 40
0.707107
 41
2.356182033021379
 42
3.141592674491473
  0
LWPOLYLINE
  5
34B
330
26F
100
AcDbEntity
  8
0
  6
Continuous
 62
     0
370
     0
100
AcDbPolyline
 90
        3
 70
     0
 43
0.0
 10
312.381287
 20
501.40979
 10
312.399139
 20
501.261017
 10
312.51358
 20
501.091461
  0
LWPOLYLINE
  5
34C
330
26F
100
AcDbEntity
  8
0
  6
Continuous
 62
     0
370
     0
100
AcDbPolyline
 90
        3
 70
     0
 43
0.0
 10
323.575958
 20
493.192719
 10
323.503265
 20
493.272369
 10
323.448822
 20
493.507324
  0
LWPOLYLINE
  5
34D
330
26F
100
AcDbEntity
  8
0
  6
Continuous
 62
     0
370
     0
100
AcDbPolyline
 90
        3
 70
     0
 43
0.0
 10
331.652191
 20
487.481964
 10
331.576996
 20
487.563385
 10
331.51947
 20
487.800507
  0
LWPOLYLINE
  5
34E
330
26F
100
AcDbEntity
  8
0
  6
Continuous
 62
     0
370
     0
100
AcDbPolyline
 90
        3
 70
     0
 43
0.0
 10
342.732849
 20
479.723816
 10
342.645294
 20
479.813416
 10
342.587036
 20
480.051117
  0
LWPOLYLINE
  5
34F
330
26F
100
AcDbEntity
  8
0
  6
Continuous
 62
     0
370
     0
100
AcDbPolyline
 90
        7
 70
     0
 43
0.0
 10
333.214355
 20
516.019592
 10
332.559082
 20
518.059814
 10
332.032013
 20
520.02771
 10
331.631012
 20
521.910339
 10
331.352081
 20
523.697205
 10
331.189453
 20
525.380066
 10
331.136169
 20
526.971008
  0
LWPOLYLINE
  5
350
330
26F
100
AcDbEntity
  8
0
  6
Continuous
 62
     0
370
     0
100
AcDbPolyline
 90
       24
 70
     0
 43
0.0
 10
376.477203
 20
494.910095
 10
376.436676
 20
493.583374
 10
376.311371
 20
492.290161
 10
376.096344
 20
491.04126
 10
375.787323
 20
489.847748
 10
375.381042
 20
488.720978
 10
374.875275
 20
487.67218
 10
374.269043
 20
486.712128
 10
373.562775
 20
485.851105
 10
372.758301
 20
485.098328
 10
371.858978
 20
484.461914
 10
370.869568
 20
483.948456
 10
369.796234
 20
483.562927
 10
368.646423
 20
483.308594
 10
367.42865
 20
483.186707
 10
366.152344
 20
483.196747
 10
364.827515
 20
483.336212
 10
363.46463
 20
483.600983
 10
362.074249
 20
483.985291
 10
360.666901
 20
484.482025
 10
359.252686
 20
485.083008
 10
357.841187
 20
485.779114
 10
356.441376
 20
486.560669
 10
355.031403
 20
487.437164
  0
LWPOLYLINE
  5
351
330
26F
100
AcDbEntity
  8
0
  6
Continuous
 62
     0
370
     0
100
AcDbPolyline
 90
       48
 70
     0
 43
0.0
 10
331.136169
 20
526.971008
 10
331.178223
 20
528.321411
 10
331.308197
 20
529.636902
 10
331.531342
 20
530.906006
 10
331.852112
 20
532.117126
 10
332.273895
 20
533.258179
 10
332.79895
 20
534.317444
 10
333.428131
 20
535.283447
 10
334.160797
 20
536.14563
 10
334.994873
 20
536.894287
 10
335.926544
 20
537.521179
 10
336.950531
 20
538.019531
 10
338.060028
 20
538.38446
 10
339.247009
 20
538.613037
 10
340.502197
 20
538.704285
 10
341.815491
 20
538.659241
 10
343.176117
 20
538.481079
 10
344.573059
 20
538.174622
 10
345.995117
 20
537.746399
 10
347.431335
 20
537.204224
 10
348.871155
 20
536.557251
 10
350.304749
 20
535.815247
 10
351.722961
 20
534.988525
 10
353.117645
 20
534.08783
 10
354.490082
 20
533.117554
 10
355.884644
 20
532.046326
 10
357.302795
 20
530.867798
 10
358.736328
 20
529.582825
 10
360.176147
 20
528.194031
 10
361.612396
 20
526.705444
 10
363.034546
 20
525.122986
 10
364.43158
 20
523.454224
 10
365.792419
 20
521.708435
 10
367.105927
 20
519.896423
 10
368.361359
 20
518.030273
 10
369.548645
 20
516.12323
 10
370.658478
 20
514.18927
 10
371.682831
 20
512.242798
 10
372.614899
 20
510.29834
 10
373.449371
 20
508.370026
 10
374.182465
 20
506.471527
 10
374.812073
 20
504.615509
 10
375.337555
 20
502.813477
 10
375.759766
 20
501.075653
 10
376.080933
 20
499.410614
 10
376.304474
 20
497.825531
 10
376.434814
 20
496.325897
 10
376.477203
 20
494.910095
  0
LWPOLYLINE
  5
352
330
26F
100
AcDbEntity
  8
0
  6
Continuous
 62
     0
370
     0
100
AcDbPolyline
 90
       39
 70
     0
 43
0.0
 10
377.13858
 20
494.93869
 10
377.09671
 20
496.354767
 10
376.967346
 20
497.859955
 10
376.74527
 20
499.450317
 10
376.426117
 20
501.120483
 10
376.006439
 20
502.863464
 10
375.484009
 20
504.670807
 10
374.85788
 20
506.532562
 10
374.128601
 20
508.437408
 10
373.298157
 20
510.372925
 10
372.370178
 20
512.325745
 10
371.349731
 20
514.28186
 10
370.243378
 20
516.226929
 10
369.05899
 20
518.14679
 10
367.805573
 20
520.027527
 10
366.492981
 20
521.856079
 10
365.131775
 20
523.620178
 10
363.73288
 20
525.309082
 10
362.307312
 20
526.913391
 10
360.865906
 20
528.425293
 10
359.419189
 20
529.838745
 10
357.97699
 20
531.149353
 10
356.548492
 20
532.35437
 10
355.141907
 20
533.452576
 10
353.761688
 20
534.446228
 10
352.366669
 20
535.36615
 10
350.946503
 20
536.214844
 10
349.509064
 20
536.981628
 10
348.06308
 20
537.656311
 10
346.618164
 20
538.228882
 10
345.18457
 20
538.690369
 10
343.77301
 20
539.032593
 10
342.39447
 20
539.248657
 10
341.059967
 20
539.333374
 10
339.780182
 20
539.283081
 10
338.565338
 20
539.096191
 10
337.424866
 20
538.77301
 10
336.367065
 20
538.315735
 10
335.393738
 20
537.724854
  0
LWPOLYLINE
  5
353
330
26F
100
AcDbEntity
  8
0
  6
Continuous
 62
     0
370
     0
100
AcDbPolyline
 90
       11
 70
     0
 43
0.0
 10
372.921509
 20
484.652557
 10
373.738678
 20
485.313354
 10
374.468964
 20
486.075867
 10
375.110077
 20
486.932739
 10
375.660858
 20
487.875854
 10
376.121338
 20
488.896362
 10
376.492584
 20
489.984924
 10
376.776642
 20
491.132019
 10
376.97641
 20
492.328064
 10
377.095581
 20
493.563629
 10
377.13858
 20
494.93869
  0
LWPOLYLINE
  5
354
330
26F
100
AcDbEntity
  8
0
  6
Continuous
 62
     0
370
     0
100
AcDbPolyline
 90
        3
 70
     0
 43
0.0
 10
347.115784
 20
512.333069
 10
346.97229
 20
513.100159
 10
346.910767
 20
513.974182
  0
LWPOLYLINE
  5
355
330
26F
100
AcDbEntity
  8
0
  6
Continuous
 62
     0
370
     0
100
AcDbPolyline
 90
       12
 70
     0
 43
0.0
 10
358.096893
 20
506.064392
 10
358.045654
 20
505.340118
 10
357.887787
 20
504.701843
 10
357.63208
 20
504.163422
 10
357.284119
 20
503.732727
 10
356.844696
 20
503.421051
 10
356.322205
 20
503.234436
 10
355.731537
 20
503.170044
 10
355.081604
 20
503.232208
 10
354.382751
 20
503.422394
 10
353.64917
 20
503.735229
 10
352.888367
 20
504.16748
  0
LWPOLYLINE
  5
356
330
26F
100
AcDbEntity
  8
0
  6
Continuous
 62
     0
370
     0
100
AcDbPolyline
 90
       24
 70
     0
 43
0.0
 10
346.910767
 20
513.974182
 10
346.962128
 20
514.698975
 10
347.120087
 20
515.337524
 10
347.376129
 20
515.876099
 10
347.724701
 20
516.306946
 10
348.164673
 20
516.618469
 10
348.687622
 20
516.804565
 10
349.279053
 20
516.86853
 10
349.929779
 20
516.805725
 10
350.629303
 20
516.614685
 10
351.363556
 20
516.300781
 10
352.118774
 20
515.87146
 10
352.881073
 20
515.332947
 10
353.636414
 20
514.695251
 10
354.370972
 20
513.971558
 10
355.070953
 20
513.17395
 10
355.722168
 20
512.317078
 10
356.314178
 20
511.417175
 10
356.838074
 20
510.491486
 10
357.278992
 20
509.557739
 10
357.628326
 20
508.633911
 10
357.885345
 20
507.73291
 10
358.044495
 20
506.870361
 10
358.096893
 20
506.064392
  0
ELLIPSE
  5
357
330
26F
100
AcDbEntity
  8
0
  6
Continuous
 62
     0
370
    30
100
AcDbEllipse
 10
359.501949
 20
514.967708
 30
0.0
 11
18.76388416884513
 21
-26.53613858303735
 31
0.0
210
0.0
220
0.0
230
1.0
 40
0.5
 41
0.6154796770017033
 42
3.141592713657525
  0
ELLIPSE
  5
358
330
26F
100
AcDbEntity
  8
0
  6
Continuous
 62
     0
370
    30
100
AcDbEllipse
 10
359.501949
 20
514.967708
 30
0.0
 11
18.76388416884513
 21
-26.53613858303735
 31
0.0
210
0.0
220
0.0
230
1.0
 40
0.5
 41
0.0000000600677286
 42
0.6154796770017033
  0
ELLIPSE
  5
359
330
26F
100
AcDbEntity
  8
0
  6
Continuous
 62
     0
370
     0
100
AcDbEllipse
 10
350.38347
 20
508.519969
 30
0.0
 11
2.886751410591557
 21
-4.082482858928822
 31
0.0
210
0.0
220
0.0
230
0.9999999999999998
 40
0.5
 41
0.6154796770016979
 42
3.141592713657527
  0
ELLIPSE
  5
35A
330
26F
100
AcDbEntity
  8
0
  6
Continuous
 62
     0
370
     0
100
AcDbEllipse
 10
350.38347
 20
508.519969
 30
0.0
 11
2.886751410591557
 21
-4.082482858928822
 31
0.0
210
0.0
220
0.0
230
0.9999999999999998
 40
0.5
 41
0.0000000559093474
 42
0.6154796770016979
  0
ELLIPSE
  5
35B
330
26F
100
AcDbEntity
  8
0
  6
Continuous
 62
     0
370
    30
100
AcDbEllipse
 10
348.697358
 20
507.327708
 30
0.0
 11
-2.886751410591557
 21
4.082482858928822
 31
0.0
210
0.0
220
0.0
230
-0.9999999999999998
 40
0.5
 41
2.526112976588085
 42
3.010312230459591
  0
ELLIPSE
  5
35C
330
26F
100
AcDbEntity
  8
0
  6
Continuous
 62
     0
370
    30
100
AcDbEllipse
 10
348.697358
 20
507.327708
 30
0.0
 11
-2.886751410591557
 21
4.082482858928822
 31
0.0
210
0.0
220
0.0
230
-0.9999999999999998
 40
0.5
 41
6.082850404788803
 42
8.80929828376767
  0
LWPOLYLINE
  5
35D
330
26F
100
AcDbEntity
  8
0
  6
Continuous
 62
     0
370
    30
100
AcDbPolyline
 90
        4
 70
     0
 43
0.0
 10
347.768829
 20
512.909241
 10
347.745026
 20
512.862671
 10
347.663971
 20
512.752258
 10
347.496735
 20
512.602478
  0
LWPOLYLINE
  5
35E
330
26F
100
AcDbEntity
  8
0
  6
Continuous
 62
     0
370
    30
100
AcDbPolyline
 90
        4
 70
     0
 43
0.0
 10
353.270233
 20
504.4375
 10
353.434723
 20
504.531494
 10
353.576172
 20
504.580048
 10
353.650177
 20
504.591736
  0
LINE
  5
35F
330
26F
100
AcDbEntity
  8
0
  6
Continuous
 62
     0
370
    30
100
AcDbLine
 10
351.860921
 20
503.44096
 30
0.0
 11
353.270222
 21
504.437486
 31
0.0
  0
LINE
  5
360
330
26F
100
AcDbEntity
  8
0
  6
Continuous
 62
     0
370
    30
100
AcDbLine
 10
345.810606
 20
511.41019
 30
0.0
 11
347.496718
 21
512.602452
 31
0.0
  0
LINE
  5
361
330
26F
100
AcDbEntity
  8
0
  6
Continuous
 62
     0
370
    30
100
AcDbLine
 10
372.921501
 20
484.652556
 30
0.0
 11
378.265834
 21
488.43157
 31
0.0
  0
LINE
  5
362
330
26F
100
AcDbEntity
  8
0
  6
Continuous
 62
     0
370
    30
100
AcDbLine
 10
335.393731
 20
537.724832
 30
0.0
 11
340.738064
 21
541.503846
 31
0.0
  0
LWPOLYLINE
  5
363
330
26F
100
AcDbEntity
  8
0
  6
Continuous
 62
     0
370
    30
100
AcDbPolyline
 90
       15
 70
     0
 43
0.0
 10
354.974823
 20
487.397949
 10
356.453278
 20
486.471832
 10
357.922607
 20
485.647858
 10
359.377106
 20
484.929352
 10
360.811157
 20
484.319305
 10
362.219238
 20
483.820404
 10
363.596039
 20
483.43512
 10
364.936401
 20
483.165253
 10
366.235229
 20
483.012573
 10
367.487457
 20
482.978638
 10
368.687988
 20
483.064697
 10
369.83136
 20
483.271149
 10
370.911896
 20
483.598053
 10
371.923828
 20
484.045135
 10
372.921509
 20
484.652557
  0
LWPOLYLINE
  5
364
330
26F
100
AcDbEntity
  8
0
  6
Continuous
 62
     0
370
    30
100
AcDbPolyline
 90
       17
 70
     0
 43
0.0
 10
335.393738
 20
537.724854
 10
334.533539
 20
537.028564
 10
333.761139
 20
536.219238
 10
333.081146
 20
535.302429
 10
332.495972
 20
534.28363
 10
332.007568
 20
533.168396
 10
331.61734
 20
531.96228
 10
331.325836
 20
530.670654
 10
331.133331
 20
529.29895
 10
331.039917
 20
527.852783
 10
331.045471
 20
526.337891
 10
331.149475
 20
524.760254
 10
331.351196
 20
523.126282
 10
331.649658
 20
521.442444
 10
332.043243
 20
519.715698
 10
332.530212
 20
517.953064
 10
333.143463
 20
516.061523
  0
LWPOLYLINE
  5
365
330
26F
100
AcDbEntity
  8
0
  6
Continuous
 62
     0
370
    30
100
AcDbPolyline
 90
        5
 70
     0
 43
0.0
 10
312.498505
 20
501.102325
 10
312.342133
 20
501.244171
 10
312.218964
 20
501.415741
 10
312.134674
 20
501.609375
 10
312.088409
 20
501.90979
  0
ARC
  5
366
330
26F
100
AcDbEntity
  8
0
  6
Continuous
 62
     0
370
    30
100
AcDbCircle
 10
313.087701
 20
505.104397
 30
0.0
 40
0.9993239308174322
100
AcDbArc
 50
125.996965
 51
180.040844
  0
ARC
  5
367
330
26F
100
AcDbEntity
  8
0
  6
Continuous
 62
     0
370
    30
100
AcDbCircle
 10
343.294217
 20
480.550179
 30
0.0
 40
0.9989916491770701
100
AcDbArc
 50
235.056081
 51
304.513792
  0
ARC
  5
368
330
26F
100
AcDbEntity
  8
0
  6
Continuous
 62
     0
370
    30
100
AcDbCircle
 10
3479.697017
 20
4971.678976
 30
0.0
 40
5478.88758503327
100
AcDbArc
 50
234.929957
 51
235.071274
  0
ARC
  5
369
330
26F
100
AcDbEntity
  8
0
  6
Continuous
 62
     0
370
    30
100
AcDbCircle
 10
1166.252416
 20
1676.350512
 30
0.0
 40
1452.572169061664
100
AcDbArc
 50
234.540519
 51
234.930677
  0
ARC
  5
36A
330
26F
100
AcDbEntity
  8
0
  6
Continuous
 62
     0
370
    30
100
AcDbCircle
 10
3566.483817
 20
5046.650204
 30
0.0
 40
5590.208090573826
100
AcDbArc
 50
234.402659
 51
234.542067
  0
LINE
  5
36B
330
26F
100
AcDbEntity
  8
0
  6
Continuous
 62
     0
370
    30
100
AcDbLine
 10
312.088387
 20
505.104305
 30
0.0
 11
312.088387
 21
501.909797
 31
0.0
  0
ARC
  5
36C
330
26F
100
AcDbEntity
  8
0
  6
Continuous
 62
     0
370
    30
100
AcDbCircle
 10
-1497.88128
 20
3160.347245
 30
0.0
 40
3252.343437443062
100
AcDbArc
 50
304.491316
 51
304.858234
  0
ARC
  5
36D
330
26F
100
AcDbEntity
  8
0
  6
Continuous
 62
     0
370
    30
100
AcDbCircle
 10
2242.859354
 20
-2147.392161
 30
0.0
 40
3281.206306009361
100
AcDbArc
 50
125.674381
 51
126.037026
  0
LINE
  5
36E
330
26F
100
AcDbEntity
  8
0
  6
Continuous
 62
     0
370
    30
100
AcDbLine
 10
345.868341
 20
511.328541
 30
0.0
 11
343.645292
 21
509.756608
 31
0.0
  0
ENDBLK
  5
370
330
26F
100
AcDbEntity
  8
0
100
AcDbBlockEnd
  0
BLOCK
  5
45D
330
372
100
AcDbEntity
  8
0
100
AcDbBlockBegin
  2
e
 70
     0
 10
-60.679016
 20
-0.000061
 30
0.0
  3
e
  1

  0
LINE
  5
373
330
372
100
AcDbEntity
  8
0
  6
Continuous
 62
     0
370
    30
100
AcDbLine
 10
-107.334922
 20
725.782677
 30
0.0
 11
-107.334922
 21
710.782677
 31
0.0
  0
LINE
  5
374
330
372
100
AcDbEntity
  8
0
  6
Continuous
 62
     0
370
    30
100
AcDbLine
 10
-107.37619
 20
701.449894
 30
0.0
 11
-107.334922
 21
710.782677
 31
0.0
  0
LINE
  5
375
330
372
100
AcDbEntity
  8
0
  6
Continuous
 62
     0
370
    30
100
AcDbLine
 10
-107.508843
 20
686.450481
 30
0.0
 11
-107.334922
 21
725.782677
 31
0.0
  0
LINE
  5
376
330
372
100
AcDbEntity
  8
0
  6
Continuous
 62
     0
370
    30
100
AcDbLine
 10
-107.334922
 20
710.782677
 30
0.0
 11
-107.077182
 21
710.782677
 31
0.0
  0
LINE
  5
377
330
372
100
AcDbEntity
  8
0
  6
Continuous
 62
     0
370
    30
100
AcDbLine
 10
-96.834922
 20
766.069765
 30
0.0
 11
-96.834922
 21
706.069765
 31
0.0
  0
LINE
  5
378
330
372
100
AcDbEntity
  8
0
  6
Continuous
 62
     0
370
    30
100
AcDbLine
 10
-97.365533
 20
646.072111
 30
0.0
 11
-96.834922
 21
766.069765
 31
0.0
  0
LINE
  5
379
330
372
100
AcDbEntity
  8
0
  6
Continuous
 62
     0
370
     0
100
AcDbLine
 10
-107.36072
 20
646.660527
 30
0.0
 11
-106.834922
 21
765.569765
 31
0.0
  0
LINE
  5
37A
330
372
100
AcDbEntity
  8
0
  6
Continuous
 62
     0
370
    30
100
AcDbLine
 10
-106.334922
 20
766.069765
 30
0.0
 11
-96.834922
 21
766.069765
 31
0.0
  0
LINE
  5
37B
330
372
100
AcDbEntity
  8
0
  6
Continuous
 62
     0
370
     0
100
AcDbLine
 10
-106.865162
 20
646.156125
 30
0.0
 11
-106.334922
 21
766.069765
 31
0.0
  0
LINE
  5
37C
330
372
100
AcDbEntity
  8
0
  6
Continuous
 62
     0
370
     0
100
AcDbLine
 10
-144.98535
 20
725.180615
 30
0.0
 11
-144.984899
 21
725.282677
 31
0.0
  0
LINE
  5
37D
330
372
100
AcDbEntity
  8
0
  6
Continuous
 62
     0
370
     0
100
AcDbLine
 10
-145.152926
 20
687.28342
 30
0.0
 11
-145.152474
 21
687.3855
 31
0.0
  0
LINE
  5
37E
330
372
100
AcDbEntity
  8
0
  6
Continuous
 62
     0
370
    30
100
AcDbLine
 10
-130.068912
 20
725.782677
 30
0.0
 11
-107.334922
 21
725.782677
 31
0.0
  0
LWPOLYLINE
  5
37F
330
372
100
AcDbEntity
  8
0
  6
Continuous
 62
     0
370
    30
100
AcDbPolyline
 90
       17
 70
     0
 43
0.0
 10
-138.068909
 20
725.782654
 10
-137.991776
 20
725.767029
 10
-137.763733
 20
725.722473
 10
-137.394516
 20
725.655823
 10
-136.898621
 20
725.577026
 10
-136.294678
 20
725.497925
 10
-135.604736
 20
725.430481
 10
-134.854401
 20
725.385132
 10
-134.072769
 20
725.36908
 10
-133.290955
 20
725.384949
 10
-132.540176
 20
725.430176
 10
-131.849503
 20
725.497498
 10
-131.244659
 20
725.576477
 10
-130.747543
 20
725.655273
 10
-130.377121
 20
725.721924
 10
-130.147552
 20
725.766724
 10
-130.068909
 20
725.782654
  0
LINE
  5
380
330
372
100
AcDbEntity
  8
0
  6
Continuous
 62
     0
370
    30
100
AcDbLine
 10
-144.484899
 20
725.782677
 30
0.0
 11
-138.068912
 21
725.782677
 31
0.0
  0
LINE
  5
381
330
372
100
AcDbEntity
  8
0
  6
Continuous
 62
     0
370
     0
100
AcDbLine
 10
-144.657367
 20
686.779018
 30
0.0
 11
-144.484899
 21
725.782677
 31
0.0
  0
ARC
  5
382
330
372
100
AcDbEntity
  8
0
  6
Continuous
 62
     0
370
    30
100
AcDbCircle
 10
-144.484899
 20
725.282677
 30
0.0
 40
0.5
100
AcDbArc
 50
90.0
 51
180.0
  0
ARC
  5
383
330
372
100
AcDbEntity
  8
0
  6
Continuous
 62
     0
370
    30
100
AcDbCircle
 10
-106.334922
 20
765.569765
 30
0.0
 40
0.5
100
AcDbArc
 50
90.0
 51
180.0
  0
LINE
  5
384
330
372
100
AcDbEntity
  8
0
  6
Continuous
 62
     0
370
     0
100
AcDbLine
 10
-130.068912
 20
732.783048
 30
0.0
 11
-130.242442
 21
732.783048
 31
0.0
  0
LINE
  5
385
330
372
100
AcDbEntity
  8
0
  6
Continuous
 62
     0
370
     0
100
AcDbLine
 10
-130.242442
 20
732.783048
 30
0.0
 11
-138.068912
 21
732.783048
 31
0.0
  0
LINE
  5
386
330
372
100
AcDbEntity
  8
0
  6
Continuous
 62
     0
370
    30
100
AcDbLine
 10
-130.720751
 20
733.283048
 30
0.0
 11
-137.568912
 21
733.283048
 31
0.0
  0
LINE
  5
387
330
372
100
AcDbEntity
  8
0
  6
Continuous
 62
     0
370
    30
100
AcDbLine
 10
-130.568912
 20
733.283048
 30
0.0
 11
-130.720751
 21
733.283048
 31
0.0
  0
ARC
  5
388
330
372
100
AcDbEntity
  8
0
  6
Continuous
 62
     0
370
    30
100
AcDbCircle
 10
-137.568921
 20
732.783045
 30
0.0
 40
0.500003533445875
100
AcDbArc
 50
90.010106
 51
179.999595
  0
ARC
  5
389
330
372
100
AcDbEntity
  8
0
  6
Continuous
 62
     0
370
    30
100
AcDbCircle
 10
-130.569047
 20
732.783054
 30
0.0
 40
0.49999399232341
100
AcDbArc
 50
359.999311
 51
89.985859
  0
LINE
  5
38A
330
372
100
AcDbEntity
  8
0
  6
Continuous
 62
     0
370
    30
100
AcDbLine
 10
-130.068912
 20
732.783048
 30
0.0
 11
-130.068912
 21
725.782677
 31
0.0
  0
LINE
  5
38B
330
372
100
AcDbEntity
  8
0
  6
Continuous
 62
     0
370
    30
100
AcDbLine
 10
-138.068912
 20
732.783048
 30
0.0
 11
-138.068912
 21
725.782677
 31
0.0
  0
ARC
  5
38C
330
372
100
AcDbEntity
  8
0
  6
Continuous
 62
     0
370
    30
100
AcDbCircle
 10
-106.860737
 20
646.656108
 30
0.0
 40
0.5000027409869732
100
AcDbArc
 50
179.493611
 51
269.492982
  0
ARC
  5
38D
330
372
100
AcDbEntity
  8
0
  6
Continuous
 62
     0
370
    30
100
AcDbCircle
 10
-144.652942
 20
687.279002
 30
0.0
 40
0.5000033410513881
100
AcDbArc
 50
179.726677
 51
269.492916
  0
LINE
  5
38E
330
372
100
AcDbEntity
  8
0
  6
Continuous
 62
     0
370
    30
100
AcDbLine
 10
-145.152939
 20
687.281387
 30
0.0
 11
-144.984894
 21
725.284835
 31
0.0
  0
LINE
  5
38F
330
372
100
AcDbEntity
  8
0
  6
Continuous
 62
     0
370
    30
100
AcDbLine
 10
-107.508843
 20
686.450481
 30
0.0
 11
-144.657367
 21
686.779018
 31
0.0
  0
LINE
  5
390
330
372
100
AcDbEntity
  8
0
  6
Continuous
 62
     0
370
    30
100
AcDbLine
 10
-97.365533
 20
646.072111
 30
0.0
 11
-106.865162
 21
646.156125
 31
0.0
  0
LINE
  5
391
330
372
100
AcDbEntity
  8
0
  6
Continuous
 62
     0
370
    30
100
AcDbLine
 10
-97.365533
 20
646.072111
 30
0.0
 11
-96.834922
 21
706.069765
 31
0.0
  0
LINE
  5
392
330
372
100
AcDbEntity
  8
0
  6
Continuous
 62
     0
370
    30
100
AcDbLine
 10
-107.37619
 20
701.449894
 30
0.0
 11
-107.11846
 21
701.447615
 31
0.0
  0
LINE
  5
393
330
372
100
AcDbEntity
  8
0
  6
Continuous
 62
     0
370
    30
100
AcDbLine
 10
-107.508843
 20
686.450481
 30
0.0
 11
-107.37619
 21
701.449894
 31
0.0
  0
LINE
  5
394
330
372
100
AcDbEntity
  8
0
  6
Continuous
 62
     0
370
     0
100
AcDbLine
 10
-112.380228
 20
856.070938
 30
0.0
 11
-117.130228
 21
856.070938
 31
0.0
  0
LINE
  5
395
330
372
100
AcDbEntity
  8
0
  6
Continuous
 62
     0
370
     0
100
AcDbLine
 10
-117.130227
 20
856.070938
 30
0.0
 11
-117.130227
 21
860.970938
 31
0.0
  0
LINE
  5
396
330
372
100
AcDbEntity
  8
0
  6
Continuous
 62
     0
370
     0
100
AcDbLine
 10
-117.130227
 20
851.170938
 30
0.0
 11
-117.130227
 21
856.070938
 31
0.0
  0
ARC
  5
397
330
372
100
AcDbEntity
  8
0
  6
Continuous
 62
     0
370
     0
100
AcDbCircle
 10
-110.424867
 20
606.883137
 30
0.0
 40
254.4523415791034
100
AcDbArc
 50
91.566354
 51
97.01533
  0
LINE
  5
398
330
372
100
AcDbEntity
  8
0
  6
Continuous
 62
     0
370
    30
100
AcDbLine
 10
-117.380228
 20
861.240399
 30
0.0
 11
-117.380227
 21
861.570945
 31
0.0
  0
LINE
  5
399
330
372
100
AcDbEntity
  8
0
  6
Continuous
 62
     0
370
     0
100
AcDbLine
 10
-141.516837
 20
859.441574
 30
0.0
 11
-141.515822
 21
859.440814
 31
0.0
  0
LINE
  5
39A
330
372
100
AcDbEntity
  8
0
  6
Continuous
 62
     0
370
     0
100
AcDbLine
 10
-141.515822
 20
859.440814
 30
0.0
 11
-141.50238
 21
859.430523
 31
0.0
  0
LWPOLYLINE
  5
39B
330
372
100
AcDbEntity
  8
0
  6
Continuous
 62
     0
370
     0
100
AcDbPolyline
 90
        3
 70
     0
 43
0.0
 10
-141.388916
 20
859.329712
 10
-133.228256
 20
859.3797
 10
-117.380226
 20
859.39801
  0
LINE
  5
39C
330
372
100
AcDbEntity
  8
0
  6
Continuous
 62
     0
370
    30
100
AcDbLine
 10
-117.380228
 20
859.398025
 30
0.0
 11
-117.380228
 21
861.240399
 31
0.0
  0
ARC
  5
39D
330
372
100
AcDbEntity
  8
0
  6
Continuous
 62
     0
370
     0
100
AcDbCircle
 10
-142.247129
 20
858.477924
 30
0.0
 40
1.209171183579235
100
AcDbArc
 50
44.784667
 51
51.981428
  0
LINE
  5
39E
330
372
100
AcDbEntity
  8
0
  6
Continuous
 62
     0
370
    30
100
AcDbLine
 10
-117.380228
 20
852.743853
 30
0.0
 11
-117.380228
 21
853.737255
 31
0.0
  0
LINE
  5
39F
330
372
100
AcDbEntity
  8
0
  6
Continuous
 62
     0
370
    30
100
AcDbLine
 10
-117.380228
 20
850.901477
 30
0.0
 11
-117.380228
 21
852.743853
 31
0.0
  0
LWPOLYLINE
  5
3A0
330
372
100
AcDbEntity
  8
0
  6
Continuous
 62
     0
370
    30
100
AcDbPolyline
 90
        4
 70
     0
 43
0.0
 10
-117.380226
 20
850.570923
 10
-117.380226
 20
850.592285
 10
-117.380226
 20
850.656372
 10
-117.380226
 20
850.901489
  0
LINE
  5
3A1
330
372
100
AcDbEntity
  8
0
  6
Continuous
 62
     0
370
    30
100
AcDbLine
 10
-117.380228
 20
858.404623
 30
0.0
 11
-117.380228
 21
859.398025
 31
0.0
  0
LINE
  5
3A2
330
372
100
AcDbEntity
  8
0
  6
Continuous
 62
     0
370
    30
100
AcDbLine
 10
-117.380228
 20
853.737255
 30
0.0
 11
-117.380228
 21
858.404623
 31
0.0
  0
ARC
  5
3A3
330
372
100
AcDbEntity
  8
0
  6
Continuous
 62
     0
370
     0
100
AcDbCircle
 10
-141.380183
 20
858.437972
 30
0.0
 40
1.000044577735699
100
AcDbArc
 50
97.018613
 51
179.996987
  0
LWPOLYLINE
  5
3A4
330
372
100
AcDbEntity
  8
0
  6
Continuous
 62
     0
370
     0
100
AcDbPolyline
 90
        5
 70
     0
 43
0.0
 10
-141.388962
 20
858.329773
 10
-141.391556
 20
858.707275
 10
-141.392487
 20
859.02887
 10
-141.391602
 20
859.24707
 10
-141.388916
 20
859.329712
  0
LWPOLYLINE
  5
3A5
330
372
100
AcDbEntity
  8
0
  6
Continuous
 62
     0
370
     0
100
AcDbPolyline
 90
        8
 70
     0
 43
0.0
 10
-117.380226
 20
858.404602
 10
-120.775414
 20
858.406616
 10
-124.186104
 20
858.405334
 10
-127.515236
 20
858.400391
 10
-130.831497
 20
858.391418
 10
-134.147659
 20
858.377869
 10
-137.463669
 20
858.359253
 10
-141.388962
 20
858.329773
  0
LINE
  5
3A6
330
372
100
AcDbEntity
  8
0
  6
Continuous
 62
     0
370
    30
100
AcDbLine
 10
-142.380228
 20
858.329795
 30
0.0
 11
-142.380228
 21
858.438025
 31
0.0
  0
ARC
  5
3A7
330
372
100
AcDbEntity
  8
0
  6
Continuous
 62
     0
370
     0
100
AcDbCircle
 10
-141.38018
 20
858.329708
 30
0.0
 40
1.000048611279989
100
AcDbArc
 50
90.500116
 51
179.995
  0
LINE
  5
3A8
330
372
100
AcDbEntity
  8
0
  6
Continuous
 62
     0
370
     0
100
AcDbLine
 10
-141.388955
 20
853.812081
 30
0.0
 11
-141.388955
 21
858.329797
 31
0.0
  0
LWPOLYLINE
  5
3A9
330
372
100
AcDbEntity
  8
0
  6
Continuous
 62
     0
370
     0
100
AcDbPolyline
 90
        8
 70
     0
 43
0.0
 10
-117.380226
 20
853.737244
 10
-120.782867
 20
853.735229
 10
-124.200676
 20
853.736572
 10
-127.536781
 20
853.741516
 10
-130.86026
 20
853.750549
 10
-134.18364
 20
853.76416
 10
-137.506866
 20
853.782898
 10
-141.388962
 20
853.812073
  0
LINE
  5
3AA
330
372
100
AcDbEntity
  8
0
  6
Continuous
 62
     0
370
     0
100
AcDbLine
 10
-141.516826
 20
852.700301
 30
0.0
 11
-141.515815
 21
852.701062
 31
0.0
  0
LINE
  5
3AB
330
372
100
AcDbEntity
  8
0
  6
Continuous
 62
     0
370
     0
100
AcDbLine
 10
-141.515815
 20
852.701062
 30
0.0
 11
-141.50238
 21
852.711354
 31
0.0
  0
ARC
  5
3AC
330
372
100
AcDbEntity
  8
0
  6
Continuous
 62
     0
370
     0
100
AcDbCircle
 10
-110.424867
 20
1105.25874
 30
0.0
 40
254.4523419088407
100
AcDbArc
 50
262.98467
 51
268.433646
  0
ARC
  5
3AD
330
372
100
AcDbEntity
  8
0
  6
Continuous
 62
     0
370
     0
100
AcDbCircle
 10
-142.250596
 20
853.667845
 30
0.0
 40
1.21437340752891
100
AcDbArc
 50
308.03431
 51
315.200249
  0
LWPOLYLINE
  5
3AE
330
372
100
AcDbEntity
  8
0
  6
Continuous
 62
     0
370
     0
100
AcDbPolyline
 90
        3
 70
     0
 43
0.0
 10
-141.388916
 20
852.812134
 10
-133.228256
 20
852.762146
 10
-117.380226
 20
852.743835
  0
LWPOLYLINE
  5
3AF
330
372
100
AcDbEntity
  8
0
  6
Continuous
 62
     0
370
     0
100
AcDbPolyline
 90
        5
 70
     0
 43
0.0
 10
-141.388962
 20
853.812073
 10
-141.391556
 20
853.43457
 10
-141.392487
 20
853.112976
 10
-141.391602
 20
852.894775
 10
-141.388916
 20
852.812134
  0
LINE
  5
3B0
330
372
100
AcDbEntity
  8
0
  6
Continuous
 62
     0
370
     0
100
AcDbLine
 10
-117.130228
 20
856.070938
 30
0.0
 11
-117.380228
 21
856.070938
 31
0.0
  0
LINE
  5
3B1
330
372
100
AcDbEntity
  8
0
  6
Continuous
 62
     0
370
    30
100
AcDbLine
 10
-142.380228
 20
853.812083
 30
0.0
 11
-142.380228
 21
853.703849
 31
0.0
  0
LINE
  5
3B2
330
372
100
AcDbEntity
  8
0
  6
Continuous
 62
     0
370
    30
100
AcDbLine
 10
-142.380228
 20
858.329795
 30
0.0
 11
-142.380228
 21
853.812083
 31
0.0
  0
LINE
  5
3B3
330
372
100
AcDbEntity
  8
0
  6
Continuous
 62
     0
370
     0
100
AcDbLine
 10
-141.388955
 20
853.812081
 30
0.0
 11
-142.380228
 21
853.812081
 31
0.0
  0
LINE
  5
3B4
330
372
100
AcDbEntity
  8
0
  6
Continuous
 62
     0
370
     0
100
AcDbLine
 10
-142.380228
 20
858.329798
 30
0.0
 11
-141.388955
 21
858.329798
 31
0.0
  0
ARC
  5
3B5
330
372
100
AcDbEntity
  8
0
  6
Continuous
 62
     0
370
     0
100
AcDbCircle
 10
-141.380183
 20
853.703905
 30
0.0
 40
1.000044581501818
100
AcDbArc
 50
180.003147
 51
262.981389
  0
ARC
  5
3B6
330
372
100
AcDbEntity
  8
0
  6
Continuous
 62
     0
370
     0
100
AcDbCircle
 10
-141.38018
 20
853.81217
 30
0.0
 40
1.000048610991218
100
AcDbArc
 50
180.005
 51
269.499793
  0
LINE
  5
3B7
330
372
100
AcDbEntity
  8
0
  6
Continuous
 62
     0
370
     0
100
AcDbLine
 10
-105.154528
 20
856.070938
 30
0.0
 11
-105.154526
 21
824.009986
 31
0.0
  0
LINE
  5
3B8
330
372
100
AcDbEntity
  8
0
  6
Continuous
 62
     0
370
     0
100
AcDbLine
 10
-105.154526
 20
888.13189
 30
0.0
 11
-105.154528
 21
856.070938
 31
0.0
  0
LINE
  5
3B9
330
372
100
AcDbEntity
  8
0
  6
Continuous
 62
     0
370
     0
100
AcDbLine
 10
-104.658257
 20
856.070938
 30
0.0
 11
-104.658255
 21
888.570938
 31
0.0
  0
LINE
  5
3BA
330
372
100
AcDbEntity
  8
0
  6
Continuous
 62
     0
370
     0
100
AcDbLine
 10
-104.658255
 20
823.570938
 30
0.0
 11
-104.658257
 21
856.070938
 31
0.0
  0
LINE
  5
3BB
330
372
100
AcDbEntity
  8
0
  6
Continuous
 62
     0
370
     0
100
AcDbLine
 10
-106.997062
 20
856.070938
 30
0.0
 11
-106.997049
 21
848.160749
 31
0.0
  0
LINE
  5
3BC
330
372
100
AcDbEntity
  8
0
  6
Continuous
 62
     0
370
     0
100
AcDbLine
 10
-106.997049
 20
863.981127
 30
0.0
 11
-106.997062
 21
856.070938
 31
0.0
  0
LINE
  5
3BD
330
372
100
AcDbEntity
  8
0
  6
Continuous
 62
     0
370
    30
100
AcDbLine
 10
-97.100227
 20
856.070938
 30
0.0
 11
-97.100227
 21
888.570938
 31
0.0
  0
LINE
  5
3BE
330
372
100
AcDbEntity
  8
0
  6
Continuous
 62
     0
370
    30
100
AcDbLine
 10
-97.100227
 20
823.570938
 30
0.0
 11
-97.100227
 21
856.070938
 31
0.0
  0
LWPOLYLINE
  5
3BF
330
372
100
AcDbEntity
  8
0
  6
Continuous
 62
     0
370
     0
100
AcDbPolyline
 90
       12
 70
     0
 43
0.0
 10
-102.22123
 20
823.570923
 10
-102.15596
 20
823.574158
 10
-101.964073
 20
823.582764
 10
-101.662766
 20
823.593994
 10
-101.27462
 20
823.60437
 10
-100.832611
 20
823.610535
 10
-100.371826
 20
823.610596
 10
-99.929604
 20
823.604431
 10
-99.540504
 20
823.594116
 10
-99.238571
 20
823.582825
 10
-99.046997
 20
823.574219
 10
-98.979225
 20
823.570923
  0
LINE
  5
3C0
330
372
100
AcDbEntity
  8
0
  6
Continuous
 62
     0
370
     0
100
AcDbLine
 10
-109.995704
 20
856.070938
 30
0.0
 11
-109.995704
 21
861.070938
 31
0.0
  0
LINE
  5
3C1
330
372
100
AcDbEntity
  8
0
  6
Continuous
 62
     0
370
     0
100
AcDbLine
 10
-109.995704
 20
851.070938
 30
0.0
 11
-109.995704
 21
856.070938
 31
0.0
  0
LINE
  5
3C2
330
372
100
AcDbEntity
  8
0
  6
Continuous
 62
     0
370
    30
100
AcDbLine
 10
-112.380227
 20
856.070938
 30
0.0
 11
-112.380227
 21
851.070938
 31
0.0
  0
LINE
  5
3C3
330
372
100
AcDbEntity
  8
0
  6
Continuous
 62
     0
370
    30
100
AcDbLine
 10
-112.380227
 20
861.070938
 30
0.0
 11
-112.380227
 21
856.070938
 31
0.0
  0
LINE
  5
3C4
330
372
100
AcDbEntity
  8
0
  6
Continuous
 62
     0
370
    30
100
AcDbLine
 10
-98.979227
 20
823.570938
 30
0.0
 11
-102.221227
 21
823.570938
 31
0.0
  0
ARC
  5
3C5
330
372
100
AcDbEntity
  8
0
  6
Continuous
 62
     0
370
    30
100
AcDbCircle
 10
-109.995705
 20
848.070938
 30
0.0
 40
3.000000042507338
100
AcDbArc
 50
1.736703
 51
90.0
  0
ARC
  5
3C6
330
372
100
AcDbEntity
  8
0
  6
Continuous
 62
     0
370
    30
100
AcDbCircle
 10
-109.995705
 20
864.070938
 30
0.0
 40
3.000000042538946
100
AcDbArc
 50
270.0
 51
358.263296
  0
LINE
  5
3C7
330
372
100
AcDbEntity
  8
0
  6
Continuous
 62
     0
370
    30
100
AcDbLine
 10
-112.380227
 20
851.070938
 30
0.0
 11
-109.995704
 21
851.070938
 31
0.0
  0
LINE
  5
3C8
330
372
100
AcDbEntity
  8
0
  6
Continuous
 62
     0
370
    30
100
AcDbLine
 10
-112.380227
 20
861.070938
 30
0.0
 11
-109.995704
 21
861.070938
 31
0.0
  0
LINE
  5
3C9
330
372
100
AcDbEntity
  8
0
  6
Continuous
 62
     0
370
    30
100
AcDbLine
 10
-104.658256
 20
823.570938
 30
0.0
 11
-102.221227
 21
823.570938
 31
0.0
  0
LINE
  5
3CA
330
372
100
AcDbEntity
  8
0
  6
Continuous
 62
     0
370
    30
100
AcDbLine
 10
-98.979227
 20
823.570938
 30
0.0
 11
-97.100227
 21
823.570938
 31
0.0
  0
LINE
  5
3CB
330
372
100
AcDbEntity
  8
0
  6
Continuous
 62
     0
370
    30
100
AcDbLine
 10
-104.658256
 20
888.570938
 30
0.0
 11
-97.100227
 21
888.570938
 31
0.0
  0
LWPOLYLINE
  5
3CC
330
372
100
AcDbEntity
  8
0
  6
Continuous
 62
     0
370
    30
100
AcDbPolyline
 90
       46
 70
     0
 43
0.0
 10
-105.154533
 20
888.131836
 10
-105.219604
 20
887.597473
 10
-105.283585
 20
887.062988
 10
-105.346474
 20
886.528381
 10
-105.408264
 20
885.993652
 10
-105.468956
 20
885.458801
 10
-105.528564
 20
884.923828
 10
-105.587067
 20
884.388733
 10
-105.644478
 20
883.853516
 10
-105.70079
 20
883.318176
 10
-105.756012
 20
882.782715
 10
-105.810135
 20
882.247192
 10
-105.863159
 20
881.711487
 10
-105.915092
 20
881.17572
 10
-105.965927
 20
880.639832
 10
-106.015671
 20
880.103882
 10
-106.064316
 20
879.567749
 10
-106.111862
 20
879.031616
 10
-106.158302
 20
878.4953
 10
-106.203651
 20
877.958923
 10
-106.247894
 20
877.422485
 10
-106.291031
 20
876.885925
 10
-106.333084
 20
876.349304
 10
-106.374062
 20
875.812561
 10
-106.413971
 20
875.275696
 10
-106.452782
 20
874.738831
 10
-106.490471
 20
874.201843
 10
-106.527016
 20
873.664795
 10
-106.562393
 20
873.127686
 10
-106.596581
 20
872.590576
 10
-106.62973
 20
872.053345
 10
-106.662079
 20
871.51593
 10
-106.693718
 20
870.978394
 10
-106.723961
 20
870.440857
 10
-106.751839
 20
869.903625
 10
-106.777397
 20
869.36676
 10
-106.803703
 20
868.829224
 10
-106.834305
 20
868.289978
 10
-106.866631
 20
867.749817
 10
-106.888016
 20
867.212646
 10
-106.886459
 20
866.68219
 10
-106.882065
 20
866.152222
 10
-106.924667
 20
865.6073
 10
-107.047852
 20
865.03717
 10
-107.136665
 20
864.477295
 10
-106.997055
 20
863.981079
  0
ARC
  5
3CD
330
372
100
AcDbEntity
  8
0
  6
Continuous
 62
     0
370
    30
100
AcDbCircle
 10
-104.658176
 20
824.071028
 30
0.0
 40
0.500089692180822
100
AcDbArc
 50
187.011132
 51
269.990913
  0
ARC
  5
3CE
330
372
100
AcDbEntity
  8
0
  6
Continuous
 62
     0
370
    30
100
AcDbCircle
 10
-104.658176
 20
888.070848
 30
0.0
 40
0.5000896921783209
100
AcDbArc
 50
90.009087
 51
172.988868
  0
ARC
  5
3CF
330
372
100
AcDbEntity
  8
0
  6
Continuous
 62
     0
370
    30
100
AcDbCircle
 10
-141.38015
 20
853.68936
 30
0.0
 40
1.000077725547773
100
AcDbArc
 50
180.003875
 51
262.040204
  0
ARC
  5
3D0
330
372
100
AcDbEntity
  8
0
  6
Continuous
 62
     0
370
    30
100
AcDbCircle
 10
-117.130191
 20
861.220974
 30
0.0
 40
0.2500359660579673
100
AcDbArc
 50
180.040652
 51
269.991764
  0
ARC
  5
3D1
330
372
100
AcDbEntity
  8
0
  6
Continuous
 62
     0
370
    30
100
AcDbCircle
 10
-117.130191
 20
850.920902
 30
0.0
 40
0.250035966054821
100
AcDbArc
 50
90.008236
 51
179.959348
  0
ARC
  5
3D2
330
372
100
AcDbEntity
  8
0
  6
Continuous
 62
     0
370
    30
100
AcDbCircle
 10
-108.570872
 20
1088.466863
 30
0.0
 40
238.0589831043499
100
AcDbArc
 50
262.044635
 51
267.87929
  0
ARC
  5
3D3
330
372
100
AcDbEntity
  8
0
  6
Continuous
 62
     0
370
    30
100
AcDbCircle
 10
-141.38015
 20
858.452516
 30
0.0
 40
1.00007732001737
100
AcDbArc
 50
97.959796
 51
179.996136
  0
ARC
  5
3D4
330
372
100
AcDbEntity
  8
0
  6
Continuous
 62
     0
370
    30
100
AcDbCircle
 10
-108.570872
 20
623.675014
 30
0.0
 40
238.0589820409683
100
AcDbArc
 50
92.12071
 51
97.955374
  0
LINE
  5
3D5
330
372
100
AcDbEntity
  8
0
  6
Continuous
 62
     0
370
    30
100
AcDbLine
 10
-112.380227
 20
851.170938
 30
0.0
 11
-117.130227
 21
851.170938
 31
0.0
  0
LINE
  5
3D6
330
372
100
AcDbEntity
  8
0
  6
Continuous
 62
     0
370
    30
100
AcDbLine
 10
-112.380227
 20
860.970938
 30
0.0
 11
-117.130227
 21
860.970938
 31
0.0
  0
LINE
  5
3D7
330
372
100
AcDbEntity
  8
0
  6
Continuous
 62
     0
370
     0
100
AcDbLine
 10
-112.380228
 20
956.070938
 30
0.0
 11
-117.130228
 21
956.070938
 31
0.0
  0
LINE
  5
3D8
330
372
100
AcDbEntity
  8
0
  6
Continuous
 62
     0
370
     0
100
AcDbLine
 10
-117.130227
 20
956.070938
 30
0.0
 11
-117.130227
 21
960.970938
 31
0.0
  0
LINE
  5
3D9
330
372
100
AcDbEntity
  8
0
  6
Continuous
 62
     0
370
     0
100
AcDbLine
 10
-117.130227
 20
951.170938
 30
0.0
 11
-117.130227
 21
956.070938
 31
0.0
  0
ARC
  5
3DA
330
372
100
AcDbEntity
  8
0
  6
Continuous
 62
     0
370
     0
100
AcDbCircle
 10
-110.424867
 20
706.883137
 30
0.0
 40
254.452341579135
100
AcDbArc
 50
91.566354
 51
97.01533
  0
LINE
  5
3DB
330
372
100
AcDbEntity
  8
0
  6
Continuous
 62
     0
370
    30
100
AcDbLine
 10
-117.380228
 20
961.240399
 30
0.0
 11
-117.380227
 21
961.570945
 31
0.0
  0
LINE
  5
3DC
330
372
100
AcDbEntity
  8
0
  6
Continuous
 62
     0
370
     0
100
AcDbLine
 10
-141.516837
 20
959.441574
 30
0.0
 11
-141.515822
 21
959.440814
 31
0.0
  0
LINE
  5
3DD
330
372
100
AcDbEntity
  8
0
  6
Continuous
 62
     0
370
     0
100
AcDbLine
 10
-141.515822
 20
959.440814
 30
0.0
 11
-141.50238
 21
959.430523
 31
0.0
  0
LWPOLYLINE
  5
3DE
330
372
100
AcDbEntity
  8
0
  6
Continuous
 62
     0
370
     0
100
AcDbPolyline
 90
        3
 70
     0
 43
0.0
 10
-141.388916
 20
959.329712
 10
-133.228256
 20
959.3797
 10
-117.380226
 20
959.39801
  0
LINE
  5
3DF
330
372
100
AcDbEntity
  8
0
  6
Continuous
 62
     0
370
    30
100
AcDbLine
 10
-117.380228
 20
959.398025
 30
0.0
 11
-117.380228
 21
961.240399
 31
0.0
  0
ARC
  5
3E0
330
372
100
AcDbEntity
  8
0
  6
Continuous
 62
     0
370
     0
100
AcDbCircle
 10
-142.247129
 20
958.477924
 30
0.0
 40
1.209171186018443
100
AcDbArc
 50
44.784667
 51
51.981428
  0
LINE
  5
3E1
330
372
100
AcDbEntity
  8
0
  6
Continuous
 62
     0
370
    30
100
AcDbLine
 10
-117.380228
 20
952.743853
 30
0.0
 11
-117.380228
 21
953.737255
 31
0.0
  0
LINE
  5
3E2
330
372
100
AcDbEntity
  8
0
  6
Continuous
 62
     0
370
    30
100
AcDbLine
 10
-117.380228
 20
950.901477
 30
0.0
 11
-117.380228
 21
952.743853
 31
0.0
  0
LWPOLYLINE
  5
3E3
330
372
100
AcDbEntity
  8
0
  6
Continuous
 62
     0
370
    30
100
AcDbPolyline
 90
        4
 70
     0
 43
0.0
 10
-117.380226
 20
950.570923
 10
-117.380226
 20
950.592285
 10
-117.380226
 20
950.656372
 10
-117.380226
 20
950.901489
  0
LINE
  5
3E4
330
372
100
AcDbEntity
  8
0
  6
Continuous
 62
     0
370
    30
100
AcDbLine
 10
-117.380228
 20
958.404623
 30
0.0
 11
-117.380228
 21
959.398025
 31
0.0
  0
LINE
  5
3E5
330
372
100
AcDbEntity
  8
0
  6
Continuous
 62
     0
370
    30
100
AcDbLine
 10
-117.380228
 20
953.737255
 30
0.0
 11
-117.380228
 21
958.404623
 31
0.0
  0
ARC
  5
3E6
330
372
100
AcDbEntity
  8
0
  6
Continuous
 62
     0
370
     0
100
AcDbCircle
 10
-141.380183
 20
958.437972
 30
0.0
 40
1.000044577736543
100
AcDbArc
 50
97.018613
 51
179.996987
  0
LWPOLYLINE
  5
3E7
330
372
100
AcDbEntity
  8
0
  6
Continuous
 62
     0
370
     0
100
AcDbPolyline
 90
        5
 70
     0
 43
0.0
 10
-141.388962
 20
958.329773
 10
-141.391556
 20
958.707275
 10
-141.392487
 20
959.02887
 10
-141.391602
 20
959.24707
 10
-141.388916
 20
959.329712
  0
LWPOLYLINE
  5
3E8
330
372
100
AcDbEntity
  8
0
  6
Continuous
 62
     0
370
     0
100
AcDbPolyline
 90
        8
 70
     0
 43
0.0
 10
-117.380226
 20
958.404602
 10
-120.775414
 20
958.406616
 10
-124.186104
 20
958.405334
 10
-127.515236
 20
958.400391
 10
-130.831497
 20
958.391418
 10
-134.147659
 20
958.377869
 10
-137.463669
 20
958.359253
 10
-141.388962
 20
958.329773
  0
LINE
  5
3E9
330
372
100
AcDbEntity
  8
0
  6
Continuous
 62
     0
370
    30
100
AcDbLine
 10
-142.380228
 20
958.329795
 30
0.0
 11
-142.380228
 21
958.438025
 31
0.0
  0
ARC
  5
3EA
330
372
100
AcDbEntity
  8
0
  6
Continuous
 62
     0
370
     0
100
AcDbCircle
 10
-141.38018
 20
958.329708
 30
0.0
 40
1.000048611277215
100
AcDbArc
 50
90.500116
 51
179.995
  0
LINE
  5
3EB
330
372
100
AcDbEntity
  8
0
  6
Continuous
 62
     0
370
     0
100
AcDbLine
 10
-141.388955
 20
953.812081
 30
0.0
 11
-141.388955
 21
958.329797
 31
0.0
  0
LWPOLYLINE
  5
3EC
330
372
100
AcDbEntity
  8
0
  6
Continuous
 62
     0
370
     0
100
AcDbPolyline
 90
        8
 70
     0
 43
0.0
 10
-117.380226
 20
953.737244
 10
-120.782867
 20
953.735229
 10
-124.200676
 20
953.736572
 10
-127.536781
 20
953.741516
 10
-130.86026
 20
953.750549
 10
-134.18364
 20
953.76416
 10
-137.506866
 20
953.782898
 10
-141.388962
 20
953.812073
  0
LINE
  5
3ED
330
372
100
AcDbEntity
  8
0
  6
Continuous
 62
     0
370
     0
100
AcDbLine
 10
-141.516826
 20
952.700301
 30
0.0
 11
-141.515815
 21
952.701062
 31
0.0
  0
LINE
  5
3EE
330
372
100
AcDbEntity
  8
0
  6
Continuous
 62
     0
370
     0
100
AcDbLine
 10
-141.515815
 20
952.701062
 30
0.0
 11
-141.50238
 21
952.711354
 31
0.0
  0
ARC
  5
3EF
330
372
100
AcDbEntity
  8
0
  6
Continuous
 62
     0
370
     0
100
AcDbCircle
 10
-110.424867
 20
1205.25874
 30
0.0
 40
254.4523419088434
100
AcDbArc
 50
262.98467
 51
268.433646
  0
ARC
  5
3F0
330
372
100
AcDbEntity
  8
0
  6
Continuous
 62
     0
370
     0
100
AcDbCircle
 10
-142.250596
 20
953.667845
 30
0.0
 40
1.214373405252711
100
AcDbArc
 50
308.03431
 51
315.200249
  0
LWPOLYLINE
  5
3F1
330
372
100
AcDbEntity
  8
0
  6
Continuous
 62
     0
370
     0
100
AcDbPolyline
 90
        3
 70
     0
 43
0.0
 10
-141.388916
 20
952.812134
 10
-133.228256
 20
952.762146
 10
-117.380226
 20
952.743835
  0
LWPOLYLINE
  5
3F2
330
372
100
AcDbEntity
  8
0
  6
Continuous
 62
     0
370
     0
100
AcDbPolyline
 90
        5
 70
     0
 43
0.0
 10
-141.388962
 20
953.812073
 10
-141.391556
 20
953.43457
 10
-141.392487
 20
953.112976
 10
-141.391602
 20
952.894775
 10
-141.388916
 20
952.812134
  0
LINE
  5
3F3
330
372
100
AcDbEntity
  8
0
  6
Continuous
 62
     0
370
     0
100
AcDbLine
 10
-117.130228
 20
956.070938
 30
0.0
 11
-117.380228
 21
956.070938
 31
0.0
  0
LINE
  5
3F4
330
372
100
AcDbEntity
  8
0
  6
Continuous
 62
     0
370
    30
100
AcDbLine
 10
-142.380228
 20
953.812083
 30
0.0
 11
-142.380228
 21
953.703849
 31
0.0
  0
LINE
  5
3F5
330
372
100
AcDbEntity
  8
0
  6
Continuous
 62
     0
370
    30
100
AcDbLine
 10
-142.380228
 20
958.329795
 30
0.0
 11
-142.380228
 21
953.812083
 31
0.0
  0
LINE
  5
3F6
330
372
100
AcDbEntity
  8
0
  6
Continuous
 62
     0
370
     0
100
AcDbLine
 10
-141.388955
 20
953.812081
 30
0.0
 11
-142.380228
 21
953.812081
 31
0.0
  0
LINE
  5
3F7
330
372
100
AcDbEntity
  8
0
  6
Continuous
 62
     0
370
     0
100
AcDbLine
 10
-142.380228
 20
958.329798
 30
0.0
 11
-141.388955
 21
958.329798
 31
0.0
  0
ARC
  5
3F8
330
372
100
AcDbEntity
  8
0
  6
Continuous
 62
     0
370
     0
100
AcDbCircle
 10
-141.380183
 20
953.703905
 30
0.0
 40
1.00004458148951
100
AcDbArc
 50
180.003147
 51
262.981389
  0
ARC
  5
3F9
330
372
100
AcDbEntity
  8
0
  6
Continuous
 62
     0
370
     0
100
AcDbCircle
 10
-141.38018
 20
953.81217
 30
0.0
 40
1.00004861098403
100
AcDbArc
 50
180.005
 51
269.499793
  0
LINE
  5
3FA
330
372
100
AcDbEntity
  8
0
  6
Continuous
 62
     0
370
     0
100
AcDbLine
 10
-105.154528
 20
956.070938
 30
0.0
 11
-105.154526
 21
924.009986
 31
0.0
  0
LINE
  5
3FB
330
372
100
AcDbEntity
  8
0
  6
Continuous
 62
     0
370
     0
100
AcDbLine
 10
-105.154526
 20
988.13189
 30
0.0
 11
-105.154528
 21
956.070938
 31
0.0
  0
LINE
  5
3FC
330
372
100
AcDbEntity
  8
0
  6
Continuous
 62
     0
370
     0
100
AcDbLine
 10
-104.658257
 20
956.070938
 30
0.0
 11
-104.658255
 21
988.570938
 31
0.0
  0
LINE
  5
3FD
330
372
100
AcDbEntity
  8
0
  6
Continuous
 62
     0
370
     0
100
AcDbLine
 10
-104.658255
 20
923.570938
 30
0.0
 11
-104.658257
 21
956.070938
 31
0.0
  0
LINE
  5
3FE
330
372
100
AcDbEntity
  8
0
  6
Continuous
 62
     0
370
     0
100
AcDbLine
 10
-106.997062
 20
956.070938
 30
0.0
 11
-106.997049
 21
948.160749
 31
0.0
  0
LINE
  5
3FF
330
372
100
AcDbEntity
  8
0
  6
Continuous
 62
     0
370
     0
100
AcDbLine
 10
-106.997049
 20
963.981127
 30
0.0
 11
-106.997062
 21
956.070938
 31
0.0
  0
LINE
  5
400
330
372
100
AcDbEntity
  8
0
  6
Continuous
 62
     0
370
    30
100
AcDbLine
 10
-97.100227
 20
956.070938
 30
0.0
 11
-97.100227
 21
988.570938
 31
0.0
  0
LINE
  5
401
330
372
100
AcDbEntity
  8
0
  6
Continuous
 62
     0
370
    30
100
AcDbLine
 10
-97.100227
 20
923.570938
 30
0.0
 11
-97.100227
 21
956.070938
 31
0.0
  0
LWPOLYLINE
  5
402
330
372
100
AcDbEntity
  8
0
  6
Continuous
 62
     0
370
     0
100
AcDbPolyline
 90
       12
 70
     0
 43
0.0
 10
-102.22123
 20
923.570923
 10
-102.15596
 20
923.574158
 10
-101.964073
 20
923.582764
 10
-101.662766
 20
923.593994
 10
-101.27462
 20
923.60437
 10
-100.832611
 20
923.610535
 10
-100.371826
 20
923.610596
 10
-99.929604
 20
923.604431
 10
-99.540504
 20
923.594116
 10
-99.238571
 20
923.582825
 10
-99.046997
 20
923.574219
 10
-98.979225
 20
923.570923
  0
LINE
  5
403
330
372
100
AcDbEntity
  8
0
  6
Continuous
 62
     0
370
     0
100
AcDbLine
 10
-109.995704
 20
956.070938
 30
0.0
 11
-109.995704
 21
961.070938
 31
0.0
  0
LINE
  5
404
330
372
100
AcDbEntity
  8
0
  6
Continuous
 62
     0
370
     0
100
AcDbLine
 10
-109.995704
 20
951.070938
 30
0.0
 11
-109.995704
 21
956.070938
 31
0.0
  0
LINE
  5
405
330
372
100
AcDbEntity
  8
0
  6
Continuous
 62
     0
370
    30
100
AcDbLine
 10
-112.380227
 20
956.070938
 30
0.0
 11
-112.380227
 21
951.070938
 31
0.0
  0
LINE
  5
406
330
372
100
AcDbEntity
  8
0
  6
Continuous
 62
     0
370
    30
100
AcDbLine
 10
-112.380227
 20
961.070938
 30
0.0
 11
-112.380227
 21
956.070938
 31
0.0
  0
LINE
  5
407
330
372
100
AcDbEntity
  8
0
  6
Continuous
 62
     0
370
    30
100
AcDbLine
 10
-98.979227
 20
923.570938
 30
0.0
 11
-102.221227
 21
923.570938
 31
0.0
  0
ARC
  5
408
330
372
100
AcDbEntity
  8
0
  6
Continuous
 62
     0
370
    30
100
AcDbCircle
 10
-109.995705
 20
948.070938
 30
0.0
 40
3.000000042507347
100
AcDbArc
 50
1.736703
 51
90.0
  0
ARC
  5
409
330
372
100
AcDbEntity
  8
0
  6
Continuous
 62
     0
370
    30
100
AcDbCircle
 10
-109.995705
 20
964.070938
 30
0.0
 40
3.000000042538124
100
AcDbArc
 50
270.0
 51
358.263296
  0
LINE
  5
40A
330
372
100
AcDbEntity
  8
0
  6
Continuous
 62
     0
370
    30
100
AcDbLine
 10
-112.380227
 20
951.070938
 30
0.0
 11
-109.995704
 21
951.070938
 31
0.0
  0
LINE
  5
40B
330
372
100
AcDbEntity
  8
0
  6
Continuous
 62
     0
370
    30
100
AcDbLine
 10
-112.380227
 20
961.070938
 30
0.0
 11
-109.995704
 21
961.070938
 31
0.0
  0
LINE
  5
40C
330
372
100
AcDbEntity
  8
0
  6
Continuous
 62
     0
370
    30
100
AcDbLine
 10
-104.658256
 20
923.570938
 30
0.0
 11
-102.221227
 21
923.570938
 31
0.0
  0
LINE
  5
40D
330
372
100
AcDbEntity
  8
0
  6
Continuous
 62
     0
370
    30
100
AcDbLine
 10
-98.979227
 20
923.570938
 30
0.0
 11
-97.100227
 21
923.570938
 31
0.0
  0
LINE
  5
40E
330
372
100
AcDbEntity
  8
0
  6
Continuous
 62
     0
370
    30
100
AcDbLine
 10
-104.658256
 20
988.570938
 30
0.0
 11
-97.100227
 21
988.570938
 31
0.0
  0
LWPOLYLINE
  5
40F
330
372
100
AcDbEntity
  8
0
  6
Continuous
 62
     0
370
    30
100
AcDbPolyline
 90
       46
 70
     0
 43
0.0
 10
-105.154533
 20
988.131836
 10
-105.219604
 20
987.597473
 10
-105.283585
 20
987.062988
 10
-105.346474
 20
986.528381
 10
-105.408264
 20
985.993652
 10
-105.468956
 20
985.458801
 10
-105.528564
 20
984.923828
 10
-105.587067
 20
984.388733
 10
-105.644478
 20
983.853516
 10
-105.70079
 20
983.318176
 10
-105.756012
 20
982.782715
 10
-105.810135
 20
982.247192
 10
-105.863159
 20
981.711487
 10
-105.915092
 20
981.17572
 10
-105.965927
 20
980.639832
 10
-106.015671
 20
980.103882
 10
-106.064316
 20
979.567749
 10
-106.111862
 20
979.031616
 10
-106.158302
 20
978.4953
 10
-106.203651
 20
977.958923
 10
-106.247894
 20
977.422485
 10
-106.291031
 20
976.885925
 10
-106.333084
 20
976.349304
 10
-106.374062
 20
975.812561
 10
-106.413971
 20
975.275696
 10
-106.452782
 20
974.738831
 10
-106.490471
 20
974.201843
 10
-106.527016
 20
973.664795
 10
-106.562393
 20
973.127686
 10
-106.596581
 20
972.590576
 10
-106.62973
 20
972.053345
 10
-106.662079
 20
971.51593
 10
-106.693718
 20
970.978394
 10
-106.723961
 20
970.440857
 10
-106.751839
 20
969.903625
 10
-106.777397
 20
969.36676
 10
-106.803703
 20
968.829224
 10
-106.834305
 20
968.289978
 10
-106.866631
 20
967.749817
 10
-106.888016
 20
967.212646
 10
-106.886459
 20
966.68219
 10
-106.882065
 20
966.152222
 10
-106.924667
 20
965.6073
 10
-107.047852
 20
965.03717
 10
-107.136665
 20
964.477295
 10
-106.997055
 20
963.981079
  0
ARC
  5
410
330
372
100
AcDbEntity
  8
0
  6
Continuous
 62
     0
370
    30
100
AcDbCircle
 10
-104.658176
 20
924.071028
 30
0.0
 40
0.5000896921708122
100
AcDbArc
 50
187.011132
 51
269.990913
  0
ARC
  5
411
330
372
100
AcDbEntity
  8
0
  6
Continuous
 62
     0
370
    30
100
AcDbCircle
 10
-104.658176
 20
988.070848
 30
0.0
 40
0.500089692166392
100
AcDbArc
 50
90.009087
 51
172.988868
  0
ARC
  5
412
330
372
100
AcDbEntity
  8
0
  6
Continuous
 62
     0
370
    30
100
AcDbCircle
 10
-141.38015
 20
953.68936
 30
0.0
 40
1.000077725541394
100
AcDbArc
 50
180.003875
 51
262.040204
  0
ARC
  5
413
330
372
100
AcDbEntity
  8
0
  6
Continuous
 62
     0
370
    30
100
AcDbCircle
 10
-117.130191
 20
961.220974
 30
0.0
 40
0.2500359660518925
100
AcDbArc
 50
180.040652
 51
269.991764
  0
ARC
  5
414
330
372
100
AcDbEntity
  8
0
  6
Continuous
 62
     0
370
    30
100
AcDbCircle
 10
-117.130191
 20
950.920902
 30
0.0
 40
0.2500359660715207
100
AcDbArc
 50
90.008236
 51
179.959348
  0
ARC
  5
415
330
372
100
AcDbEntity
  8
0
  6
Continuous
 62
     0
370
    30
100
AcDbCircle
 10
-108.570872
 20
1188.466863
 30
0.0
 40
238.0589831043772
100
AcDbArc
 50
262.044635
 51
267.87929
  0
ARC
  5
416
330
372
100
AcDbEntity
  8
0
  6
Continuous
 62
     0
370
    30
100
AcDbCircle
 10
-141.38015
 20
958.452516
 30
0.0
 40
1.000077320017968
100
AcDbArc
 50
97.959796
 51
179.996136
  0
ARC
  5
417
330
372
100
AcDbEntity
  8
0
  6
Continuous
 62
     0
370
    30
100
AcDbCircle
 10
-108.570872
 20
723.675014
 30
0.0
 40
238.0589820409213
100
AcDbArc
 50
92.12071
 51
97.955374
  0
LINE
  5
418
330
372
100
AcDbEntity
  8
0
  6
Continuous
 62
     0
370
    30
100
AcDbLine
 10
-112.380227
 20
951.170938
 30
0.0
 11
-117.130227
 21
951.170938
 31
0.0
  0
LINE
  5
419
330
372
100
AcDbEntity
  8
0
  6
Continuous
 62
     0
370
    30
100
AcDbLine
 10
-112.380227
 20
960.970938
 30
0.0
 11
-117.130227
 21
960.970938
 31
0.0
  0
LINE
  5
41A
330
372
100
AcDbEntity
  8
0
  6
Continuous
 62
     0
370
     0
100
AcDbLine
 10
-112.380228
 20
1056.070938
 30
0.0
 11
-117.130228
 21
1056.070938
 31
0.0
  0
LINE
  5
41B
330
372
100
AcDbEntity
  8
0
  6
Continuous
 62
     0
370
     0
100
AcDbLine
 10
-117.130227
 20
1056.070938
 30
0.0
 11
-117.130227
 21
1060.970938
 31
0.0
  0
LINE
  5
41C
330
372
100
AcDbEntity
  8
0
  6
Continuous
 62
     0
370
     0
100
AcDbLine
 10
-117.130227
 20
1051.170938
 30
0.0
 11
-117.130227
 21
1056.070938
 31
0.0
  0
ARC
  5
41D
330
372
100
AcDbEntity
  8
0
  6
Continuous
 62
     0
370
     0
100
AcDbCircle
 10
-110.424867
 20
806.883137
 30
0.0
 40
254.4523415790875
100
AcDbArc
 50
91.566354
 51
97.01533
  0
LINE
  5
41E
330
372
100
AcDbEntity
  8
0
  6
Continuous
 62
     0
370
    30
100
AcDbLine
 10
-117.380228
 20
1061.240399
 30
0.0
 11
-117.380227
 21
1061.570945
 31
0.0
  0
LINE
  5
41F
330
372
100
AcDbEntity
  8
0
  6
Continuous
 62
     0
370
     0
100
AcDbLine
 10
-141.516837
 20
1059.441574
 30
0.0
 11
-141.515822
 21
1059.440814
 31
0.0
  0
LINE
  5
420
330
372
100
AcDbEntity
  8
0
  6
Continuous
 62
     0
370
     0
100
AcDbLine
 10
-141.515822
 20
1059.440814
 30
0.0
 11
-141.50238
 21
1059.430523
 31
0.0
  0
LWPOLYLINE
  5
421
330
372
100
AcDbEntity
  8
0
  6
Continuous
 62
     0
370
     0
100
AcDbPolyline
 90
        3
 70
     0
 43
0.0
 10
-141.388916
 20
1059.329712
 10
-133.228256
 20
1059.379761
 10
-117.380226
 20
1059.398071
  0
LINE
  5
422
330
372
100
AcDbEntity
  8
0
  6
Continuous
 62
     0
370
    30
100
AcDbLine
 10
-117.380228
 20
1059.398025
 30
0.0
 11
-117.380228
 21
1061.240399
 31
0.0
  0
ARC
  5
423
330
372
100
AcDbEntity
  8
0
  6
Continuous
 62
     0
370
     0
100
AcDbCircle
 10
-142.247129
 20
1058.477924
 30
0.0
 40
1.20917118230481
100
AcDbArc
 50
44.784667
 51
51.981428
  0
LINE
  5
424
330
372
100
AcDbEntity
  8
0
  6
Continuous
 62
     0
370
    30
100
AcDbLine
 10
-117.380228
 20
1052.743853
 30
0.0
 11
-117.380228
 21
1053.737255
 31
0.0
  0
LINE
  5
425
330
372
100
AcDbEntity
  8
0
  6
Continuous
 62
     0
370
    30
100
AcDbLine
 10
-117.380228
 20
1050.901477
 30
0.0
 11
-117.380228
 21
1052.743853
 31
0.0
  0
LWPOLYLINE
  5
426
330
372
100
AcDbEntity
  8
0
  6
Continuous
 62
     0
370
    30
100
AcDbPolyline
 90
        4
 70
     0
 43
0.0
 10
-117.380226
 20
1050.570923
 10
-117.380226
 20
1050.592285
 10
-117.380226
 20
1050.656372
 10
-117.380226
 20
1050.901489
  0
LINE
  5
427
330
372
100
AcDbEntity
  8
0
  6
Continuous
 62
     0
370
    30
100
AcDbLine
 10
-117.380228
 20
1058.404623
 30
0.0
 11
-117.380228
 21
1059.398025
 31
0.0
  0
LINE
  5
428
330
372
100
AcDbEntity
  8
0
  6
Continuous
 62
     0
370
    30
100
AcDbLine
 10
-117.380228
 20
1053.737255
 30
0.0
 11
-117.380228
 21
1058.404623
 31
0.0
  0
ARC
  5
429
330
372
100
AcDbEntity
  8
0
  6
Continuous
 62
     0
370
     0
100
AcDbCircle
 10
-141.380183
 20
1058.437972
 30
0.0
 40
1.000044577744466
100
AcDbArc
 50
97.018613
 51
179.996987
  0
LWPOLYLINE
  5
42A
330
372
100
AcDbEntity
  8
0
  6
Continuous
 62
     0
370
     0
100
AcDbPolyline
 90
        5
 70
     0
 43
0.0
 10
-141.388962
 20
1058.329834
 10
-141.391556
 20
1058.707275
 10
-141.392487
 20
1059.028931
 10
-141.391602
 20
1059.24707
 10
-141.388916
 20
1059.329712
  0
LWPOLYLINE
  5
42B
330
372
100
AcDbEntity
  8
0
  6
Continuous
 62
     0
370
     0
100
AcDbPolyline
 90
        8
 70
     0
 43
0.0
 10
-117.380226
 20
1058.404663
 10
-120.775414
 20
1058.406616
 10
-124.186104
 20
1058.405273
 10
-127.515236
 20
1058.400391
 10
-130.831497
 20
1058.391479
 10
-134.147659
 20
1058.37793
 10
-137.463669
 20
1058.359253
 10
-141.388962
 20
1058.329834
  0
LINE
  5
42C
330
372
100
AcDbEntity
  8
0
  6
Continuous
 62
     0
370
    30
100
AcDbLine
 10
-142.380228
 20
1058.329795
 30
0.0
 11
-142.380228
 21
1058.438025
 31
0.0
  0
ARC
  5
42D
330
372
100
AcDbEntity
  8
0
  6
Continuous
 62
     0
370
     0
100
AcDbCircle
 10
-141.38018
 20
1058.329708
 30
0.0
 40
1.000048611301148
100
AcDbArc
 50
90.500116
 51
179.995
  0
LINE
  5
42E
330
372
100
AcDbEntity
  8
0
  6
Continuous
 62
     0
370
     0
100
AcDbLine
 10
-141.388955
 20
1053.812081
 30
0.0
 11
-141.388955
 21
1058.329797
 31
0.0
  0
LWPOLYLINE
  5
42F
330
372
100
AcDbEntity
  8
0
  6
Continuous
 62
     0
370
     0
100
AcDbPolyline
 90
        8
 70
     0
 43
0.0
 10
-117.380226
 20
1053.737305
 10
-120.782867
 20
1053.735229
 10
-124.200676
 20
1053.736572
 10
-127.536781
 20
1053.741577
 10
-130.86026
 20
1053.75061
 10
-134.18364
 20
1053.76416
 10
-137.506866
 20
1053.782959
 10
-141.388962
 20
1053.812134
  0
LINE
  5
430
330
372
100
AcDbEntity
  8
0
  6
Continuous
 62
     0
370
     0
100
AcDbLine
 10
-141.516826
 20
1052.700301
 30
0.0
 11
-141.515815
 21
1052.701062
 31
0.0
  0
LINE
  5
431
330
372
100
AcDbEntity
  8
0
  6
Continuous
 62
     0
370
     0
100
AcDbLine
 10
-141.515815
 20
1052.701062
 30
0.0
 11
-141.50238
 21
1052.711354
 31
0.0
  0
ARC
  5
432
330
372
100
AcDbEntity
  8
0
  6
Continuous
 62
     0
370
     0
100
AcDbCircle
 10
-110.424867
 20
1305.25874
 30
0.0
 40
254.4523419088947
100
AcDbArc
 50
262.98467
 51
268.433646
  0
ARC
  5
433
330
372
100
AcDbEntity
  8
0
  6
Continuous
 62
     0
370
     0
100
AcDbCircle
 10
-142.250596
 20
1053.667845
 30
0.0
 40
1.214373406991804
100
AcDbArc
 50
308.03431
 51
315.200249
  0
LWPOLYLINE
  5
434
330
372
100
AcDbEntity
  8
0
  6
Continuous
 62
     0
370
     0
100
AcDbPolyline
 90
        3
 70
     0
 43
0.0
 10
-141.388916
 20
1052.812134
 10
-133.228256
 20
1052.762207
 10
-117.380226
 20
1052.743896
  0
LWPOLYLINE
  5
435
330
372
100
AcDbEntity
  8
0
  6
Continuous
 62
     0
370
     0
100
AcDbPolyline
 90
        5
 70
     0
 43
0.0
 10
-141.388962
 20
1053.812134
 10
-141.391556
 20
1053.43457
 10
-141.392487
 20
1053.113037
 10
-141.391602
 20
1052.894775
 10
-141.388916
 20
1052.812134
  0
LINE
  5
436
330
372
100
AcDbEntity
  8
0
  6
Continuous
 62
     0
370
     0
100
AcDbLine
 10
-117.130228
 20
1056.070938
 30
0.0
 11
-117.380228
 21
1056.070938
 31
0.0
  0
LINE
  5
437
330
372
100
AcDbEntity
  8
0
  6
Continuous
 62
     0
370
    30
100
AcDbLine
 10
-142.380228
 20
1053.812083
 30
0.0
 11
-142.380228
 21
1053.703849
 31
0.0
  0
LINE
  5
438
330
372
100
AcDbEntity
  8
0
  6
Continuous
 62
     0
370
    30
100
AcDbLine
 10
-142.380228
 20
1058.329795
 30
0.0
 11
-142.380228
 21
1053.812083
 31
0.0
  0
LINE
  5
439
330
372
100
AcDbEntity
  8
0
  6
Continuous
 62
     0
370
     0
100
AcDbLine
 10
-141.388955
 20
1053.812081
 30
0.0
 11
-142.380228
 21
1053.812081
 31
0.0
  0
LINE
  5
43A
330
372
100
AcDbEntity
  8
0
  6
Continuous
 62
     0
370
     0
100
AcDbLine
 10
-142.380228
 20
1058.329798
 30
0.0
 11
-141.388955
 21
1058.329798
 31
0.0
  0
ARC
  5
43B
330
372
100
AcDbEntity
  8
0
  6
Continuous
 62
     0
370
     0
100
AcDbCircle
 10
-141.380183
 20
1053.703905
 30
0.0
 40
1.000044581489805
100
AcDbArc
 50
180.003147
 51
262.981389
  0
ARC
  5
43C
330
372
100
AcDbEntity
  8
0
  6
Continuous
 62
     0
370
     0
100
AcDbCircle
 10
-141.38018
 20
1053.81217
 30
0.0
 40
1.000048610975698
100
AcDbArc
 50
180.005
 51
269.499793
  0
LINE
  5
43D
330
372
100
AcDbEntity
  8
0
  6
Continuous
 62
     0
370
     0
100
AcDbLine
 10
-105.154528
 20
1056.070938
 30
0.0
 11
-105.154526
 21
1024.009986
 31
0.0
  0
LINE
  5
43E
330
372
100
AcDbEntity
  8
0
  6
Continuous
 62
     0
370
     0
100
AcDbLine
 10
-105.154526
 20
1088.13189
 30
0.0
 11
-105.154528
 21
1056.070938
 31
0.0
  0
LINE
  5
43F
330
372
100
AcDbEntity
  8
0
  6
Continuous
 62
     0
370
     0
100
AcDbLine
 10
-104.658257
 20
1056.070938
 30
0.0
 11
-104.658255
 21
1088.570938
 31
0.0
  0
LINE
  5
440
330
372
100
AcDbEntity
  8
0
  6
Continuous
 62
     0
370
     0
100
AcDbLine
 10
-104.658255
 20
1023.570938
 30
0.0
 11
-104.658257
 21
1056.070938
 31
0.0
  0
LINE
  5
441
330
372
100
AcDbEntity
  8
0
  6
Continuous
 62
     0
370
     0
100
AcDbLine
 10
-106.997062
 20
1056.070938
 30
0.0
 11
-106.997049
 21
1048.160749
 31
0.0
  0
LINE
  5
442
330
372
100
AcDbEntity
  8
0
  6
Continuous
 62
     0
370
     0
100
AcDbLine
 10
-106.997049
 20
1063.981127
 30
0.0
 11
-106.997062
 21
1056.070938
 31
0.0
  0
LINE
  5
443
330
372
100
AcDbEntity
  8
0
  6
Continuous
 62
     0
370
    30
100
AcDbLine
 10
-97.100227
 20
1056.070938
 30
0.0
 11
-97.100227
 21
1088.570938
 31
0.0
  0
LINE
  5
444
330
372
100
AcDbEntity
  8
0
  6
Continuous
 62
     0
370
    30
100
AcDbLine
 10
-97.100227
 20
1023.570938
 30
0.0
 11
-97.100227
 21
1056.070938
 31
0.0
  0
LWPOLYLINE
  5
445
330
372
100
AcDbEntity
  8
0
  6
Continuous
 62
     0
370
     0
100
AcDbPolyline
 90
       12
 70
     0
 43
0.0
 10
-102.22123
 20
1023.570923
 10
-102.15596
 20
1023.574158
 10
-101.964073
 20
1023.582764
 10
-101.662766
 20
1023.593994
 10
-101.27462
 20
1023.60437
 10
-100.832611
 20
1023.610535
 10
-100.371826
 20
1023.610596
 10
-99.929604
 20
1023.604431
 10
-99.540504
 20
1023.594116
 10
-99.238571
 20
1023.582825
 10
-99.046997
 20
1023.574219
 10
-98.979225
 20
1023.570923
  0
LINE
  5
446
330
372
100
AcDbEntity
  8
0
  6
Continuous
 62
     0
370
     0
100
AcDbLine
 10
-109.995704
 20
1056.070938
 30
0.0
 11
-109.995704
 21
1061.070938
 31
0.0
  0
LINE
  5
447
330
372
100
AcDbEntity
  8
0
  6
Continuous
 62
     0
370
     0
100
AcDbLine
 10
-109.995704
 20
1051.070938
 30
0.0
 11
-109.995704
 21
1056.070938
 31
0.0
  0
LINE
  5
448
330
372
100
AcDbEntity
  8
0
  6
Continuous
 62
     0
370
    30
100
AcDbLine
 10
-112.380227
 20
1056.070938
 30
0.0
 11
-112.380227
 21
1051.070938
 31
0.0
  0
LINE
  5
449
330
372
100
AcDbEntity
  8
0
  6
Continuous
 62
     0
370
    30
100
AcDbLine
 10
-112.380227
 20
1061.070938
 30
0.0
 11
-112.380227
 21
1056.070938
 31
0.0
  0
LINE
  5
44A
330
372
100
AcDbEntity
  8
0
  6
Continuous
 62
     0
370
    30
100
AcDbLine
 10
-98.979227
 20
1023.570938
 30
0.0
 11
-102.221227
 21
1023.570938
 31
0.0
  0
ARC
  5
44B
330
372
100
AcDbEntity
  8
0
  6
Continuous
 62
     0
370
    30
100
AcDbCircle
 10
-109.995705
 20
1048.070938
 30
0.0
 40
3.000000042510421
100
AcDbArc
 50
1.736703
 51
90.0
  0
ARC
  5
44C
330
372
100
AcDbEntity
  8
0
  6
Continuous
 62
     0
370
    30
100
AcDbCircle
 10
-109.995705
 20
1064.070938
 30
0.0
 40
3.000000042540353
100
AcDbArc
 50
270.0
 51
358.263296
  0
LINE
  5
44D
330
372
100
AcDbEntity
  8
0
  6
Continuous
 62
     0
370
    30
100
AcDbLine
 10
-112.380227
 20
1051.070938
 30
0.0
 11
-109.995704
 21
1051.070938
 31
0.0
  0
LINE
  5
44E
330
372
100
AcDbEntity
  8
0
  6
Continuous
 62
     0
370
    30
100
AcDbLine
 10
-112.380227
 20
1061.070938
 30
0.0
 11
-109.995704
 21
1061.070938
 31
0.0
  0
LINE
  5
44F
330
372
100
AcDbEntity
  8
0
  6
Continuous
 62
     0
370
    30
100
AcDbLine
 10
-104.658256
 20
1023.570938
 30
0.0
 11
-102.221227
 21
1023.570938
 31
0.0
  0
LINE
  5
450
330
372
100
AcDbEntity
  8
0
  6
Continuous
 62
     0
370
    30
100
AcDbLine
 10
-98.979227
 20
1023.570938
 30
0.0
 11
-97.100227
 21
1023.570938
 31
0.0
  0
LINE
  5
451
330
372
100
AcDbEntity
  8
0
  6
Continuous
 62
     0
370
    30
100
AcDbLine
 10
-104.658256
 20
1088.570938
 30
0.0
 11
-97.100227
 21
1088.570938
 31
0.0
  0
LWPOLYLINE
  5
452
330
372
100
AcDbEntity
  8
0
  6
Continuous
 62
     0
370
    30
100
AcDbPolyline
 90
       46
 70
     0
 43
0.0
 10
-105.154533
 20
1088.131836
 10
-105.219604
 20
1087.597534
 10
-105.283585
 20
1087.062988
 10
-105.346474
 20
1086.528442
 10
-105.408264
 20
1085.993652
 10
-105.468956
 20
1085.458862
 10
-105.528564
 20
1084.923828
 10
-105.587067
 20
1084.388794
 10
-105.644478
 20
1083.853516
 10
-105.70079
 20
1083.318237
 10
-105.756012
 20
1082.782715
 10
-105.810135
 20
1082.247192
 10
-105.863159
 20
1081.711548
 10
-105.915092
 20
1081.175781
 10
-105.965927
 20
1080.639893
 10
-106.015671
 20
1080.103882
 10
-106.064316
 20
1079.567749
 10
-106.111862
 20
1079.031616
 10
-106.158302
 20
1078.495361
 10
-106.203651
 20
1077.958984
 10
-106.247894
 20
1077.422485
 10
-106.291031
 20
1076.885864
 10
-106.333084
 20
1076.349243
 10
-106.374062
 20
1075.8125
 10
-106.413971
 20
1075.275757
 10
-106.452782
 20
1074.73877
 10
-106.490471
 20
1074.201782
 10
-106.527016
 20
1073.664795
 10
-106.562393
 20
1073.127686
 10
-106.596581
 20
1072.590576
 10
-106.62973
 20
1072.053345
 10
-106.662079
 20
1071.515991
 10
-106.693718
 20
1070.978394
 10
-106.723961
 20
1070.440796
 10
-106.751839
 20
1069.903687
 10
-106.777397
 20
1069.366699
 10
-106.803703
 20
1068.829224
 10
-106.834305
 20
1068.290039
 10
-106.866631
 20
1067.749878
 10
-106.888016
 20
1067.212646
 10
-106.886459
 20
1066.682129
 10
-106.882065
 20
1066.152222
 10
-106.924667
 20
1065.6073
 10
-107.047852
 20
1065.037231
 10
-107.136665
 20
1064.477295
 10
-106.997055
 20
1063.981079
  0
ARC
  5
453
330
372
100
AcDbEntity
  8
0
  6
Continuous
 62
     0
370
    30
100
AcDbCircle
 10
-104.658176
 20
1024.071028
 30
0.0
 40
0.500089692144815
100
AcDbArc
 50
187.011132
 51
269.990913
  0
ARC
  5
454
330
372
100
AcDbEntity
  8
0
  6
Continuous
 62
     0
370
    30
100
AcDbCircle
 10
-104.658176
 20
1088.070848
 30
0.0
 40
0.500089692247613
100
AcDbArc
 50
90.009087
 51
172.988868
  0
ARC
  5
455
330
372
100
AcDbEntity
  8
0
  6
Continuous
 62
     0
370
    30
100
AcDbCircle
 10
-141.38015
 20
1053.68936
 30
0.0
 40
1.000077725568821
100
AcDbArc
 50
180.003875
 51
262.040204
  0
ARC
  5
456
330
372
100
AcDbEntity
  8
0
  6
Continuous
 62
     0
370
    30
100
AcDbCircle
 10
-117.130191
 20
1061.220974
 30
0.0
 40
0.250035966028935
100
AcDbArc
 50
180.040652
 51
269.991764
  0
ARC
  5
457
330
372
100
AcDbEntity
  8
0
  6
Continuous
 62
     0
370
    30
100
AcDbCircle
 10
-117.130191
 20
1050.920902
 30
0.0
 40
0.2500359660544082
100
AcDbArc
 50
90.008236
 51
179.959348
  0
ARC
  5
458
330
372
100
AcDbEntity
  8
0
  6
Continuous
 62
     0
370
    30
100
AcDbCircle
 10
-108.570872
 20
1288.466863
 30
0.0
 40
238.0589831043781
100
AcDbArc
 50
262.044635
 51
267.87929
  0
ARC
  5
459
330
372
100
AcDbEntity
  8
0
  6
Continuous
 62
     0
370
    30
100
AcDbCircle
 10
-141.38015
 20
1058.452516
 30
0.0
 40
1.000077320023945
100
AcDbArc
 50
97.959796
 51
179.996136
  0
ARC
  5
45A
330
372
100
AcDbEntity
  8
0
  6
Continuous
 62
     0
370
    30
100
AcDbCircle
 10
-108.570872
 20
823.675014
 30
0.0
 40
238.0589820409939
100
AcDbArc
 50
92.12071
 51
97.955374
  0
LINE
  5
45B
330
372
100
AcDbEntity
  8
0
  6
Continuous
 62
     0
370
    30
100
AcDbLine
 10
-112.380227
 20
1051.170938
 30
0.0
 11
-117.130227
 21
1051.170938
 31
0.0
  0
LINE
  5
45C
330
372
100
AcDbEntity
  8
0
  6
Continuous
 62
     0
370
    30
100
AcDbLine
 10
-112.380227
 20
1060.970938
 30
0.0
 11
-117.130227
 21
1060.970938
 31
0.0
  0
ENDBLK
  5
45E
330
372
100
AcDbEntity
  8
0
100
AcDbBlockEnd
  0
ENDSEC
  0
SECTION
  2
ENTITIES
  0
INSERT
  5
131
330
1F
100
AcDbEntity
  8
0
  6
Continuous
 62
   250
370
     0
100
AcDbBlockReference
  2
a
 10
17.136677
 20
99.038429
 30
0.0
  0
INSERT
  5
17B
330
1F
100
AcDbEntity
  8
0
  6
Continuous
 62
   250
370
     0
100
AcDbBlockReference
  2
b
 10
54.410412
 20
331.15757
 30
0.0
  0
INSERT
  5
26E
330
1F
100
AcDbEntity
  8
0
  6
Continuous
 62
   250
370
     0
100
AcDbBlockReference
  2
c
 10
101.963131
 20
105.487831
 30
0.0
  0
INSERT
  5
371
330
1F
100
AcDbEntity
  8
0
  6
Continuous
 62
   250
370
     0
100
AcDbBlockReference
  2
d
 10
115.806271
 20
175.5658
 30
0.0
  0
INSERT
  5
45F
330
1F
100
AcDbEntity
  8
0
  6
Continuous
 62
   250
370
     0
100
AcDbBlockReference
  2
e
 10
-60.679016
 20
-0.000061
 30
0.0
  0
ENDSEC
  0
SECTION
  2
OBJECTS
  0
DICTIONARY
  5
C
330
0
100
AcDbDictionary
281
     1
  3
ACAD_GROUP
350
D
  3
ACAD_LAYOUT
350
1A
  3
ACAD_MLEADERSTYLE
350
462
  3
ACAD_MLINESTYLE
350
17
  3
ACAD_PLOTSETTINGS
350
19
  3
ACAD_PLOTSTYLENAME
350
E
  3
ACAD_VISUALSTYLE
350
2A
  3
AcDbVariableDictionary
350
460
  0
DICTIONARY
  5
D
102
{ACAD_REACTORS
330
C
102
}
330
C
100
AcDbDictionary
281
     1
  0
DICTIONARY
  5
1A
102
{ACAD_REACTORS
330
C
102
}
330
C
100
AcDbDictionary
281
     1
  3
Layout1
350
1E
  3
Layout2
350
26
  3
Model
350
22
  0
DICTIONARY
  5
462
102
{ACAD_REACTORS
330
C
102
}
330
C
100
AcDbDictionary
281
     1
  0
DICTIONARY
  5
17
102
{ACAD_REACTORS
330
C
102
}
330
C
100
AcDbDictionary
281
     1
  3
Standard
350
18
  0
DICTIONARY
  5
19
102
{ACAD_REACTORS
330
C
102
}
330
C
100
AcDbDictionary
281
     1
  0
ACDBDICTIONARYWDFLT
  5
E
102
{ACAD_REACTORS
330
C
102
}
330
C
100
AcDbDictionary
281
     1
  3
Normal
350
F
100
AcDbDictionaryWithDefault
340
F
  0
DICTIONARY
  5
2A
102
{ACAD_REACTORS
330
C
102
}
330
C
100
AcDbDictionary
281
     1
  3
2dWireframe
350
2F
  3
3D Hidden
350
31
  3
3dWireframe
350
30
  3
Basic
350
32
  3
Brighten
350
36
  3
ColorChange
350
3A
  3
Conceptual
350
34
  3
Dim
350
35
  3
Facepattern
350
39
  3
Flat
350
2B
  3
FlatWithEdges
350
2C
  3
Gouraud
350
2D
  3
GouraudWithEdges
350
2E
  3
Linepattern
350
38
  3
Realistic
350
33
  3
Thicken
350
37
  0
DICTIONARY
  5
460
102
{ACAD_REACTORS
330
C
102
}
330
C
100
AcDbDictionary
281
     1
  3
PSOLHEIGHT
350
464
  3
PSOLWIDTH
350
463
  0
LAYOUT
  5
1E
102
{ACAD_REACTORS
330
1A
102
}
330
1A
100
AcDbPlotSettings
  1

  2
none_device
  4

  6

 40
0.0
 41
0.0
 42
0.0
 43
0.0
 44
0.0
 45
0.0
 46
0.0
 47
0.0
 48
0.0
 49
0.0
140
0.0
141
0.0
142
1.0
143
1.0
 70
   688
 72
     0
 73
     0
 74
     5
  7

 75
    16
147
1.0
148
0.0
149
0.0
100
AcDbLayout
  1
Layout1
 70
     1
 71
     1
 10
0.0
 20
0.0
 11
420.0
 21
297.0
 12
0.0
 22
0.0
 32
0.0
 14
1.000000E+20
 24
1.000000E+20
 34
1.000000E+20
 15
-1.000000E+20
 25
-1.000000E+20
 35
-1.000000E+20
146
0.0
 13
0.0
 23
0.0
 33
0.0
 16
1.0
 26
0.0
 36
0.0
 17
0.0
 27
1.0
 37
0.0
 76
     0
330
1B
  0
LAYOUT
  5
26
102
{ACAD_REACTORS
330
1A
102
}
330
1A
100
AcDbPlotSettings
  1

  2
none_device
  4

  6

 40
0.0
 41
0.0
 42
0.0
 43
0.0
 44
0.0
 45
0.0
 46
0.0
 47
0.0
 48
0.0
 49
0.0
140
0.0
141
0.0
142
1.0
143
1.0
 70
   688
 72
     0
 73
     0
 74
     5
  7

 75
    16
147
1.0
148
0.0
149
0.0
100
AcDbLayout
  1
Layout2
 70
     1
 71
     2
 10
0.0
 20
0.0
 11
0.0
 21
0.0
 12
0.0
 22
0.0
 32
0.0
 14
0.0
 24
0.0
 34
0.0
 15
0.0
 25
0.0
 35
0.0
146
0.0
 13
0.0
 23
0.0
 33
0.0
 16
1.0
 26
0.0
 36
0.0
 17
0.0
 27
1.0
 37
0.0
 76
     0
330
23
  0
LAYOUT
  5
22
102
{ACAD_REACTORS
330
1A
102
}
330
1A
100
AcDbPlotSettings
  1

  2
none_device
  4

  6

 40
0.0
 41
0.0
 42
0.0
 43
0.0
 44
0.0
 45
0.0
 46
0.0
 47
0.0
 48
0.0
 49
0.0
140
0.0
141
0.0
142
1.0
143
1.0
 70
  1712
 72
     0
 73
     0
 74
     0
  7

 75
     0
147
1.0
148
0.0
149
0.0
100
AcDbLayout
  1
Model
 70
     1
 71
     0
 10
-145.152939
 20
175.789246
 11
401.924927
 21
1088.571045
 12
0.0
 22
0.0
 32
0.0
 14
-145.152939
 24
175.789246
 34
0.0
 15
401.924927
 25
1088.571045
 35
0.0
146
0.0
 13
0.0
 23
0.0
 33
0.0
 16
1.0
 26
0.0
 36
0.0
 17
0.0
 27
1.0
 37
0.0
 76
     0
330
1F
331
29
  0
MLINESTYLE
  5
18
102
{ACAD_REACTORS
330
17
102
}
330
17
100
AcDbMlineStyle
  2
Standard
 70
     0
  3

 62
   256
 51
90.0
 52
90.0
 71
     2
 49
0.5
 62
   256
  6
BYLAYER
 49
-0.5
 62
   256
  6
BYLAYER
  0
ACDBPLACEHOLDER
  5
F
102
{ACAD_REACTORS
330
E
102
}
330
E
  0
VISUALSTYLE
  5
2F
102
{ACAD_REACTORS
330
2A
102
}
330
2A
100
AcDbVisualStyle
  2
2dWireframe
 70
     4
 71
     0
 72
     2
 73
     0
 90
        0
 40
-0.6
 41
-30.0
 62
     5
 63
     7
 74
     1
 91
        4
 64
     7
 65
   257
 75
     1
175
     1
 42
1.0
 92
        0
 66
   257
 43
1.0
 76
     1
 77
     6
 78
     2
 67
     7
 79
     5
170
     0
171
     0
290
     0
174
     0
 93
        1
 44
0.0
173
     0
291
     0
 45
0.0
1001
ACAD
1000
AcDbSavedByObjectVersion
1070
     0
  0
VISUALSTYLE
  5
31
102
{ACAD_REACTORS
330
2A
102
}
330
2A
100
AcDbVisualStyle
  2
3D Hidden
 70
     6
 71
     1
 72
     2
 73
     2
 90
        0
 40
-0.6
 41
-30.0
 62
     5
 63
     7
 74
     2
 91
        2
 64
     7
 65
   257
 75
     2
175
     1
 42
40.0
 92
        0
 66
   257
 43
1.0
 76
     1
 77
     6
 78
     2
 67
     7
 79
     3
170
     0
171
     0
290
     0
174
     0
 93
        1
 44
0.0
173
     0
291
     0
 45
0.0
1001
ACAD
1000
AcDbSavedByObjectVersion
1070
     0
  0
VISUALSTYLE
  5
30
102
{ACAD_REACTORS
330
2A
102
}
330
2A
100
AcDbVisualStyle
  2
3dWireframe
 70
     5
 71
     0
 72
     2
 73
     0
 90
        0
 40
-0.6
 41
-30.0
 62
     5
 63
     7
 74
     1
 91
        4
 64
     7
 65
   257
 75
     1
175
     1
 42
1.0
 92
        0
 66
   257
 43
1.0
 76
     1
 77
     6
 78
     2
 67
     7
 79
     5
170
     0
171
     0
290
     0
174
     0
 93
        1
 44
0.0
173
     0
291
     0
 45
0.0
1001
ACAD
1000
AcDbSavedByObjectVersion
1070
     0
  0
VISUALSTYLE
  5
32
102
{ACAD_REACTORS
330
2A
102
}
330
2A
100
AcDbVisualStyle
  2
Basic
 70
     7
 71
     1
 72
     0
 73
     1
 90
        0
 40
-0.6
 41
-30.0
 62
     5
 63
     7
 74
     0
 91
        4
 64
     7
 65
   257
 75
     1
175
     1
 42
1.0
 92
        8
 66
     7
 43
1.0
 76
     1
 77
     6
 78
     2
 67
     7
 79
     5
170
     0
171
     0
290
     0
174
     0
 93
        1
 44
0.0
173
     0
291
     1
 45
0.0
1001
ACAD
1000
AcDbSavedByObjectVersion
1070
     0
  0
VISUALSTYLE
  5
36
102
{ACAD_REACTORS
330
2A
102
}
330
2A
100
AcDbVisualStyle
  2
Brighten
 70
    12
 71
     2
 72
     2
 73
     0
 90
        0
 40
-0.6
 41
-30.0
 62
     5
 63
     7
 74
     1
 91
        4
 64
     7
 65
   257
 75
     1
175
     1
 42
1.0
 92
        8
 66
     7
 43
1.0
 76
     1
 77
     6
 78
     2
 67
     7
 79
     5
170
     0
171
     0
290
     0
174
     0
 93
        1
 44
50.0
173
     0
291
     1
 45
0.0
1001
ACAD
1000
AcDbSavedByObjectVersion
1070
     0
  0
VISUALSTYLE
  5
3A
102
{ACAD_REACTORS
330
2A
102
}
330
2A
100
AcDbVisualStyle
  2
ColorChange
 70
    16
 71
     2
 72
     2
 73
     3
 90
        0
 40
-0.6
 41
-30.0
 62
     5
 63
     8
 74
     1
 91
        4
 64
     7
 65
   257
 75
     1
175
     1
 42
1.0
 92
        8
 66
     8
 43
1.0
 76
     1
 77
     6
 78
     2
 67
     7
 79
     5
170
     0
171
     0
290
     0
174
     0
 93
        1
 44
0.0
173
     0
291
     1
 45
0.0
1001
ACAD
1000
AcDbSavedByObjectVersion
1070
     0
  0
VISUALSTYLE
  5
34
102
{ACAD_REACTORS
330
2A
102
}
330
2A
100
AcDbVisualStyle
  2
Conceptual
 70
     9
 71
     3
 72
     2
 73
     0
 90
        0
 40
-0.6
 41
-30.0
 62
     5
 63
     7
 74
     2
 91
        2
 64
     7
 65
   257
 75
     1
175
     1
 42
40.0
 92
        8
 66
     7
 43
1.0
 76
     1
 77
     6
 78
     2
 67
     7
 79
     3
170
     0
171
     0
290
     0
174
     0
 93
        1
 44
0.0
173
     0
291
     0
 45
0.0
1001
ACAD
1000
AcDbSavedByObjectVersion
1070
     0
  0
VISUALSTYLE
  5
35
102
{ACAD_REACTORS
330
2A
102
}
330
2A
100
AcDbVisualStyle
  2
Dim
 70
    11
 71
     2
 72
     2
 73
     0
 90
        0
 40
-0.6
 41
-30.0
 62
     5
 63
     7
 74
     1
 91
        4
 64
     7
 65
   257
 75
     1
175
     1
 42
1.0
 92
        8
 66
     7
 43
1.0
 76
     1
 77
     6
 78
     2
 67
     7
 79
     5
170
     0
171
     0
290
     0
174
     0
 93
        1
 44
-50.0
173
     0
291
     1
 45
0.0
1001
ACAD
1000
AcDbSavedByObjectVersion
1070
     0
  0
VISUALSTYLE
  5
39
102
{ACAD_REACTORS
330
2A
102
}
330
2A
100
AcDbVisualStyle
  2
Facepattern
 70
    15
 71
     2
 72
     2
 73
     0
 90
        0
 40
-0.6
 41
-30.0
 62
     5
 63
     7
 74
     1
 91
        4
 64
     7
 65
   257
 75
     1
175
     1
 42
1.0
 92
        8
 66
     7
 43
1.0
 76
     1
 77
     6
 78
     2
 67
     7
 79
     5
170
     0
171
     0
290
     0
174
     0
 93
        1
 44
0.0
173
     0
291
     1
 45
0.0
1001
ACAD
1000
AcDbSavedByObjectVersion
1070
     0
  0
VISUALSTYLE
  5
2B
102
{ACAD_REACTORS
330
2A
102
}
330
2A
100
AcDbVisualStyle
  2
Flat
 70
     0
 71
     2
 72
     1
 73
     1
 90
        2
 40
-0.6
 41
30.0
 62
     5
 63
     7
 74
     0
 91
        4
 64
     7
 65
   257
 75
     1
175
     1
 42
1.0
 92
        8
 66
     7
 43
1.0
 76
     1
 77
     6
 78
     2
 67
     7
 79
     5
170
     0
171
     0
290
     0
174
     0
 93
       13
 44
0.0
173
     0
291
     1
 45
0.0
1001
ACAD
1000
AcDbSavedByObjectVersion
1070
     0
  0
VISUALSTYLE
  5
2C
102
{ACAD_REACTORS
330
2A
102
}
330
2A
100
AcDbVisualStyle
  2
FlatWithEdges
 70
     1
 71
     2
 72
     1
 73
     1
 90
        2
 40
-0.6
 41
30.0
 62
     5
 63
     7
 74
     1
 91
        4
 64
     7
 65
   257
 75
     1
175
     1
 42
1.0
 92
        0
 66
   257
 43
1.0
 76
     1
 77
     6
 78
     2
 67
     7
 79
     5
170
     0
171
     0
290
     0
174
     0
 93
       13
 44
0.0
173
     0
291
     1
 45
0.0
1001
ACAD
1000
AcDbSavedByObjectVersion
1070
     0
  0
VISUALSTYLE
  5
2D
102
{ACAD_REACTORS
330
2A
102
}
330
2A
100
AcDbVisualStyle
  2
Gouraud
 70
     2
 71
     2
 72
     2
 73
     1
 90
        2
 40
-0.6
 41
30.0
 62
     5
 63
     7
 74
     0
 91
        4
 64
     7
 65
   257
 75
     1
175
     1
 42
1.0
 92
        0
 66
     7
 43
1.0
 76
     1
 77
     6
 78
     2
 67
     7
 79
     5
170
     0
171
     0
290
     0
174
     0
 93
       13
 44
0.0
173
     0
291
     1
 45
0.0
1001
ACAD
1000
AcDbSavedByObjectVersion
1070
     0
  0
VISUALSTYLE
  5
2E
102
{ACAD_REACTORS
330
2A
102
}
330
2A
100
AcDbVisualStyle
  2
GouraudWithEdges
 70
     3
 71
     2
 72
     2
 73
     1
 90
        2
 40
-0.6
 41
30.0
 62
     5
 63
     7
 74
     1
 91
        4
 64
     7
 65
   257
 75
     1
175
     1
 42
1.0
 92
        0
 66
   257
 43
1.0
 76
     1
 77
     6
 78
     2
 67
     7
 79
     5
170
     0
171
     0
290
     0
174
     0
 93
       13
 44
0.0
173
     0
291
     1
 45
0.0
1001
ACAD
1000
AcDbSavedByObjectVersion
1070
     0
  0
VISUALSTYLE
  5
38
102
{ACAD_REACTORS
330
2A
102
}
330
2A
100
AcDbVisualStyle
  2
Linepattern
 70
    14
 71
     2
 72
     2
 73
     0
 90
        0
 40
-0.6
 41
-30.0
 62
     5
 63
     7
 74
     1
 91
        4
 64
     7
 65
   257
 75
     7
175
     7
 42
1.0
 92
        8
 66
     7
 43
1.0
 76
     1
 77
     6
 78
     2
 67
     7
 79
     5
170
     0
171
     0
290
     0
174
     0
 93
        1
 44
0.0
173
     0
291
     1
 45
0.0
1001
ACAD
1000
AcDbSavedByObjectVersion
1070
     0
  0
VISUALSTYLE
  5
33
102
{ACAD_REACTORS
330
2A
102
}
330
2A
100
AcDbVisualStyle
  2
Realistic
 70
     8
 71
     2
 72
     2
 73
     0
 90
        0
 40
-0.6
 41
-30.0
 62
     5
 63
     7
 74
     1
 91
        0
 64
     7
 65
   257
 75
     1
175
     1
 42
1.0
 92
        8
 66
     8
 43
1.0
 76
     1
 77
     6
 78
     2
 67
     7
 79
     5
170
     0
171
     0
290
     0
174
     0
 93
       13
 44
0.0
173
     0
291
     0
 45
0.0
1001
ACAD
1000
AcDbSavedByObjectVersion
1070
     0
  0
VISUALSTYLE
  5
37
102
{ACAD_REACTORS
330
2A
102
}
330
2A
100
AcDbVisualStyle
  2
Thicken
 70
    13
 71
     2
 72
     2
 73
     0
 90
        0
 40
-0.6
 41
-30.0
 62
     5
 63
     7
 74
     1
 91
        4
 64
     7
 65
   257
 75
     1
175
     1
 42
1.0
 92
       12
 66
     7
 43
1.0
 76
     1
 77
     6
 78
     2
 67
     7
 79
     5
170
     0
171
     0
290
     0
174
     0
 93
        1
 44
0.0
173
     0
291
     1
 45
0.0
1001
ACAD
1000
AcDbSavedByObjectVersion
1070
     0
  0
DICTIONARYVAR
  5
464
102
{ACAD_REACTORS
330
460
102
}
330
460
100
DictionaryVariables
280
     0
  1
80.000000
  0
DICTIONARYVAR
  5
463
102
{ACAD_REACTORS
330
460
102
}
330
460
100
DictionaryVariables
280
     0
  1
5.000000
  0
ENDSEC
  0
EOF
