  0
SECTION
  2
HEADER
  9
$ACADVER
  1
AC1015
  9
$ACADMAINTVER
 70
     6
  9
$DWGCODEPAGE
  3
ANSI_1252
  9
$INSBASE
 10
0.0
 20
0.0
 30
0.0
  9
$EXTMIN
 10
17.194643
 20
89.569817
 30
0.0
  9
$EXTMAX
 10
892.857422
 20
787.579712
 30
0.0
  9
$LIMMIN
 10
17.194643
 20
89.569817
  9
$LIMMAX
 10
892.857422
 20
787.579712
  9
$ORTHOMODE
 70
     0
  9
$REGENMODE
 70
     1
  9
$FILLMODE
 70
     1
  9
$QTEXTMODE
 70
     0
  9
$MIRRTEXT
 70
     1
  9
$LTSCALE
 40
1.0
  9
$ATTMODE
 70
     1
  9
$TEXTSIZE
 40
2.5
  9
$TRACEWID
 40
1.0
  9
$TEXTSTYLE
  7
Standard
  9
$CLAYER
  8
0
  9
$CELTYPE
  6
ByLayer
  9
$CECOLOR
 62
   256
  9
$CELTSCALE
 40
1.0
  9
$DISPSILH
 70
     0
  9
$DIMSCALE
 40
1.0
  9
$DIMASZ
 40
2.5
  9
$DIMEXO
 40
0.625
  9
$DIMDLI
 40
3.75
  9
$DIMRND
 40
0.0
  9
$DIMDLE
 40
0.0
  9
$DIMEXE
 40
1.25
  9
$DIMTP
 40
0.0
  9
$DIMTM
 40
0.0
  9
$DIMTXT
 40
2.5
  9
$DIMCEN
 40
2.5
  9
$DIMTSZ
 40
0.0
  9
$DIMTOL
 70
     0
  9
$DIMLIM
 70
     0
  9
$DIMTIH
 70
     0
  9
$DIMTOH
 70
     0
  9
$DIMSE1
 70
     0
  9
$DIMSE2
 70
     0
  9
$DIMTAD
 70
     1
  9
$DIMZIN
 70
     8
  9
$DIMBLK
  1

  9
$DIMASO
 70
     1
  9
$DIMSHO
 70
     1
  9
$DIMPOST
  1

  9
$DIMAPOST
  1

  9
$DIMALT
 70
     0
  9
$DIMALTD
 70
     3
  9
$DIMALTF
 40
0.03937
  9
$DIMLFAC
 40
1.0
  9
$DIMTOFL
 70
     1
  9
$DIMTVP
 40
0.0
  9
$DIMTIX
 70
     0
  9
$DIMSOXD
 70
     0
  9
$DIMSAH
 70
     0
  9
$DIMBLK1
  1

  9
$DIMBLK2
  1

  9
$DIMSTYLE
  2
ISO-25
  9
$DIMCLRD
 70
     0
  9
$DIMCLRE
 70
     0
  9
$DIMCLRT
 70
     0
  9
$DIMTFAC
 40
1.0
  9
$DIMGAP
 40
0.625
  9
$DIMJUST
 70
     0
  9
$DIMSD1
 70
     0
  9
$DIMSD2
 70
     0
  9
$DIMTOLJ
 70
     0
  9
$DIMTZIN
 70
     8
  9
$DIMALTZ
 70
     0
  9
$DIMALTTZ
 70
     0
  9
$DIMUPT
 70
     0
  9
$DIMDEC
 70
     2
  9
$DIMTDEC
 70
     2
  9
$DIMALTU
 70
     2
  9
$DIMALTTD
 70
     3
  9
$DIMTXSTY
  7
Standard
  9
$DIMAUNIT
 70
     0
  9
$DIMADEC
 70
     0
  9
$DIMALTRND
 40
0.0
  9
$DIMAZIN
 70
     0
  9
$DIMDSEP
 70
    44
  9
$DIMATFIT
 70
     3
  9
$DIMFRAC
 70
     0
  9
$DIMLDRBLK
  1

  9
$DIMLUNIT
 70
     2
  9
$DIMLWD
 70
    -2
  9
$DIMLWE
 70
    -2
  9
$DIMTMOVE
 70
     0
  9
$LUNITS
 70
     2
  9
$LUPREC
 70
     4
  9
$SKETCHINC
 40
1.0
  9
$FILLETRAD
 40
10.0
  9
$AUNITS
 70
     0
  9
$AUPREC
 70
     0
  9
$MENU
  1
.
  9
$ELEVATION
 40
0.0
  9
$PELEVATION
 40
0.0
  9
$THICKNESS
 40
0.0
  9
$LIMCHECK
 70
     0
  9
$CHAMFERA
 40
10.0
  9
$CHAMFERB
 40
10.0
  9
$CHAMFERC
 40
20.0
  9
$CHAMFERD
 40
0.0
  9
$SKPOLY
 70
     0
  9
$TDCREATE
 40
2455573.366568368
  9
$TDUCREATE
 40
2455573.324901701
  9
$TDUPDATE
 40
2455573.36656838
  9
$TDUUPDATE
 40
2455573.324901713
  9
$TDINDWG
 40
0.0000000116
  9
$TDUSRTIMER
 40
0.0000000116
  9
$USRTIMER
 70
     1
  9
$ANGBASE
 50
0.0
  9
$ANGDIR
 70
     0
  9
$PDMODE
 70
     0
  9
$PDSIZE
 40
0.0
  9
$PLINEWID
 40
0.0
  9
$SPLFRAME
 70
     0
  9
$SPLINETYPE
 70
     6
  9
$SPLINESEGS
 70
     8
  9
$HANDSEED
  5
5AD
  9
$SURFTAB1
 70
     6
  9
$SURFTAB2
 70
     6
  9
$SURFTYPE
 70
     6
  9
$SURFU
 70
     6
  9
$SURFV
 70
     6
  9
$UCSBASE
  2

  9
$UCSNAME
  2

  9
$UCSORG
 10
0.0
 20
0.0
 30
0.0
  9
$UCSXDIR
 10
1.0
 20
0.0
 30
0.0
  9
$UCSYDIR
 10
0.0
 20
1.0
 30
0.0
  9
$UCSORTHOREF
  2

  9
$UCSORTHOVIEW
 70
     0
  9
$UCSORGTOP
 10
0.0
 20
0.0
 30
0.0
  9
$UCSORGBOTTOM
 10
0.0
 20
0.0
 30
0.0
  9
$UCSORGLEFT
 10
0.0
 20
0.0
 30
0.0
  9
$UCSORGRIGHT
 10
0.0
 20
0.0
 30
0.0
  9
$UCSORGFRONT
 10
0.0
 20
0.0
 30
0.0
  9
$UCSORGBACK
 10
0.0
 20
0.0
 30
0.0
  9
$PUCSBASE
  2

  9
$PUCSNAME
  2

  9
$PUCSORG
 10
0.0
 20
0.0
 30
0.0
  9
$PUCSXDIR
 10
1.0
 20
0.0
 30
0.0
  9
$PUCSYDIR
 10
0.0
 20
1.0
 30
0.0
  9
$PUCSORTHOREF
  2

  9
$PUCSORTHOVIEW
 70
     0
  9
$PUCSORGTOP
 10
0.0
 20
0.0
 30
0.0
  9
$PUCSORGBOTTOM
 10
0.0
 20
0.0
 30
0.0
  9
$PUCSORGLEFT
 10
0.0
 20
0.0
 30
0.0
  9
$PUCSORGRIGHT
 10
0.0
 20
0.0
 30
0.0
  9
$PUCSORGFRONT
 10
0.0
 20
0.0
 30
0.0
  9
$PUCSORGBACK
 10
0.0
 20
0.0
 30
0.0
  9
$USERI1
 70
     0
  9
$USERI2
 70
     0
  9
$USERI3
 70
     0
  9
$USERI4
 70
     0
  9
$USERI5
 70
     0
  9
$USERR1
 40
0.0
  9
$USERR2
 40
0.0
  9
$USERR3
 40
0.0
  9
$USERR4
 40
0.0
  9
$USERR5
 40
0.0
  9
$WORLDVIEW
 70
     1
  9
$SHADEDGE
 70
     3
  9
$SHADEDIF
 70
    70
  9
$TILEMODE
 70
     1
  9
$MAXACTVP
 70
    64
  9
$PINSBASE
 10
0.0
 20
0.0
 30
0.0
  9
$PLIMCHECK
 70
     0
  9
$PEXTMIN
 10
1.000000E+20
 20
1.000000E+20
 30
1.000000E+20
  9
$PEXTMAX
 10
-1.000000E+20
 20
-1.000000E+20
 30
-1.000000E+20
  9
$PLIMMIN
 10
0.0
 20
0.0
  9
$PLIMMAX
 10
420.0
 20
297.0
  9
$UNITMODE
 70
     0
  9
$VISRETAIN
 70
     1
  9
$PLINEGEN
 70
     0
  9
$PSLTSCALE
 70
     1
  9
$TREEDEPTH
 70
  3020
  9
$CMLSTYLE
  2
Standard
  9
$CMLJUST
 70
     0
  9
$CMLSCALE
 40
20.0
  9
$PROXYGRAPHICS
 70
     1
  9
$MEASUREMENT
 70
     1
  9
$CELWEIGHT
370
    -1
  9
$ENDCAPS
280
     0
  9
$JOINSTYLE
280
     0
  9
$LWDISPLAY
290
     0
  9
$INSUNITS
 70
     4
  9
$HYPERLINKBASE
  1

  9
$STYLESHEET
  1

  9
$XEDIT
290
     1
  9
$CEPSNTYPE
380
     0
  9
$PSTYLEMODE
290
     1
  9
$FINGERPRINTGUID
  2
{23597474-8B11-4C23-AF90-309D82FA3ABC}
  9
$VERSIONGUID
  2
{FAEB1C32-E019-11D5-929B-00C0DF256EC4}
  9
$EXTNAMES
290
     1
  9
$PSVPSCALE
 40
0.0
  9
$OLESTARTUP
290
     0
  0
ENDSEC
  0
SECTION
  2
CLASSES
  0
CLASS
  1
ACDBDICTIONARYWDFLT
  2
AcDbDictionaryWithDefault
  3
ObjectDBX Classes
 90
        0
280
     0
281
     0
  0
CLASS
  1
VISUALSTYLE
  2
AcDbVisualStyle
  3
ObjectDBX Classes
 90
     4095
280
     0
281
     0
  0
CLASS
  1
DICTIONARYVAR
  2
AcDbDictionaryVar
  3
ObjectDBX Classes
 90
        0
280
     0
281
     0
  0
CLASS
  1
ACDBPLACEHOLDER
  2
AcDbPlaceHolder
  3
ObjectDBX Classes
 90
        0
280
     0
281
     0
  0
CLASS
  1
LAYOUT
  2
AcDbLayout
  3
ObjectDBX Classes
 90
        0
280
     0
281
     0
  0
ENDSEC
  0
SECTION
  2
TABLES
  0
TABLE
  2
VPORT
  5
8
330
0
100
AcDbSymbolTable
 70
     1
  0
VPORT
  5
29
330
8
100
AcDbSymbolTableRecord
100
AcDbViewportTableRecord
  2
*Active
 70
     0
 10
0.0
 20
0.0
 11
1.0
 21
1.0
 12
344.186916
 22
148.5
 13
0.0
 23
0.0
 14
10.0
 24
10.0
 15
10.0
 25
10.0
 16
0.0
 26
0.0
 36
1.0
 17
0.0
 27
0.0
 37
0.0
 40
297.0
 41
1.972973
 42
50.0
 43
0.0
 44
0.0
 50
0.0
 51
0.0
 71
     0
 72
   100
 73
     1
 74
     3
 75
     0
 76
     0
 77
     0
 78
     0
281
     0
 65
     1
110
0.0
120
0.0
130
0.0
111
1.0
121
0.0
131
0.0
112
0.0
122
1.0
132
0.0
 79
     0
146
0.0
  0
ENDTAB
  0
TABLE
  2
LTYPE
  5
5
330
0
100
AcDbSymbolTable
 70
     1
  0
LTYPE
  5
14
330
5
100
AcDbSymbolTableRecord
100
AcDbLinetypeTableRecord
  2
ByBlock
 70
     0
  3

 72
    65
 73
     0
 40
0.0
  0
LTYPE
  5
15
330
5
100
AcDbSymbolTableRecord
100
AcDbLinetypeTableRecord
  2
ByLayer
 70
     0
  3

 72
    65
 73
     0
 40
0.0
  0
LTYPE
  5
16
330
5
100
AcDbSymbolTableRecord
100
AcDbLinetypeTableRecord
  2
Continuous
 70
     0
  3
Solid line
 72
    65
 73
     0
 40
0.0
  0
ENDTAB
  0
TABLE
  2
LAYER
  5
2
330
0
100
AcDbSymbolTable
 70
     1
  0
LAYER
  5
10
330
2
100
AcDbSymbolTableRecord
100
AcDbLayerTableRecord
  2
0
 70
     0
 62
   106
  6
Continuous
370
     0
390
F
  0
ENDTAB
  0
TABLE
  2
STYLE
  5
3
330
0
100
AcDbSymbolTable
 70
     4
  0
STYLE
  5
11
330
3
100
AcDbSymbolTableRecord
100
AcDbTextStyleTableRecord
  2
Standard
 70
     0
 40
0.0
 41
1.0
 50
0.0
 71
     0
 42
2.5
  3
txt
  4

  0
STYLE
  5
3B
330
3
100
AcDbSymbolTableRecord
100
AcDbTextStyleTableRecord
  2
Default
 70
     0
 40
0.0
 41
1.0
 50
0.0
 71
     0
 42
0.2
  3

  4

1001
ACAD
1000
txt
1071
        0
  0
STYLE
  5
3C
330
3
100
AcDbSymbolTableRecord
100
AcDbTextStyleTableRecord
  2
ISO
 70
     0
 40
0.0
 41
1.0
 50
0.0
 71
     0
 42
0.2
  3

  4

1001
ACAD
1000
txt
1071
        0
  0
STYLE
  5
3D
330
3
100
AcDbSymbolTableRecord
100
AcDbTextStyleTableRecord
  2
GIANLU
 70
     0
 40
0.0
 41
1.0
 50
0.0
 71
     0
 42
0.2
  3

  4

1001
ACAD
1000
Arial
1071
        0
  0
ENDTAB
  0
TABLE
  2
VIEW
  5
6
330
0
100
AcDbSymbolTable
 70
     0
  0
ENDTAB
  0
TABLE
  2
UCS
  5
7
330
0
100
AcDbSymbolTable
 70
     0
  0
ENDTAB
  0
TABLE
  2
APPID
  5
9
330
0
100
AcDbSymbolTable
 70
     1
  0
APPID
  5
12
330
9
100
AcDbSymbolTableRecord
100
AcDbRegAppTableRecord
  2
ACAD
 70
     0
  0
ENDTAB
  0
TABLE
  2
DIMSTYLE
  5
A
330
0
100
AcDbSymbolTable
 70
     4
100
AcDbDimStyleTable
  0
DIMSTYLE
105
27
330
A
100
AcDbSymbolTableRecord
100
AcDbDimStyleTableRecord
  2
ISO-25
 70
     0
 41
2.5
 42
0.625
 43
3.75
 44
1.25
 73
     0
 74
     0
 77
     1
 78
     8
140
2.5
141
2.5
143
0.03937
147
0.625
171
     3
172
     1
271
     2
272
     2
274
     3
278
    44
283
     0
284
     8
340
11
  0
DIMSTYLE
105
3E
330
A
100
AcDbSymbolTableRecord
100
AcDbDimStyleTableRecord
  2
Default
 70
     0
  3
<>
 41
4.375
 42
1.05
 44
2.1
 73
     0
 74
     0
 77
     1
 78
     8
140
3.5
146
0.4
147
1.75
178
     3
271
     2
272
     3
284
     8
340
3B
341
3F
342
3F
  0
DIMSTYLE
105
46
330
A
100
AcDbSymbolTableRecord
100
AcDbDimStyleTableRecord
  2
ISO
 70
     0
  3
<>
 41
4.375
 42
1.05
 44
2.1
 73
     0
 74
     0
 77
     1
 78
     8
140
3.5
146
0.4
147
1.75
178
     3
271
     2
272
     3
284
     8
340
3C
341
3F
342
3F
  0
DIMSTYLE
105
47
330
A
100
AcDbSymbolTableRecord
100
AcDbDimStyleTableRecord
  2
zucchetti_unico
 70
     0
  3
<>
 41
3.0
 42
0.9
 44
1.8
 73
     0
 74
     0
 77
     1
 78
     8
140
3.0
146
0.6
147
1.5
176
   104
177
     3
178
     3
271
     2
272
     2
284
     8
340
3D
  0
ENDTAB
  0
TABLE
  2
BLOCK_RECORD
  5
1
330
0
100
AcDbSymbolTable
 70
     7
  0
BLOCK_RECORD
  5
1F
330
1
100
AcDbSymbolTableRecord
100
AcDbBlockTableRecord
  2
*Model_Space
340
22
  0
BLOCK_RECORD
  5
1B
330
1
100
AcDbSymbolTableRecord
100
AcDbBlockTableRecord
  2
*Paper_Space
340
1E
  0
BLOCK_RECORD
  5
23
330
1
100
AcDbSymbolTableRecord
100
AcDbBlockTableRecord
  2
*Paper_Space0
340
26
  0
BLOCK_RECORD
  5
3F
330
1
100
AcDbSymbolTableRecord
100
AcDbBlockTableRecord
  2
_CLOSED
340
0
  0
BLOCK_RECORD
  5
48
330
1
100
AcDbSymbolTableRecord
100
AcDbBlockTableRecord
  2
a
340
0
102
{BLKREFS
331
15E
102
}
  0
BLOCK_RECORD
  5
15F
330
1
100
AcDbSymbolTableRecord
100
AcDbBlockTableRecord
  2
b
340
0
102
{BLKREFS
331
28E
102
}
  0
BLOCK_RECORD
  5
28F
330
1
100
AcDbSymbolTableRecord
100
AcDbBlockTableRecord
  2
c
340
0
102
{BLKREFS
331
37E
102
}
  0
BLOCK_RECORD
  5
37F
330
1
100
AcDbSymbolTableRecord
100
AcDbBlockTableRecord
  2
e
340
0
102
{BLKREFS
331
456
102
}
  0
BLOCK_RECORD
  5
457
330
1
100
AcDbSymbolTableRecord
100
AcDbBlockTableRecord
  2
d
340
0
102
{BLKREFS
331
5A7
102
}
  0
ENDTAB
  0
ENDSEC
  0
SECTION
  2
BLOCKS
  0
BLOCK
  5
20
330
1F
100
AcDbEntity
  8
0
100
AcDbBlockBegin
  2
*Model_Space
 70
     0
 10
0.0
 20
0.0
 30
0.0
  3
*Model_Space
  1

  0
ENDBLK
  5
21
330
1F
100
AcDbEntity
  8
0
100
AcDbBlockEnd
  0
BLOCK
  5
1C
330
1B
100
AcDbEntity
 67
     1
  8
0
100
AcDbBlockBegin
  2
*Paper_Space
 70
     0
 10
0.0
 20
0.0
 30
0.0
  3
*Paper_Space
  1

  0
ENDBLK
  5
1D
330
1B
100
AcDbEntity
 67
     1
  8
0
100
AcDbBlockEnd
  0
BLOCK
  5
24
330
23
100
AcDbEntity
  8
0
100
AcDbBlockBegin
  2
*Paper_Space0
 70
     0
 10
0.0
 20
0.0
 30
0.0
  3
*Paper_Space0
  1

  0
ENDBLK
  5
25
330
23
100
AcDbEntity
  8
0
100
AcDbBlockEnd
  0
BLOCK
  5
40
330
3F
100
AcDbEntity
  8
0
100
AcDbBlockBegin
  2
_CLOSED
 70
     0
 10
0.0
 20
0.0
 30
0.0
  3
_CLOSED
  1

  0
LINE
  5
42
330
3F
100
AcDbEntity
  8
0
  6
ByBlock
 62
     0
370
    -2
100
AcDbLine
 10
-1.0
 20
0.166667
 30
0.0
 11
0.0
 21
0.0
 31
0.0
  0
LINE
  5
43
330
3F
100
AcDbEntity
  8
0
  6
ByBlock
 62
     0
370
    -2
100
AcDbLine
 10
0.0
 20
0.0
 30
0.0
 11
-1.0
 21
-0.166667
 31
0.0
  0
LINE
  5
44
330
3F
100
AcDbEntity
  8
0
  6
ByBlock
 62
     0
370
    -2
100
AcDbLine
 10
-1.0
 20
0.166667
 30
0.0
 11
-1.0
 21
-0.166667
 31
0.0
  0
LINE
  5
45
330
3F
100
AcDbEntity
  8
0
  6
ByBlock
 62
     0
370
    -2
100
AcDbLine
 10
0.0
 20
0.0
 30
0.0
 11
-1.0
 21
0.0
 31
0.0
  0
ENDBLK
  5
41
330
3F
100
AcDbEntity
  8
0
100
AcDbBlockEnd
  0
BLOCK
  5
15C
330
48
100
AcDbEntity
  8
0
100
AcDbBlockBegin
  2
a
 70
     0
 10
317.668915
 20
111.934883
 30
0.0
  3
a
  1

  0
LINE
  5
49
330
48
100
AcDbEntity
  8
0
  6
Continuous
 62
     0
370
     0
100
AcDbLine
 10
518.20734
 20
730.49195
 30
0.0
 11
545.896127
 21
758.559238
 31
0.0
  0
LINE
  5
4A
330
48
100
AcDbEntity
  8
0
  6
Continuous
 62
     0
370
     0
100
AcDbLine
 10
545.896127
 20
758.559238
 30
0.0
 11
517.828839
 21
786.248025
 31
0.0
  0
LINE
  5
4B
330
48
100
AcDbEntity
  8
0
  6
Continuous
 62
     0
370
     0
100
AcDbLine
 10
490.140052
 20
758.180737
 30
0.0
 11
517.828839
 21
786.248025
 31
0.0
  0
LINE
  5
4C
330
48
100
AcDbEntity
  8
0
  6
Continuous
 62
     0
370
     0
100
AcDbLine
 10
518.20734
 20
730.49195
 30
0.0
 11
490.140052
 21
758.180737
 31
0.0
  0
LINE
  5
4D
330
48
100
AcDbEntity
  8
0
  6
Continuous
 62
     0
370
    30
100
AcDbLine
 10
489.453536
 20
759.620705
 30
0.0
 11
516.379684
 21
786.914928
 31
0.0
  0
LINE
  5
4E
330
48
100
AcDbEntity
  8
0
  6
Continuous
 62
     0
370
    30
100
AcDbLine
 10
546.56303
 20
760.008393
 30
0.0
 11
519.268807
 21
786.934541
 31
0.0
  0
LINE
  5
4F
330
48
100
AcDbEntity
  8
0
  6
Continuous
 62
     0
370
    30
100
AcDbLine
 10
519.656495
 20
729.825047
 30
0.0
 11
546.582643
 21
757.11927
 31
0.0
  0
LINE
  5
50
330
48
100
AcDbEntity
  8
0
  6
Continuous
 62
     0
370
    30
100
AcDbLine
 10
516.767372
 20
729.805434
 30
0.0
 11
489.473149
 21
756.731582
 31
0.0
  0
LWPOLYLINE
  5
51
330
48
100
AcDbEntity
  8
0
  6
Continuous
 62
     0
370
     0
100
AcDbPolyline
 90
        4
 70
     0
 43
0.0
 10
516.767395
 20
729.80542
 10
516.85144
 20
729.77771
 10
516.989258
 20
729.804504
 10
517.269165
 20
729.927551
  0
LWPOLYLINE
  5
52
330
48
100
AcDbEntity
  8
0
  6
Continuous
 62
     0
370
     0
100
AcDbPolyline
 90
        4
 70
     0
 43
0.0
 10
517.269165
 20
729.927551
 10
517.477722
 20
730.041992
 10
517.709045
 20
730.179504
 10
518.207336
 20
730.491943
  0
LWPOLYLINE
  5
53
330
48
100
AcDbEntity
  8
0
  6
Continuous
 62
     0
370
     0
100
AcDbPolyline
 90
        4
 70
     0
 43
0.0
 10
489.58844
 20
757.234985
 10
489.700073
 20
757.445068
 10
489.834412
 20
757.678223
 10
490.140045
 20
758.180725
  0
LWPOLYLINE
  5
54
330
48
100
AcDbEntity
  8
0
  6
Continuous
 62
     0
370
     0
100
AcDbPolyline
 90
        4
 70
     0
 43
0.0
 10
489.473145
 20
756.731567
 10
489.444305
 20
756.815247
 10
489.469208
 20
756.95343
 10
489.58844
 20
757.234985
  0
LINE
  5
55
330
48
100
AcDbEntity
  8
0
  6
Continuous
 62
     0
370
     0
100
AcDbLine
 10
519.656495
 20
729.825047
 30
0.0
 11
519.633018
 21
729.801611
 31
0.0
  0
LWPOLYLINE
  5
56
330
48
100
AcDbEntity
  8
0
  6
Continuous
 62
     0
370
     0
100
AcDbPolyline
 90
        4
 70
     0
 43
0.0
 10
518.207336
 20
730.491943
 10
518.463989
 20
730.334351
 10
518.712769
 20
730.18457
 10
519.153076
 20
729.940308
  0
LWPOLYLINE
  5
57
330
48
100
AcDbEntity
  8
0
  6
Continuous
 62
     0
370
     0
100
AcDbPolyline
 90
        4
 70
     0
 43
0.0
 10
519.153076
 20
729.940308
 10
519.360657
 20
729.846924
 10
519.520813
 20
729.800354
 10
519.656494
 20
729.825073
  0
LWPOLYLINE
  5
58
330
48
100
AcDbEntity
  8
0
  6
Continuous
 62
     0
370
     0
100
AcDbPolyline
 90
        4
 70
     0
 43
0.0
 10
546.582642
 20
757.119263
 10
546.610352
 20
757.203308
 10
546.583557
 20
757.341187
 10
546.460571
 20
757.621094
  0
LWPOLYLINE
  5
59
330
48
100
AcDbEntity
  8
0
  6
Continuous
 62
     0
370
     0
100
AcDbPolyline
 90
        4
 70
     0
 43
0.0
 10
546.460571
 20
757.621094
 10
546.346069
 20
757.82959
 10
546.208557
 20
758.060913
 10
545.896118
 20
758.559265
  0
LINE
  5
5A
330
48
100
AcDbEntity
  8
0
  6
Continuous
 62
     0
370
     0
100
AcDbLine
 10
546.56303
 20
760.008393
 30
0.0
 11
546.586465
 21
759.984916
 31
0.0
  0
LWPOLYLINE
  5
5B
330
48
100
AcDbEntity
  8
0
  6
Continuous
 62
     0
370
     0
100
AcDbPolyline
 90
        4
 70
     0
 43
0.0
 10
545.896118
 20
758.559265
 10
546.053711
 20
758.815857
 10
546.203491
 20
759.064697
 10
546.447754
 20
759.504944
  0
LWPOLYLINE
  5
5C
330
48
100
AcDbEntity
  8
0
  6
Continuous
 62
     0
370
     0
100
AcDbPolyline
 90
        4
 70
     0
 43
0.0
 10
546.447754
 20
759.504944
 10
546.541138
 20
759.712585
 10
546.587708
 20
759.872742
 10
546.563049
 20
760.008423
  0
LWPOLYLINE
  5
5D
330
48
100
AcDbEntity
  8
0
  6
Continuous
 62
     0
370
     0
100
AcDbPolyline
 90
        4
 70
     0
 43
0.0
 10
519.268799
 20
786.93457
 10
519.184753
 20
786.962219
 10
519.046936
 20
786.935486
 10
518.766968
 20
786.812439
  0
LWPOLYLINE
  5
5E
330
48
100
AcDbEntity
  8
0
  6
Continuous
 62
     0
370
     0
100
AcDbPolyline
 90
        4
 70
     0
 43
0.0
 10
518.766968
 20
786.812439
 10
518.558472
 20
786.697937
 10
518.327148
 20
786.560425
 10
517.828857
 20
786.248047
  0
LINE
  5
5F
330
48
100
AcDbEntity
  8
0
  6
Continuous
 62
     0
370
     0
100
AcDbLine
 10
516.379684
 20
786.914928
 30
0.0
 11
516.403161
 21
786.938363
 31
0.0
  0
LINE
  5
60
330
48
100
AcDbEntity
  8
0
  6
Continuous
 62
     0
370
     0
100
AcDbLine
 10
489.453536
 20
759.620705
 30
0.0
 11
489.430421
 21
759.596911
 31
0.0
  0
LWPOLYLINE
  5
61
330
48
100
AcDbEntity
  8
0
  6
Continuous
 62
     0
370
     0
100
AcDbPolyline
 90
        4
 70
     0
 43
0.0
 10
517.828857
 20
786.248047
 10
517.572205
 20
786.40564
 10
517.323364
 20
786.55542
 10
516.883118
 20
786.799622
  0
LWPOLYLINE
  5
62
330
48
100
AcDbEntity
  8
0
  6
Continuous
 62
     0
370
     0
100
AcDbPolyline
 90
        4
 70
     0
 43
0.0
 10
516.883118
 20
786.799622
 10
516.675476
 20
786.893066
 10
516.515381
 20
786.939636
 10
516.3797
 20
786.914917
  0
LWPOLYLINE
  5
63
330
48
100
AcDbEntity
  8
0
  6
Continuous
 62
     0
370
     0
100
AcDbPolyline
 90
        4
 70
     0
 43
0.0
 10
489.575623
 20
759.118896
 10
489.479401
 20
759.325195
 10
489.430695
 20
759.48468
 10
489.453522
 20
759.620728
  0
LWPOLYLINE
  5
64
330
48
100
AcDbEntity
  8
0
  6
Continuous
 62
     0
370
     0
100
AcDbPolyline
 90
        4
 70
     0
 43
0.0
 10
490.140045
 20
758.180725
 10
489.979004
 20
758.435181
 10
489.825836
 20
758.681946
 10
489.575623
 20
759.118896
  0
LWPOLYLINE
  5
65
330
48
100
AcDbEntity
  8
0
  6
Continuous
 62
     0
370
     0
100
AcDbPolyline
 90
        4
 70
     0
 43
0.0
 10
489.575623
 20
759.118896
 10
489.361664
 20
758.898193
 10
489.18576
 20
758.667542
 10
488.939514
 20
758.172607
  0
LWPOLYLINE
  5
66
330
48
100
AcDbEntity
  8
0
  6
Continuous
 62
     0
370
     0
100
AcDbPolyline
 90
        4
 70
     0
 43
0.0
 10
489.58844
 20
757.234985
 10
489.37149
 20
757.452759
 10
489.192444
 20
757.68103
 10
488.939514
 20
758.172607
  0
LWPOLYLINE
  5
67
330
48
100
AcDbEntity
  8
0
  6
Continuous
 62
     0
370
     0
100
AcDbPolyline
 90
        3
 70
     0
 43
0.0
 10
488.867004
 20
758.678467
 10
488.851532
 20
758.506165
 10
488.939514
 20
758.172607
  0
LWPOLYLINE
  5
68
330
48
100
AcDbEntity
  8
0
  6
Continuous
 62
     0
370
     0
100
AcDbPolyline
 90
        3
 70
     0
 43
0.0
 10
488.871277
 20
757.676575
 10
488.856049
 20
757.837891
 10
488.939514
 20
758.172607
  0
LWPOLYLINE
  5
69
330
48
100
AcDbEntity
  8
0
  6
Continuous
 62
     0
370
     0
100
AcDbPolyline
 90
        4
 70
     0
 43
0.0
 10
517.269165
 20
729.927551
 10
517.489868
 20
729.713562
 10
517.720581
 20
729.537659
 10
518.215515
 20
729.291443
  0
LWPOLYLINE
  5
6A
330
48
100
AcDbEntity
  8
0
  6
Continuous
 62
     0
370
     0
100
AcDbPolyline
 90
        4
 70
     0
 43
0.0
 10
519.153076
 20
729.940308
 10
518.935303
 20
729.723389
 10
518.707031
 20
729.544373
 10
518.215515
 20
729.291443
  0
LWPOLYLINE
  5
6B
330
48
100
AcDbEntity
  8
0
  6
Continuous
 62
     0
370
     0
100
AcDbPolyline
 90
        3
 70
     0
 43
0.0
 10
518.72229
 20
729.225769
 10
518.550232
 20
729.207947
 10
518.215515
 20
729.291443
  0
LWPOLYLINE
  5
6C
330
48
100
AcDbEntity
  8
0
  6
Continuous
 62
     0
370
     0
100
AcDbPolyline
 90
        3
 70
     0
 43
0.0
 10
517.720459
 20
729.216431
 10
517.881958
 20
729.20343
 10
518.215515
 20
729.291443
  0
LWPOLYLINE
  5
6D
330
48
100
AcDbEntity
  8
0
  6
Continuous
 62
     0
370
     0
100
AcDbPolyline
 90
        4
 70
     0
 43
0.0
 10
546.460571
 20
757.621094
 10
546.6745
 20
757.841736
 10
546.850403
 20
758.072449
 10
547.09668
 20
758.567383
  0
LWPOLYLINE
  5
6E
330
48
100
AcDbEntity
  8
0
  6
Continuous
 62
     0
370
     0
100
AcDbPolyline
 90
        4
 70
     0
 43
0.0
 10
546.447754
 20
759.504944
 10
546.664673
 20
759.287231
 10
546.84375
 20
759.05896
 10
547.09668
 20
758.567383
  0
LWPOLYLINE
  5
6F
330
48
100
AcDbEntity
  8
0
  6
Continuous
 62
     0
370
     0
100
AcDbPolyline
 90
        3
 70
     0
 43
0.0
 10
547.162292
 20
759.074219
 10
547.180115
 20
758.9021
 10
547.09668
 20
758.567383
  0
LWPOLYLINE
  5
70
330
48
100
AcDbEntity
  8
0
  6
Continuous
 62
     0
370
     0
100
AcDbPolyline
 90
        3
 70
     0
 43
0.0
 10
547.171631
 20
758.072327
 10
547.184631
 20
758.233826
 10
547.09668
 20
758.567383
  0
LWPOLYLINE
  5
71
330
48
100
AcDbEntity
  8
0
  6
Continuous
 62
     0
370
     0
100
AcDbPolyline
 90
        4
 70
     0
 43
0.0
 10
518.766968
 20
786.812439
 10
518.546326
 20
787.026428
 10
518.315613
 20
787.202332
 10
517.820679
 20
787.448547
  0
LWPOLYLINE
  5
72
330
48
100
AcDbEntity
  8
0
  6
Continuous
 62
     0
370
     0
100
AcDbPolyline
 90
        4
 70
     0
 43
0.0
 10
516.883118
 20
786.799622
 10
517.10083
 20
787.016602
 10
517.329163
 20
787.195618
 10
517.820679
 20
787.448547
  0
LWPOLYLINE
  5
73
330
48
100
AcDbEntity
  8
0
  6
Continuous
 62
     0
370
     0
100
AcDbPolyline
 90
        3
 70
     0
 43
0.0
 10
517.313843
 20
787.514221
 10
517.485962
 20
787.532043
 10
517.820679
 20
787.448547
  0
LWPOLYLINE
  5
74
330
48
100
AcDbEntity
  8
0
  6
Continuous
 62
     0
370
     0
100
AcDbPolyline
 90
        3
 70
     0
 43
0.0
 10
518.315735
 20
787.52356
 10
518.154236
 20
787.53656
 10
517.820679
 20
787.448547
  0
LINE
  5
75
330
48
100
AcDbEntity
  8
0
  6
Continuous
 62
     0
370
    30
100
AcDbLine
 10
370.518089
 20
786.869987
 30
0.0
 11
350.518089
 21
786.869987
 31
0.0
  0
LINE
  5
76
330
48
100
AcDbEntity
  8
0
  6
Continuous
 62
     0
370
    30
100
AcDbLine
 10
381.528173
 20
786.869987
 30
0.0
 11
370.518089
 21
786.869987
 31
0.0
  0
LINE
  5
77
330
48
100
AcDbEntity
  8
0
  6
Continuous
 62
     0
370
    30
100
AcDbLine
 10
516.335349
 20
786.869987
 30
0.0
 11
384.52817
 21
786.869987
 31
0.0
  0
LINE
  5
78
330
48
100
AcDbEntity
  8
0
  6
Continuous
 62
     0
370
    30
100
AcDbLine
 10
530.518089
 20
786.869987
 30
0.0
 11
519.334243
 21
786.869987
 31
0.0
  0
LINE
  5
79
330
48
100
AcDbEntity
  8
0
  6
Continuous
 62
     0
370
    30
100
AcDbLine
 10
550.518089
 20
786.869987
 30
0.0
 11
530.518089
 21
786.869987
 31
0.0
  0
LINE
  5
7A
330
48
100
AcDbEntity
  8
0
  6
Continuous
 62
     0
370
    30
100
AcDbLine
 10
350.518089
 20
749.869987
 30
0.0
 11
350.518089
 21
729.869987
 31
0.0
  0
LINE
  5
7B
330
48
100
AcDbEntity
  8
0
  6
Continuous
 62
     0
370
    30
100
AcDbLine
 10
350.518089
 20
766.869987
 30
0.0
 11
350.518089
 21
749.869987
 31
0.0
  0
LINE
  5
7C
330
48
100
AcDbEntity
  8
0
  6
Continuous
 62
     0
370
    30
100
AcDbLine
 10
350.518089
 20
786.869987
 30
0.0
 11
350.518089
 21
766.869987
 31
0.0
  0
LINE
  5
7D
330
48
100
AcDbEntity
  8
0
  6
Continuous
 62
     0
370
    30
100
AcDbLine
 10
530.518089
 20
729.869987
 30
0.0
 11
550.518089
 21
729.869987
 31
0.0
  0
LINE
  5
7E
330
48
100
AcDbEntity
  8
0
  6
Continuous
 62
     0
370
    30
100
AcDbLine
 10
519.70083
 20
729.869987
 30
0.0
 11
530.518089
 21
729.869987
 31
0.0
  0
LINE
  5
7F
330
48
100
AcDbEntity
  8
0
  6
Continuous
 62
     0
370
    30
100
AcDbLine
 10
384.508006
 20
729.869987
 30
0.0
 11
516.701936
 21
729.869987
 31
0.0
  0
LINE
  5
80
330
48
100
AcDbEntity
  8
0
  6
Continuous
 62
     0
370
    30
100
AcDbLine
 10
370.518089
 20
729.869987
 30
0.0
 11
381.508009
 21
729.869987
 31
0.0
  0
LINE
  5
81
330
48
100
AcDbEntity
  8
0
  6
Continuous
 62
     0
370
    30
100
AcDbLine
 10
350.518089
 20
729.869987
 30
0.0
 11
370.518089
 21
729.869987
 31
0.0
  0
LINE
  5
82
330
48
100
AcDbEntity
  8
0
  6
Continuous
 62
     0
370
    30
100
AcDbLine
 10
550.518089
 20
766.869987
 30
0.0
 11
550.518089
 21
786.869987
 31
0.0
  0
LINE
  5
83
330
48
100
AcDbEntity
  8
0
  6
Continuous
 62
     0
370
    30
100
AcDbLine
 10
550.518089
 20
749.869987
 30
0.0
 11
550.518089
 21
766.869987
 31
0.0
  0
LINE
  5
84
330
48
100
AcDbEntity
  8
0
  6
Continuous
 62
     0
370
    30
100
AcDbLine
 10
550.518089
 20
729.869987
 30
0.0
 11
550.518089
 21
749.869987
 31
0.0
  0
LINE
  5
85
330
48
100
AcDbEntity
  8
0
  6
Continuous
 62
     0
370
    30
100
AcDbLine
 10
530.518089
 20
786.869987
 30
0.0
 11
550.518089
 21
766.869987
 31
0.0
  0
LINE
  5
86
330
48
100
AcDbEntity
  8
0
  6
Continuous
 62
     0
370
    30
100
AcDbLine
 10
350.518089
 20
766.869987
 30
0.0
 11
370.518089
 21
786.869987
 31
0.0
  0
LINE
  5
87
330
48
100
AcDbEntity
  8
0
  6
Continuous
 62
     0
370
    30
100
AcDbLine
 10
370.518089
 20
729.869987
 30
0.0
 11
350.518089
 21
749.869987
 31
0.0
  0
LINE
  5
88
330
48
100
AcDbEntity
  8
0
  6
Continuous
 62
     0
370
    30
100
AcDbLine
 10
550.518089
 20
749.869987
 30
0.0
 11
530.518089
 21
729.869987
 31
0.0
  0
LINE
  5
89
330
48
100
AcDbEntity
  8
0
  6
Continuous
 62
     0
370
     0
100
AcDbLine
 10
383.007679
 20
730.49131
 30
0.0
 11
410.896767
 21
758.359577
 31
0.0
  0
LINE
  5
8A
330
48
100
AcDbEntity
  8
0
  6
Continuous
 62
     0
370
     0
100
AcDbLine
 10
410.896767
 20
758.359577
 30
0.0
 11
383.028499
 21
786.248665
 31
0.0
  0
LINE
  5
8B
330
48
100
AcDbEntity
  8
0
  6
Continuous
 62
     0
370
     0
100
AcDbLine
 10
355.139412
 20
758.380397
 30
0.0
 11
383.028499
 21
786.248665
 31
0.0
  0
LINE
  5
8C
330
48
100
AcDbEntity
  8
0
  6
Continuous
 62
     0
370
     0
100
AcDbLine
 10
383.007679
 20
730.49131
 30
0.0
 11
355.139412
 21
758.380397
 31
0.0
  0
LINE
  5
8D
330
48
100
AcDbEntity
  8
0
  6
Continuous
 62
     0
370
    30
100
AcDbLine
 10
354.463226
 20
759.825245
 30
0.0
 11
381.584157
 21
786.92593
 31
0.0
  0
LINE
  5
8E
330
48
100
AcDbEntity
  8
0
  6
Continuous
 62
     0
370
    30
100
AcDbLine
 10
411.574032
 20
759.803919
 30
0.0
 11
384.473347
 21
786.924851
 31
0.0
  0
LINE
  5
8F
330
48
100
AcDbEntity
  8
0
  6
Continuous
 62
     0
370
    30
100
AcDbLine
 10
384.452021
 20
729.814045
 30
0.0
 11
411.572953
 21
756.91473
 31
0.0
  0
LINE
  5
90
330
48
100
AcDbEntity
  8
0
  6
Continuous
 62
     0
370
    30
100
AcDbLine
 10
381.562832
 20
729.815124
 30
0.0
 11
354.462147
 21
756.936055
 31
0.0
  0
LWPOLYLINE
  5
91
330
48
100
AcDbEntity
  8
0
  6
Continuous
 62
     0
370
     0
100
AcDbPolyline
 90
        4
 70
     0
 43
0.0
 10
381.562836
 20
729.815125
 10
381.646698
 20
729.786804
 10
381.784698
 20
729.812622
 10
382.065491
 20
729.933655
  0
LWPOLYLINE
  5
92
330
48
100
AcDbEntity
  8
0
  6
Continuous
 62
     0
370
     0
100
AcDbPolyline
 90
        4
 70
     0
 43
0.0
 10
382.065491
 20
729.933655
 10
382.274841
 20
730.046631
 10
382.507141
 20
730.182434
 10
383.00769
 20
730.491333
  0
LWPOLYLINE
  5
93
330
48
100
AcDbEntity
  8
0
  6
Continuous
 62
     0
370
     0
100
AcDbPolyline
 90
        4
 70
     0
 43
0.0
 10
354.581024
 20
757.43866
 10
354.694183
 20
757.647888
 10
354.8302
 20
757.880066
 10
355.139404
 20
758.380371
  0
LWPOLYLINE
  5
94
330
48
100
AcDbEntity
  8
0
  6
Continuous
 62
     0
370
     0
100
AcDbPolyline
 90
        4
 70
     0
 43
0.0
 10
354.462158
 20
756.936035
 10
354.433899
 20
757.019958
 10
354.459778
 20
757.157959
 10
354.581024
 20
757.43866
  0
LINE
  5
95
330
48
100
AcDbEntity
  8
0
  6
Continuous
 62
     0
370
     0
100
AcDbLine
 10
384.452021
 20
729.814045
 30
0.0
 11
384.428377
 21
729.790778
 31
0.0
  0
LWPOLYLINE
  5
96
330
48
100
AcDbEntity
  8
0
  6
Continuous
 62
     0
370
     0
100
AcDbPolyline
 90
        4
 70
     0
 43
0.0
 10
383.00769
 20
730.491333
 10
383.263184
 20
730.331909
 10
383.510925
 20
730.180298
 10
383.949432
 20
729.932922
  0
LWPOLYLINE
  5
97
330
48
100
AcDbEntity
  8
0
  6
Continuous
 62
     0
370
     0
100
AcDbPolyline
 90
        4
 70
     0
 43
0.0
 10
383.949432
 20
729.932922
 10
384.156372
 20
729.838013
 10
384.316162
 20
729.790344
 10
384.452026
 20
729.814026
  0
LWPOLYLINE
  5
98
330
48
100
AcDbEntity
  8
0
  6
Continuous
 62
     0
370
     0
100
AcDbPolyline
 90
        4
 70
     0
 43
0.0
 10
411.572968
 20
756.914734
 10
411.601257
 20
756.998596
 10
411.57547
 20
757.136597
 10
411.454437
 20
757.417419
  0
LWPOLYLINE
  5
99
330
48
100
AcDbEntity
  8
0
  6
Continuous
 62
     0
370
     0
100
AcDbPolyline
 90
        4
 70
     0
 43
0.0
 10
411.454437
 20
757.417419
 10
411.341461
 20
757.62677
 10
411.205627
 20
757.859009
 10
410.896759
 20
758.359558
  0
LINE
  5
9A
330
48
100
AcDbEntity
  8
0
  6
Continuous
 62
     0
370
     0
100
AcDbLine
 10
411.574032
 20
759.803919
 30
0.0
 11
411.597298
 21
759.780275
 31
0.0
  0
LWPOLYLINE
  5
9B
330
48
100
AcDbEntity
  8
0
  6
Continuous
 62
     0
370
     0
100
AcDbPolyline
 90
        4
 70
     0
 43
0.0
 10
410.896759
 20
758.359558
 10
411.056183
 20
758.615051
 10
411.207764
 20
758.862793
 10
411.455139
 20
759.301331
  0
LWPOLYLINE
  5
9C
330
48
100
AcDbEntity
  8
0
  6
Continuous
 62
     0
370
     0
100
AcDbPolyline
 90
        4
 70
     0
 43
0.0
 10
411.455139
 20
759.301331
 10
411.550049
 20
759.50824
 10
411.597748
 20
759.668091
 10
411.574036
 20
759.803894
  0
LWPOLYLINE
  5
9D
330
48
100
AcDbEntity
  8
0
  6
Continuous
 62
     0
370
     0
100
AcDbPolyline
 90
        4
 70
     0
 43
0.0
 10
384.473358
 20
786.924866
 10
384.389496
 20
786.953186
 10
384.251465
 20
786.927368
 10
383.970673
 20
786.806335
  0
LWPOLYLINE
  5
9E
330
48
100
AcDbEntity
  8
0
  6
Continuous
 62
     0
370
     0
100
AcDbPolyline
 90
        4
 70
     0
 43
0.0
 10
383.970673
 20
786.806335
 10
383.761322
 20
786.693359
 10
383.529022
 20
786.557495
 10
383.028503
 20
786.248657
  0
LINE
  5
9F
330
48
100
AcDbEntity
  8
0
  6
Continuous
 62
     0
370
     0
100
AcDbLine
 10
381.584157
 20
786.92593
 30
0.0
 11
381.607802
 21
786.949196
 31
0.0
  0
LINE
  5
A0
330
48
100
AcDbEntity
  8
0
  6
Continuous
 62
     0
370
     0
100
AcDbLine
 10
354.463226
 20
759.825245
 30
0.0
 11
354.439941
 21
759.801618
 31
0.0
  0
LWPOLYLINE
  5
A1
330
48
100
AcDbEntity
  8
0
  6
Continuous
 62
     0
370
     0
100
AcDbPolyline
 90
        4
 70
     0
 43
0.0
 10
383.028503
 20
786.248657
 10
382.77301
 20
786.408081
 10
382.525269
 20
786.559631
 10
382.086731
 20
786.807068
  0
LWPOLYLINE
  5
A2
330
48
100
AcDbEntity
  8
0
  6
Continuous
 62
     0
370
     0
100
AcDbPolyline
 90
        4
 70
     0
 43
0.0
 10
382.086731
 20
786.807068
 10
381.879822
 20
786.901978
 10
381.720001
 20
786.949646
 10
381.584167
 20
786.925903
  0
LWPOLYLINE
  5
A3
330
48
100
AcDbEntity
  8
0
  6
Continuous
 62
     0
370
     0
100
AcDbPolyline
 90
        4
 70
     0
 43
0.0
 10
354.581726
 20
759.322571
 10
354.487
 20
759.529602
 10
354.439392
 20
759.689392
 10
354.463226
 20
759.825256
  0
LWPOLYLINE
  5
A4
330
48
100
AcDbEntity
  8
0
  6
Continuous
 62
     0
370
     0
100
AcDbPolyline
 90
        4
 70
     0
 43
0.0
 10
355.139404
 20
758.380371
 10
354.980164
 20
758.636047
 10
354.828796
 20
758.88385
 10
354.581726
 20
759.322571
  0
LWPOLYLINE
  5
A5
330
48
100
AcDbEntity
  8
0
  6
Continuous
 62
     0
370
     0
100
AcDbPolyline
 90
        4
 70
     0
 43
0.0
 10
354.581726
 20
759.322571
 10
354.36618
 20
759.103455
 10
354.188629
 20
758.874023
 10
353.938843
 20
758.380859
  0
LWPOLYLINE
  5
A6
330
48
100
AcDbEntity
  8
0
  6
Continuous
 62
     0
370
     0
100
AcDbPolyline
 90
        4
 70
     0
 43
0.0
 10
354.581024
 20
757.43866
 10
354.365631
 20
757.657959
 10
354.188263
 20
757.887512
 10
353.938843
 20
758.380859
  0
LWPOLYLINE
  5
A7
330
48
100
AcDbEntity
  8
0
  6
Continuous
 62
     0
370
     0
100
AcDbPolyline
 90
        3
 70
     0
 43
0.0
 10
353.869965
 20
758.887207
 10
353.853241
 20
758.715027
 10
353.938843
 20
758.380859
  0
LWPOLYLINE
  5
A8
330
48
100
AcDbEntity
  8
0
  6
Continuous
 62
     0
370
     0
100
AcDbPolyline
 90
        3
 70
     0
 43
0.0
 10
353.867035
 20
757.885315
 10
353.852997
 20
758.046753
 10
353.938843
 20
758.380859
  0
LWPOLYLINE
  5
A9
330
48
100
AcDbEntity
  8
0
  6
Continuous
 62
     0
370
     0
100
AcDbPolyline
 90
        4
 70
     0
 43
0.0
 10
382.065491
 20
729.933655
 10
382.284637
 20
729.718079
 10
382.514069
 20
729.540527
 10
383.007233
 20
729.290771
  0
LWPOLYLINE
  5
AA
330
48
100
AcDbEntity
  8
0
  6
Continuous
 62
     0
370
     0
100
AcDbPolyline
 90
        4
 70
     0
 43
0.0
 10
383.949432
 20
729.932922
 10
383.730133
 20
729.717529
 10
383.50058
 20
729.540161
 10
383.007233
 20
729.290771
  0
LWPOLYLINE
  5
AB
330
48
100
AcDbEntity
  8
0
  6
Continuous
 62
     0
370
     0
100
AcDbPolyline
 90
        3
 70
     0
 43
0.0
 10
383.51358
 20
729.221497
 10
383.34137
 20
729.204895
 10
383.007233
 20
729.290771
  0
LWPOLYLINE
  5
AC
330
48
100
AcDbEntity
  8
0
  6
Continuous
 62
     0
370
     0
100
AcDbPolyline
 90
        3
 70
     0
 43
0.0
 10
382.511658
 20
729.219299
 10
382.673065
 20
729.205139
 10
383.007233
 20
729.290771
  0
LWPOLYLINE
  5
AD
330
48
100
AcDbEntity
  8
0
  6
Continuous
 62
     0
370
     0
100
AcDbPolyline
 90
        4
 70
     0
 43
0.0
 10
411.454437
 20
757.417419
 10
411.669983
 20
757.636536
 10
411.847565
 20
757.865967
 10
412.097321
 20
758.359131
  0
LWPOLYLINE
  5
AE
330
48
100
AcDbEntity
  8
0
  6
Continuous
 62
     0
370
     0
100
AcDbPolyline
 90
        4
 70
     0
 43
0.0
 10
411.455139
 20
759.301331
 10
411.670532
 20
759.082031
 10
411.847931
 20
758.852478
 10
412.097321
 20
758.359131
  0
LWPOLYLINE
  5
AF
330
48
100
AcDbEntity
  8
0
  6
Continuous
 62
     0
370
     0
100
AcDbPolyline
 90
        3
 70
     0
 43
0.0
 10
412.166595
 20
758.865479
 10
412.183197
 20
758.693237
 10
412.097321
 20
758.359131
  0
LWPOLYLINE
  5
B0
330
48
100
AcDbEntity
  8
0
  6
Continuous
 62
     0
370
     0
100
AcDbPolyline
 90
        3
 70
     0
 43
0.0
 10
412.168762
 20
757.863525
 10
412.182922
 20
758.024963
 10
412.097321
 20
758.359131
  0
LWPOLYLINE
  5
B1
330
48
100
AcDbEntity
  8
0
  6
Continuous
 62
     0
370
     0
100
AcDbPolyline
 90
        4
 70
     0
 43
0.0
 10
383.970673
 20
786.806335
 10
383.751526
 20
787.021912
 10
383.522095
 20
787.199463
 10
383.028961
 20
787.449219
  0
LWPOLYLINE
  5
B2
330
48
100
AcDbEntity
  8
0
  6
Continuous
 62
     0
370
     0
100
AcDbPolyline
 90
        4
 70
     0
 43
0.0
 10
382.086731
 20
786.807068
 10
382.30603
 20
787.022461
 10
382.535614
 20
787.199829
 10
383.028961
 20
787.449219
  0
LWPOLYLINE
  5
B3
330
48
100
AcDbEntity
  8
0
  6
Continuous
 62
     0
370
     0
100
AcDbPolyline
 90
        3
 70
     0
 43
0.0
 10
382.522614
 20
787.518494
 10
382.694824
 20
787.535095
 10
383.028961
 20
787.449219
  0
LWPOLYLINE
  5
B4
330
48
100
AcDbEntity
  8
0
  6
Continuous
 62
     0
370
     0
100
AcDbPolyline
 90
        3
 70
     0
 43
0.0
 10
383.524536
 20
787.520691
 10
383.363129
 20
787.534851
 10
383.028961
 20
787.449219
  0
LWPOLYLINE
  5
B5
330
48
100
AcDbEntity
  8
0
  6
Continuous
 62
     0
370
    30
100
AcDbPolyline
 90
        4
 70
     0
 43
0.0
 10
384.473328
 20
786.924866
 10
384.199158
 20
787.165161
 10
383.894562
 20
787.368164
 10
383.521515
 20
787.521362
  0
ARC
  5
B6
330
48
100
AcDbEntity
  8
0
  6
Continuous
 62
     0
370
    30
100
AcDbCircle
 10
383.028078
 20
785.46594
 30
0.0
 40
2.113740275566605
100
AcDbArc
 50
76.577986
 51
103.446688
  0
LINE
  5
B7
330
48
100
AcDbEntity
  8
0
  6
Continuous
 62
     0
370
    30
100
AcDbLine
 10
383.522729
 20
787.521054
 30
0.0
 11
383.52152
 21
787.521324
 31
0.0
  0
LWPOLYLINE
  5
B8
330
48
100
AcDbEntity
  8
0
  6
Continuous
 62
     0
370
    30
100
AcDbPolyline
 90
        4
 70
     0
 43
0.0
 10
381.584503
 20
786.92627
 10
381.863983
 20
787.170166
 10
382.174408
 20
787.375061
 10
382.524719
 20
787.518982
  0
LWPOLYLINE
  5
B9
330
48
100
AcDbEntity
  8
0
  6
Continuous
 62
     0
370
    30
100
AcDbPolyline
 90
        4
 70
     0
 43
0.0
 10
411.572968
 20
756.914734
 10
411.813232
 20
757.188904
 10
412.016266
 20
757.49353
 10
412.169434
 20
757.866577
  0
ARC
  5
BA
330
48
100
AcDbEntity
  8
0
  6
Continuous
 62
     0
370
    30
100
AcDbCircle
 10
410.114042
 20
758.359999
 30
0.0
 40
2.113740275555736
100
AcDbArc
 50
346.577986
 51
13.446688
  0
LINE
  5
BB
330
48
100
AcDbEntity
  8
0
  6
Continuous
 62
     0
370
    30
100
AcDbLine
 10
412.169156
 20
757.865347
 30
0.0
 11
412.169426
 21
757.866557
 31
0.0
  0
LWPOLYLINE
  5
BC
330
48
100
AcDbEntity
  8
0
  6
Continuous
 62
     0
370
    30
100
AcDbPolyline
 90
        4
 70
     0
 43
0.0
 10
411.574371
 20
759.803589
 10
411.818298
 20
759.524109
 10
412.023132
 20
759.213684
 10
412.167084
 20
758.863342
  0
LWPOLYLINE
  5
BD
330
48
100
AcDbEntity
  8
0
  6
Continuous
 62
     0
370
    30
100
AcDbPolyline
 90
        4
 70
     0
 43
0.0
 10
381.562836
 20
729.815125
 10
381.837036
 20
729.574829
 10
382.141632
 20
729.371826
 10
382.514648
 20
729.218628
  0
ARC
  5
BE
330
48
100
AcDbEntity
  8
0
  6
Continuous
 62
     0
370
    30
100
AcDbCircle
 10
383.008101
 20
731.274035
 30
0.0
 40
2.113740275562519
100
AcDbArc
 50
256.577986
 51
283.446688
  0
LINE
  5
BF
330
48
100
AcDbEntity
  8
0
  6
Continuous
 62
     0
370
    30
100
AcDbLine
 10
382.513449
 20
729.21892
 30
0.0
 11
382.514659
 21
729.21865
 31
0.0
  0
LWPOLYLINE
  5
C0
330
48
100
AcDbEntity
  8
0
  6
Continuous
 62
     0
370
    30
100
AcDbPolyline
 90
        4
 70
     0
 43
0.0
 10
384.45166
 20
729.813721
 10
384.172211
 20
729.569763
 10
383.861786
 20
729.364929
 10
383.511475
 20
729.221008
  0
LWPOLYLINE
  5
C1
330
48
100
AcDbEntity
  8
0
  6
Continuous
 62
     0
370
    30
100
AcDbPolyline
 90
        4
 70
     0
 43
0.0
 10
354.462128
 20
756.936035
 10
354.222046
 20
757.210449
 10
354.019257
 20
757.515198
 10
353.866364
 20
757.888306
  0
ARC
  5
C2
330
48
100
AcDbEntity
  8
0
  6
Continuous
 62
     0
370
    30
100
AcDbCircle
 10
355.922137
 20
758.380234
 30
0.0
 40
2.113740275511374
100
AcDbArc
 50
166.510523
 51
193.379225
  0
LINE
  5
C3
330
48
100
AcDbEntity
  8
0
  6
Continuous
 62
     0
370
    30
100
AcDbLine
 10
353.866653
 20
757.887118
 30
0.0
 11
353.866384
 21
757.888327
 31
0.0
  0
LWPOLYLINE
  5
C4
330
48
100
AcDbEntity
  8
0
  6
Continuous
 62
     0
370
    30
100
AcDbPolyline
 90
        4
 70
     0
 43
0.0
 10
354.46286
 20
759.82489
 10
354.21875
 20
759.545593
 10
354.013672
 20
759.235352
 10
353.869476
 20
758.885132
  0
LWPOLYLINE
  5
C5
330
48
100
AcDbEntity
  8
0
  6
Continuous
 62
     0
370
    30
100
AcDbPolyline
 90
        4
 70
     0
 43
0.0
 10
519.268799
 20
786.93457
 10
518.99292
 20
787.172852
 10
518.686829
 20
787.373718
 10
518.312744
 20
787.52417
  0
ARC
  5
C6
330
48
100
AcDbEntity
  8
0
  6
Continuous
 62
     0
370
    30
100
AcDbCircle
 10
517.834023
 20
785.465316
 30
0.0
 40
2.113740275532755
100
AcDbArc
 50
76.988327
 51
103.85703
  0
LINE
  5
C7
330
48
100
AcDbEntity
  8
0
  6
Continuous
 62
     0
370
    30
100
AcDbLine
 10
518.313944
 20
787.523921
 30
0.0
 11
518.312732
 21
787.524182
 31
0.0
  0
LWPOLYLINE
  5
C8
330
48
100
AcDbEntity
  8
0
  6
Continuous
 62
     0
370
    30
100
AcDbPolyline
 90
        4
 70
     0
 43
0.0
 10
516.380005
 20
786.915283
 10
516.657776
 20
787.161194
 10
516.966675
 20
787.368225
 10
517.315979
 20
787.514709
  0
LWPOLYLINE
  5
C9
330
48
100
AcDbEntity
  8
0
  6
Continuous
 62
     0
370
    30
100
AcDbPolyline
 90
        4
 70
     0
 43
0.0
 10
546.582642
 20
757.119263
 10
546.820984
 20
757.395203
 10
547.02179
 20
757.701233
 10
547.172302
 20
758.075317
  0
ARC
  5
CA
330
48
100
AcDbEntity
  8
0
  6
Continuous
 62
     0
370
    30
100
AcDbCircle
 10
545.113418
 20
758.554053
 30
0.0
 40
2.113740275537165
100
AcDbArc
 50
346.988327
 51
13.85703
  0
LINE
  5
CB
330
48
100
AcDbEntity
  8
0
  6
Continuous
 62
     0
370
    30
100
AcDbLine
 10
547.172023
 20
758.074133
 30
0.0
 11
547.172284
 21
758.075344
 31
0.0
  0
LWPOLYLINE
  5
CC
330
48
100
AcDbEntity
  8
0
  6
Continuous
 62
     0
370
    30
100
AcDbPolyline
 90
        4
 70
     0
 43
0.0
 10
546.563354
 20
760.008057
 10
546.809265
 20
759.730347
 10
547.016357
 20
759.421387
 10
547.162781
 20
759.072083
  0
LWPOLYLINE
  5
CD
330
48
100
AcDbEntity
  8
0
  6
Continuous
 62
     0
370
    30
100
AcDbPolyline
 90
        4
 70
     0
 43
0.0
 10
516.767395
 20
729.80542
 10
517.043274
 20
729.567139
 10
517.349304
 20
729.366272
 10
517.72345
 20
729.215759
  0
ARC
  5
CE
330
48
100
AcDbEntity
  8
0
  6
Continuous
 62
     0
370
    30
100
AcDbCircle
 10
518.202155
 20
731.274658
 30
0.0
 40
2.113740275552158
100
AcDbArc
 50
256.988327
 51
283.85703
  0
LINE
  5
CF
330
48
100
AcDbEntity
  8
0
  6
Continuous
 62
     0
370
    30
100
AcDbLine
 10
517.722235
 20
729.216054
 30
0.0
 11
517.723446
 21
729.215792
 31
0.0
  0
LWPOLYLINE
  5
D0
330
48
100
AcDbEntity
  8
0
  6
Continuous
 62
     0
370
    30
100
AcDbPolyline
 90
        4
 70
     0
 43
0.0
 10
519.656128
 20
729.824707
 10
519.378418
 20
729.578796
 10
519.069458
 20
729.371704
 10
518.720215
 20
729.225281
  0
LWPOLYLINE
  5
D1
330
48
100
AcDbEntity
  8
0
  6
Continuous
 62
     0
370
    30
100
AcDbPolyline
 90
        4
 70
     0
 43
0.0
 10
489.473145
 20
756.731567
 10
489.23111
 20
757.004211
 10
489.026123
 20
757.307556
 10
488.870575
 20
757.679565
  0
ARC
  5
D2
330
48
100
AcDbEntity
  8
0
  6
Continuous
 62
     0
370
    30
100
AcDbCircle
 10
490.922758
 20
758.18618
 30
0.0
 40
2.113740275558023
100
AcDbArc
 50
166.920864
 51
193.789567
  0
LINE
  5
D3
330
48
100
AcDbEntity
  8
0
  6
Continuous
 62
     0
370
    30
100
AcDbLine
 10
488.870859
 20
757.678355
 30
0.0
 11
488.870582
 21
757.679563
 31
0.0
  0
LWPOLYLINE
  5
D4
330
48
100
AcDbEntity
  8
0
  6
Continuous
 62
     0
370
    30
100
AcDbPolyline
 90
        4
 70
     0
 43
0.0
 10
489.453186
 20
759.620361
 10
489.21106
 20
759.339294
 10
489.008209
 20
759.027588
 10
488.866516
 20
758.676392
  0
ARC
  5
D5
330
48
100
AcDbEntity
  8
0
  6
Continuous
 62
     0
370
     0
100
AcDbCircle
 10
486.315721
 20
618.371614
 30
0.0
 40
0.721522080351455
100
AcDbArc
 50
333.040822
 51
357.214579
  0
LWPOLYLINE
  5
D6
330
48
100
AcDbEntity
  8
0
  6
Continuous
 62
     0
370
     0
100
AcDbPolyline
 90
        3
 70
     0
 43
0.0
 10
486.958832
 20
618.044495
 10
486.846619
 20
617.869141
 10
486.535339
 20
617.57019
  0
LINE
  5
D7
330
48
100
AcDbEntity
  8
0
  6
Continuous
 62
     0
370
     0
100
AcDbLine
 10
486.535333
 20
617.570192
 30
0.0
 11
482.704598
 21
526.676464
 31
0.0
  0
LINE
  5
D8
330
48
100
AcDbEntity
  8
0
  6
Continuous
 62
     0
370
    30
100
AcDbLine
 10
482.704598
 20
526.676464
 30
0.0
 11
483.140773
 21
526.676463
 31
0.0
  0
LINE
  5
D9
330
48
100
AcDbEntity
  8
0
  6
Continuous
 62
     0
370
     0
100
AcDbLine
 10
449.501178
 20
598.269866
 30
0.0
 11
449.46033
 21
526.676464
 31
0.0
  0
LINE
  5
DA
330
48
100
AcDbEntity
  8
0
  6
Continuous
 62
     0
370
    30
100
AcDbLine
 10
449.46033
 20
526.676464
 30
0.0
 11
451.574899
 21
526.676464
 31
0.0
  0
LINE
  5
DB
330
48
100
AcDbEntity
  8
0
  6
Continuous
 62
     0
370
     0
100
AcDbLine
 10
451.574899
 20
526.676464
 30
0.0
 11
451.534053
 21
598.267829
 31
0.0
  0
ARC
  5
DC
330
48
100
AcDbEntity
  8
0
  6
Continuous
 62
     0
370
     0
100
AcDbCircle
 10
450.603638
 20
603.595768
 30
0.0
 40
5.408567563222833
100
AcDbArc
 50
270.896866
 51
279.905638
  0
LWPOLYLINE
  5
DD
330
48
100
AcDbEntity
  8
0
  6
Continuous
 62
     0
370
    30
100
AcDbPolyline
 90
       24
 70
     0
 43
0.0
 10
450.688293
 20
598.187866
 10
450.680359
 20
598.109802
 10
450.67218
 20
598.031738
 10
450.663483
 20
597.953796
 10
450.654144
 20
597.875916
 10
450.644318
 20
597.798035
 10
450.634064
 20
597.720154
 10
450.622345
 20
597.642761
 10
450.608429
 20
597.565613
 10
450.593018
 20
597.488098
 10
450.576569
 20
597.411133
 10
450.538788
 20
597.326843
 10
450.49054
 20
597.32489
 10
450.452271
 20
597.408325
 10
450.435364
 20
597.485779
 10
450.420044
 20
597.563232
 10
450.406128
 20
597.640442
 10
450.394348
 20
597.717834
 10
450.384033
 20
597.795715
 10
450.374176
 20
597.873596
 10
450.364807
 20
597.951477
 10
450.35611
 20
598.02948
 10
450.347931
 20
598.107483
 10
450.339691
 20
598.188354
  0
ARC
  5
DE
330
48
100
AcDbEntity
  8
0
  6
Continuous
 62
     0
370
     0
100
AcDbCircle
 10
450.438897
 20
603.562886
 30
0.0
 40
5.37544216706937
100
AcDbArc
 50
259.953633
 51
268.942633
  0
LINE
  5
DF
330
48
100
AcDbEntity
  8
0
  6
Continuous
 62
     0
370
    30
100
AcDbLine
 10
418.330628
 20
526.676464
 30
0.0
 11
417.894453
 21
526.676463
 31
0.0
  0
LINE
  5
E0
330
48
100
AcDbEntity
  8
0
  6
Continuous
 62
     0
370
     0
100
AcDbLine
 10
414.499671
 20
617.57222
 30
0.0
 11
418.330628
 21
526.676464
 31
0.0
  0
LWPOLYLINE
  5
E1
330
48
100
AcDbEntity
  8
0
  6
Continuous
 62
     0
370
     0
100
AcDbPolyline
 90
        3
 70
     0
 43
0.0
 10
414.076294
 20
618.044312
 10
414.188477
 20
617.869812
 10
414.499664
 20
617.572205
  0
ARC
  5
E2
330
48
100
AcDbEntity
  8
0
  6
Continuous
 62
     0
370
     0
100
AcDbCircle
 10
414.713865
 20
618.37004
 30
0.0
 40
0.7159586291751705
100
AcDbArc
 50
182.787938
 51
207.059605
  0
LINE
  5
E3
330
48
100
AcDbEntity
  8
0
  6
Continuous
 62
     0
370
    30
100
AcDbLine
 10
478.389757
 20
646.681922
 30
0.0
 11
478.395045
 21
646.672443
 31
0.0
  0
LINE
  5
E4
330
48
100
AcDbEntity
  8
0
  6
Continuous
 62
     0
370
    30
100
AcDbLine
 10
480.903268
 20
638.956885
 30
0.0
 11
478.389757
 21
646.681922
 31
0.0
  0
ARC
  5
E5
330
48
100
AcDbEntity
  8
0
  6
Continuous
 62
     0
370
     0
100
AcDbCircle
 10
480.063426
 20
638.445583
 30
0.0
 40
0.9832419493391094
100
AcDbArc
 50
17.114339
 51
31.333347
  0
LINE
  5
E6
330
48
100
AcDbEntity
  8
0
  6
Continuous
 62
     0
370
    30
100
AcDbLine
 10
478.395045
 20
646.672443
 30
0.0
 11
478.418757
 21
646.672218
 31
0.0
  0
LINE
  5
E7
330
48
100
AcDbEntity
  8
0
  6
Continuous
 62
     0
370
    30
100
AcDbLine
 10
422.624137
 20
646.672218
 30
0.0
 11
420.166017
 21
638.73256
 31
0.0
  0
ARC
  5
E8
330
48
100
AcDbEntity
  8
0
  6
Continuous
 62
     0
370
     0
100
AcDbCircle
 10
421.107718
 20
638.440609
 30
0.0
 40
0.9859188395376746
100
AcDbArc
 50
148.549101
 51
162.775472
  0
LINE
  5
E9
330
48
100
AcDbEntity
  8
0
  6
Continuous
 62
     0
370
    30
100
AcDbLine
 10
420.266642
 20
638.955029
 30
0.0
 11
422.655897
 21
646.678417
 31
0.0
  0
LINE
  5
EA
330
48
100
AcDbEntity
  8
0
  6
Continuous
 62
     0
370
    30
100
AcDbLine
 10
422.652428
 20
646.672218
 30
0.0
 11
422.624182
 21
646.672218
 31
0.0
  0
LINE
  5
EB
330
48
100
AcDbEntity
  8
0
  6
Continuous
 62
     0
370
    30
100
AcDbLine
 10
449.46033
 20
526.676464
 30
0.0
 11
418.33063
 21
526.676464
 31
0.0
  0
LINE
  5
EC
330
48
100
AcDbEntity
  8
0
  6
Continuous
 62
     0
370
     0
100
AcDbLine
 10
414.499668
 20
617.572218
 30
0.0
 11
449.501178
 21
598.269866
 31
0.0
  0
ARC
  5
ED
330
48
100
AcDbEntity
  8
0
  6
Continuous
 62
     0
370
     0
100
AcDbCircle
 10
93150.219482
 20
-167452.371701
 30
0.0
 40
191922.0251222986
100
AcDbArc
 50
118.869706
 51
118.881639
  0
LINE
  5
EE
330
48
100
AcDbEntity
  8
0
  6
Continuous
 62
     0
370
    30
100
AcDbLine
 10
451.574899
 20
526.676464
 30
0.0
 11
482.704597
 21
526.676464
 31
0.0
  0
LINE
  5
EF
330
48
100
AcDbEntity
  8
0
  6
Continuous
 62
     0
370
     0
100
AcDbLine
 10
449.453964
 20
598.956412
 30
0.0
 11
414.615765
 21
618.140273
 31
0.0
  0
LINE
  5
F0
330
48
100
AcDbEntity
  8
0
  6
Continuous
 62
     0
370
     0
100
AcDbLine
 10
446.961158
 20
602.323791
 30
0.0
 11
449.453964
 21
598.956412
 31
0.0
  0
LINE
  5
F1
330
48
100
AcDbEntity
  8
0
  6
Continuous
 62
     0
370
     0
100
AcDbLine
 10
420.904983
 20
637.521486
 30
0.0
 11
437.64481
 21
614.908676
 31
0.0
  0
LINE
  5
F2
330
48
100
AcDbEntity
  8
0
  6
Continuous
 62
     0
370
    30
100
AcDbLine
 10
420.699796
 20
637.79866
 30
0.0
 11
420.904983
 21
637.521486
 31
0.0
  0
LINE
  5
F3
330
48
100
AcDbEntity
  8
0
  6
Continuous
 62
     0
370
     0
100
AcDbLine
 10
414.615765
 20
618.140273
 30
0.0
 11
420.699769
 21
637.798684
 31
0.0
  0
LINE
  5
F4
330
48
100
AcDbEntity
  8
0
  6
Continuous
 62
     0
370
     0
100
AcDbLine
 10
451.586187
 20
598.959316
 30
0.0
 11
486.421198
 21
618.141495
 31
0.0
  0
LINE
  5
F5
330
48
100
AcDbEntity
  8
0
  6
Continuous
 62
     0
370
     0
100
AcDbLine
 10
486.421198
 20
618.141495
 30
0.0
 11
480.472485
 21
637.79363
 31
0.0
  0
LINE
  5
F6
330
48
100
AcDbEntity
  8
0
  6
Continuous
 62
     0
370
     0
100
AcDbLine
 10
454.095644
 20
602.332992
 30
0.0
 11
451.586187
 21
598.959316
 31
0.0
  0
LINE
  5
F7
330
48
100
AcDbEntity
  8
0
  6
Continuous
 62
     0
370
     0
100
AcDbLine
 10
480.472485
 20
637.79363
 30
0.0
 11
463.3754
 21
614.808561
 31
0.0
  0
LINE
  5
F8
330
48
100
AcDbEntity
  8
0
  6
Continuous
 62
     0
370
     0
100
AcDbLine
 10
420.16562
 20
638.732661
 30
0.0
 11
414.066084
 21
619.024188
 31
0.0
  0
LINE
  5
F9
330
48
100
AcDbEntity
  8
0
  6
Continuous
 62
     0
370
     0
100
AcDbLine
 10
414.066086
 20
619.024187
 30
0.0
 11
414.063473
 21
619.015622
 31
0.0
  0
LWPOLYLINE
  5
FA
330
48
100
AcDbEntity
  8
0
  6
Continuous
 62
     0
370
     0
100
AcDbPolyline
 90
        3
 70
     0
 43
0.0
 10
420.699768
 20
637.798645
 10
420.472778
 20
637.946899
 10
420.231201
 20
638.229187
  0
LWPOLYLINE
  5
FB
330
48
100
AcDbEntity
  8
0
  6
Continuous
 62
     0
370
     0
100
AcDbPolyline
 90
        3
 70
     0
 43
0.0
 10
420.231201
 20
638.229187
 10
420.154266
 20
638.432251
 10
420.165619
 20
638.732666
  0
LWPOLYLINE
  5
FC
330
48
100
AcDbEntity
  8
0
  6
Continuous
 62
     0
370
     0
100
AcDbPolyline
 90
        3
 70
     0
 43
0.0
 10
414.066101
 20
619.02417
 10
414.044495
 20
618.837769
 10
414.139435
 20
618.545776
  0
LWPOLYLINE
  5
FD
330
48
100
AcDbEntity
  8
0
  6
Continuous
 62
     0
370
     0
100
AcDbPolyline
 90
        3
 70
     0
 43
0.0
 10
414.139435
 20
618.545776
 10
414.282776
 20
618.366943
 10
414.615784
 20
618.140259
  0
LWPOLYLINE
  5
FE
330
48
100
AcDbEntity
  8
0
  6
Continuous
 62
     0
370
     0
100
AcDbPolyline
 90
        3
 70
     0
 43
0.0
 10
481.003113
 20
638.734924
 10
481.029724
 20
638.536316
 10
480.941467
 20
638.227417
  0
LWPOLYLINE
  5
FF
330
48
100
AcDbEntity
  8
0
  6
Continuous
 62
     0
370
     0
100
AcDbPolyline
 90
        3
 70
     0
 43
0.0
 10
480.941467
 20
638.227417
 10
480.799896
 20
638.035706
 10
480.472473
 20
637.79364
  0
LWPOLYLINE
  5
100
330
48
100
AcDbEntity
  8
0
  6
Continuous
 62
     0
370
     0
100
AcDbPolyline
 90
        3
 70
     0
 43
0.0
 10
486.421448
 20
618.141541
 10
486.651062
 20
618.279053
 10
486.897278
 20
618.54541
  0
LWPOLYLINE
  5
101
330
48
100
AcDbEntity
  8
0
  6
Continuous
 62
     0
370
     0
100
AcDbPolyline
 90
        3
 70
     0
 43
0.0
 10
486.897278
 20
618.54541
 10
486.976776
 20
618.737061
 10
486.970123
 20
619.023193
  0
ARC
  5
102
330
48
100
AcDbEntity
  8
0
  6
Continuous
 62
     0
370
     0
100
AcDbCircle
 10
488.159691
 20
618.225367
 30
0.0
 40
1.751510242847833
100
AcDbArc
 50
191.52803
 51
201.966473
  0
ARC
  5
103
330
48
100
AcDbEntity
  8
0
  6
Continuous
 62
     0
370
     0
100
AcDbCircle
 10
487.524214
 20
618.099958
 30
0.0
 40
1.10379699282044
100
AcDbArc
 50
177.843399
 51
191.741857
  0
ARC
  5
104
330
48
100
AcDbEntity
  8
0
  6
Continuous
 62
     0
370
     0
100
AcDbCircle
 10
452.84724
 20
598.544634
 30
0.0
 40
1.327485134714548
100
AcDbArc
 50
161.797168
 51
176.134387
  0
ARC
  5
105
330
48
100
AcDbEntity
  8
0
  6
Continuous
 62
     0
370
     0
100
AcDbCircle
 10
453.35775
 20
598.507303
 30
0.0
 40
1.83935322669774
100
AcDbArc
 50
176.046249
 51
187.480819
  0
ARC
  5
106
330
48
100
AcDbEntity
  8
0
  6
Continuous
 62
     0
370
     0
100
AcDbCircle
 10
480.027083
 20
639.044925
 30
0.0
 40
1.328202076045728
100
AcDbArc
 50
283.301362
 51
289.593347
  0
LINE
  5
107
330
48
100
AcDbEntity
  8
0
  6
Continuous
 62
     0
370
    30
100
AcDbLine
 10
453.95916
 20
602.296191
 30
0.0
 11
451.494976
 21
598.983377
 31
0.0
  0
LINE
  5
108
330
48
100
AcDbEntity
  8
0
  6
Continuous
 62
     0
370
    30
100
AcDbLine
 10
480.332666
 20
637.752354
 30
0.0
 11
463.38834
 21
614.972645
 31
0.0
  0
ARC
  5
109
330
48
100
AcDbEntity
  8
0
  6
Continuous
 62
     0
370
     0
100
AcDbCircle
 10
451.80538
 20
599.975133
 30
0.0
 40
1.039196640385773
100
AcDbArc
 50
252.620696
 51
257.823264
  0
ARC
  5
10A
330
48
100
AcDbEntity
  8
0
  6
Continuous
 62
     0
370
     0
100
AcDbCircle
 10
447.683658
 20
598.518878
 30
0.0
 40
1.834499009862851
100
AcDbArc
 50
352.198662
 51
3.580761
  0
ARC
  5
10B
330
48
100
AcDbEntity
  8
0
  6
Continuous
 62
     0
370
     0
100
AcDbCircle
 10
448.194838
 20
598.552939
 30
0.0
 40
1.32219075392047
100
AcDbArc
 50
3.491129
 51
17.76748
  0
ARC
  5
10C
330
48
100
AcDbEntity
  8
0
  6
Continuous
 62
     0
370
     0
100
AcDbCircle
 10
413.508406
 20
618.105609
 30
0.0
 40
1.107900861817933
100
AcDbArc
 50
348.012876
 51
1.79297
  0
ARC
  5
10D
330
48
100
AcDbEntity
  8
0
  6
Continuous
 62
     0
370
     0
100
AcDbCircle
 10
412.873896
 20
618.233704
 30
0.0
 40
1.755191787337629
100
AcDbArc
 50
337.859809
 51
348.224422
  0
LINE
  5
10E
330
48
100
AcDbEntity
  8
0
  6
Continuous
 62
     0
370
     0
100
AcDbLine
 10
449.540398
 20
598.979649
 30
0.0
 11
449.453968
 21
598.956413
 31
0.0
  0
LINE
  5
10F
330
48
100
AcDbEntity
  8
0
  6
Continuous
 62
     0
370
    30
100
AcDbLine
 10
447.0778
 20
602.292593
 30
0.0
 11
449.540398
 21
598.979649
 31
0.0
  0
ARC
  5
110
330
48
100
AcDbEntity
  8
0
  6
Continuous
 62
     0
370
    30
100
AcDbCircle
 10
81819.546498
 20
61083.508508
 30
0.0
 40
101387.653033594
100
AcDbArc
 50
216.597287
 51
216.613146
  0
LWPOLYLINE
  5
111
330
48
100
AcDbEntity
  8
0
  6
Continuous
 62
     0
370
     0
100
AcDbPolyline
 90
        4
 70
     0
 43
0.0
 10
414.592163
 20
617.875488
 10
414.447235
 20
617.977966
 10
414.340454
 20
618.091858
 10
414.194641
 20
618.312927
  0
LWPOLYLINE
  5
112
330
48
100
AcDbEntity
  8
0
  6
Continuous
 62
     0
370
     0
100
AcDbPolyline
 90
        3
 70
     0
 43
0.0
 10
414.194641
 20
618.312927
 10
414.141571
 20
618.188599
 10
414.076263
 20
618.044312
  0
LWPOLYLINE
  5
113
330
48
100
AcDbEntity
  8
0
  6
Continuous
 62
     0
370
     0
100
AcDbPolyline
 90
        3
 70
     0
 43
0.0
 10
414.139435
 20
618.545776
 10
414.159607
 20
618.453796
 10
414.194641
 20
618.312927
  0
LWPOLYLINE
  5
114
330
48
100
AcDbEntity
  8
0
  6
Continuous
 62
     0
370
     0
100
AcDbPolyline
 90
        4
 70
     0
 43
0.0
 10
414.008759
 20
618.733948
 10
414.021393
 20
618.623413
 10
414.068909
 20
618.513977
 10
414.194641
 20
618.312927
  0
LWPOLYLINE
  5
115
330
48
100
AcDbEntity
  8
0
  6
Continuous
 62
     0
370
    30
100
AcDbPolyline
 90
        6
 70
     0
 43
0.0
 10
420.699768
 20
637.798706
 10
420.642853
 20
637.915588
 10
420.61441
 20
638.042358
 10
420.602905
 20
638.171753
 10
420.606659
 20
638.301575
 10
420.639404
 20
638.468445
  0
ARC
  5
116
330
48
100
AcDbEntity
  8
0
  6
Continuous
 62
     0
370
    30
100
AcDbCircle
 10
421.287819
 20
640.033475
 30
0.0
 40
1.694059176504963
100
AcDbArc
 50
242.88674
 51
247.495761
  0
ARC
  5
117
330
48
100
AcDbEntity
  8
0
  6
Continuous
 62
     0
370
     0
100
AcDbCircle
 10
420.934375
 20
637.838887
 30
0.0
 40
0.8042354061287051
100
AcDbArc
 50
121.367513
 51
150.968126
  0
LWPOLYLINE
  5
118
330
48
100
AcDbEntity
  8
0
  6
Continuous
 62
     0
370
    30
100
AcDbPolyline
 90
        4
 70
     0
 43
0.0
 10
420.515747
 20
638.525574
 10
420.33844
 20
638.65741
 10
420.261566
 20
638.800598
 10
420.26651
 20
638.955078
  0
ARC
  5
119
330
48
100
AcDbEntity
  8
0
  6
Continuous
 62
     0
370
     0
100
AcDbCircle
 10
480.244008
 20
637.844431
 30
0.0
 40
0.7956854635697997
100
AcDbArc
 50
28.773555
 51
58.817481
  0
ARC
  5
11A
330
48
100
AcDbEntity
  8
0
  6
Continuous
 62
     0
370
    30
100
AcDbCircle
 10
479.761025
 20
640.303978
 30
0.0
 40
1.991270857662768
100
AcDbArc
 50
288.686136
 51
296.707928
  0
LWPOLYLINE
  5
11B
330
48
100
AcDbEntity
  8
0
  6
Continuous
 62
     0
370
    30
100
AcDbPolyline
 90
        5
 70
     0
 43
0.0
 10
480.332672
 20
637.75238
 10
480.397858
 20
637.891296
 10
480.429321
 20
638.041199
 10
480.436584
 20
638.194641
 10
480.398987
 20
638.417664
  0
LWPOLYLINE
  5
11C
330
48
100
AcDbEntity
  8
0
  6
Continuous
 62
     0
370
    30
100
AcDbPolyline
 90
        4
 70
     0
 43
0.0
 10
480.655975
 20
638.525146
 10
480.83429
 20
638.658081
 10
480.910278
 20
638.80249
 10
480.903259
 20
638.956909
  0
LWPOLYLINE
  5
11D
330
48
100
AcDbEntity
  8
0
  6
Continuous
 62
     0
370
     0
100
AcDbPolyline
 90
        3
 70
     0
 43
0.0
 10
486.841064
 20
618.312988
 10
486.893738
 20
618.188843
 10
486.958832
 20
618.044495
  0
LWPOLYLINE
  5
11E
330
48
100
AcDbEntity
  8
0
  6
Continuous
 62
     0
370
     0
100
AcDbPolyline
 90
        4
 70
     0
 43
0.0
 10
486.443512
 20
617.875305
 10
486.588684
 20
617.978027
 10
486.695496
 20
618.092163
 10
486.841064
 20
618.312988
  0
LWPOLYLINE
  5
11F
330
48
100
AcDbEntity
  8
0
  6
Continuous
 62
     0
370
     0
100
AcDbPolyline
 90
        3
 70
     0
 43
0.0
 10
486.897156
 20
618.545471
 10
486.876556
 20
618.453491
 10
486.841064
 20
618.312988
  0
LWPOLYLINE
  5
120
330
48
100
AcDbEntity
  8
0
  6
Continuous
 62
     0
370
     0
100
AcDbPolyline
 90
        4
 70
     0
 43
0.0
 10
487.026642
 20
618.733582
 10
487.014069
 20
618.623535
 10
486.967041
 20
618.514587
 10
486.841064
 20
618.312988
  0
LWPOLYLINE
  5
121
330
48
100
AcDbEntity
  8
0
  6
Continuous
 62
     0
370
    30
100
AcDbPolyline
 90
        7
 70
     0
 43
0.0
 10
449.882965
 20
598.576538
 10
449.944885
 20
598.501282
 10
450.019623
 20
598.438171
 10
450.100769
 20
598.38324
 10
450.184357
 20
598.331482
 10
450.265503
 20
598.277649
 10
450.339691
 20
598.188354
  0
ARC
  5
122
330
48
100
AcDbEntity
  8
0
  6
Continuous
 62
     0
370
     0
100
AcDbCircle
 10
450.108941
 20
601.259287
 30
0.0
 40
2.692262402948452
100
AcDbArc
 50
257.245837
 51
265.185496
  0
LWPOLYLINE
  5
123
330
48
100
AcDbEntity
  8
0
  6
Continuous
 62
     0
370
    30
100
AcDbPolyline
 90
        3
 70
     0
 43
0.0
 10
449.540405
 20
598.979675
 10
449.695618
 20
598.797974
 10
449.882996
 20
598.576538
  0
LWPOLYLINE
  5
124
330
48
100
AcDbEntity
  8
0
  6
Continuous
 62
     0
370
    30
100
AcDbPolyline
 90
        3
 70
     0
 43
0.0
 10
451.147644
 20
598.576477
 10
451.294678
 20
598.752502
 10
451.494965
 20
598.983398
  0
ARC
  5
125
330
48
100
AcDbEntity
  8
0
  6
Continuous
 62
     0
370
     0
100
AcDbCircle
 10
450.930219
 20
601.239769
 30
0.0
 40
2.672168813589419
100
AcDbArc
 50
274.667302
 51
282.811891
  0
LWPOLYLINE
  5
126
330
48
100
AcDbEntity
  8
0
  6
Continuous
 62
     0
370
    30
100
AcDbPolyline
 90
        7
 70
     0
 43
0.0
 10
450.688293
 20
598.187866
 10
450.747864
 20
598.265808
 10
450.829254
 20
598.321411
 10
450.913483
 20
598.373352
 10
450.995972
 20
598.427673
 10
451.072906
 20
598.489319
 10
451.147644
 20
598.576477
  0
LINE
  5
127
330
48
100
AcDbEntity
  8
0
  6
Continuous
 62
     0
370
    30
100
AcDbLine
 10
478.389322
 20
646.681694
 30
0.0
 11
478.360417
 21
646.672218
 31
0.0
  0
LINE
  5
128
330
48
100
AcDbEntity
  8
0
  6
Continuous
 62
     0
370
    30
100
AcDbLine
 10
422.674812
 20
646.672218
 30
0.0
 11
422.655898
 21
646.678417
 31
0.0
  0
LINE
  5
129
330
48
100
AcDbEntity
  8
0
  6
Continuous
 62
     0
370
    30
100
AcDbLine
 10
422.674812
 20
646.672218
 30
0.0
 11
478.360417
 21
646.672218
 31
0.0
  0
LINE
  5
12A
330
48
100
AcDbEntity
  8
0
  6
Continuous
 62
     0
370
    30
100
AcDbLine
 10
480.398996
 20
638.417713
 30
0.0
 11
420.639415
 21
638.468419
 31
0.0
  0
LWPOLYLINE
  5
12B
330
48
100
AcDbEntity
  8
0
  6
Continuous
 62
     0
370
    30
100
AcDbPolyline
 90
       16
 70
     0
 43
0.0
 10
438.317505
 20
622.901978
 10
438.333374
 20
624.074158
 10
438.471954
 20
625.276489
 10
438.744171
 20
626.49823
 10
439.157776
 20
627.718689
 10
439.716187
 20
628.914795
 10
440.417572
 20
630.062378
 10
441.254486
 20
631.137329
 10
442.213989
 20
632.117188
 10
443.278137
 20
632.982971
 10
444.425293
 20
633.719971
 10
445.631287
 20
634.318848
 10
446.871246
 20
634.775696
 10
448.121033
 20
635.09198
 10
449.35849
 20
635.273865
 10
450.580872
 20
635.331177
  0
LWPOLYLINE
  5
12C
330
48
100
AcDbEntity
  8
0
  6
Continuous
 62
     0
370
    30
100
AcDbPolyline
 90
       17
 70
     0
 43
0.0
 10
450.580872
 20
635.331177
 10
451.737335
 20
635.275024
 10
452.923279
 20
635.104431
 10
454.121918
 20
634.810547
 10
455.313965
 20
634.387695
 10
456.47818
 20
633.833862
 10
457.592529
 20
633.151733
 10
458.635468
 20
632.34845
 10
459.587036
 20
631.435913
 10
460.430298
 20
630.430054
 10
461.152191
 20
629.34967
 10
461.744263
 20
628.215881
 10
462.20285
 20
627.050171
 10
462.5289
 20
625.873657
 10
462.727539
 20
624.705811
 10
462.807129
 20
623.56366
 10
462.771729
 20
622.372375
  0
ELLIPSE
  5
12D
330
48
100
AcDbEntity
  8
0
  6
Continuous
 62
     0
370
    30
100
AcDbEllipse
 10
450.513155
 20
615.689189
 30
0.0
 11
-12.89986121387197
 21
0.05983864003757359
 31
0.0
210
0.0
220
0.0
230
-1.0
 40
0.879593
 41
0.9486059430515329
 42
3.528581033310362
  0
ELLIPSE
  5
12E
330
48
100
AcDbEntity
  8
0
  6
Continuous
 62
     0
370
    30
100
AcDbEllipse
 10
450.513155
 20
615.689189
 30
0.0
 11
-12.89986121387197
 21
0.05983864003757359
 31
0.0
210
0.0
220
0.0
230
-1.0
 40
0.879593
 41
5.896196927459009
 42
7.231791250231119
  0
ELLIPSE
  5
12F
330
48
100
AcDbEntity
  8
0
  6
Continuous
 62
     0
370
    30
100
AcDbEllipse
 10
450.529595
 20
619.23331
 30
0.0
 11
12.89986121387197
 21
-0.05983864003757359
 31
0.0
210
0.0
220
0.0
230
1.0
 40
0.879593
 41
2.192986710538261
 42
3.141592653589793
  0
ELLIPSE
  5
130
330
48
100
AcDbEntity
  8
0
  6
Continuous
 62
     0
370
    30
100
AcDbEllipse
 10
450.529595
 20
619.23331
 30
0.0
 11
12.89986121387197
 21
-0.05983864003757359
 31
0.0
210
0.0
220
0.0
230
1.0
 40
0.879593
 41
6.283185307179586
 42
6.529625424698604
  0
LINE
  5
131
330
48
100
AcDbEntity
  8
0
  6
Continuous
 62
     0
370
    30
100
AcDbLine
 10
463.052553
 20
621.943327
 30
0.0
 11
463.045933
 21
620.516164
 31
0.0
  0
ELLIPSE
  5
132
330
48
100
AcDbEntity
  8
0
  6
Continuous
 62
     0
370
    30
100
AcDbEllipse
 10
450.522975
 20
617.806147
 30
0.0
 11
12.89986121387197
 21
-0.05983864003757359
 31
0.0
210
0.0
220
0.0
230
1.0
 40
0.879593
 41
0.2464401175190201
 42
0.9979406499677062
  0
LINE
  5
133
330
48
100
AcDbEntity
  8
0
  6
Continuous
 62
     0
370
    30
100
AcDbLine
 10
457.55937
 20
627.30893
 30
0.0
 11
457.56599
 21
628.736093
 31
0.0
  0
ELLIPSE
  5
134
330
48
100
AcDbEntity
  8
0
  6
Continuous
 62
     0
370
    30
100
AcDbEllipse
 10
450.529595
 20
619.23331
 30
0.0
 11
12.89986121387197
 21
-0.05983864003757359
 31
0.0
210
0.0
220
0.0
230
1.0
 40
0.879593
 41
0.997940649967707
 42
2.192986710538261
  0
ELLIPSE
  5
135
330
48
100
AcDbEntity
  8
0
  6
Continuous
 62
     0
370
    30
100
AcDbEllipse
 10
450.552876
 20
624.252167
 30
0.0
 11
11.24987896558602
 21
-0.05218486049788394
 31
0.0
210
0.0
220
0.0
230
1.0
 40
0.879593
 41
2.192986710538261
 42
3.08478145112327
  0
ELLIPSE
  5
136
330
48
100
AcDbEntity
  8
0
  6
Continuous
 62
     0
370
    30
100
AcDbEllipse
 10
450.552876
 20
624.252167
 30
0.0
 11
11.24987896558602
 21
-0.05218486049788394
 31
0.0
210
0.0
220
0.0
230
1.0
 40
0.879593
 41
6.283185307179586
 42
8.476172017717847
  0
LWPOLYLINE
  5
137
330
48
100
AcDbEntity
  8
0
  6
Continuous
 62
     0
370
    30
100
AcDbPolyline
 90
        7
 70
     0
 43
0.0
 10
457.565979
 20
628.736084
 10
458.431519
 20
627.889221
 10
459.320587
 20
626.936401
 10
460.224396
 20
625.874878
 10
461.129211
 20
624.715515
 10
462.020782
 20
623.480286
 10
463.052551
 20
621.943298
  0
ELLIPSE
  5
138
330
48
100
AcDbEntity
  8
0
  6
Continuous
 62
     0
370
    30
100
AcDbEllipse
 10
450.513155
 20
615.689189
 30
0.0
 11
-11.9998230949654
 21
0.05566362945998393
 31
0.0
210
0.0
220
0.0
230
-1.0
 40
0.879593
 41
0.9633875087947732
 42
3.141592653589794
  0
ELLIPSE
  5
139
330
48
100
AcDbEntity
  8
0
  6
Continuous
 62
     0
370
    30
100
AcDbEllipse
 10
450.513155
 20
615.689189
 30
0.0
 11
-11.9998230949654
 21
0.05566362945998393
 31
0.0
210
0.0
220
0.0
230
-1.0
 40
0.879593
 41
0.0000000000000001
 42
0.9633875087947711
  0
LINE
  5
13A
330
48
100
AcDbEntity
  8
0
  6
Continuous
 62
     0
370
    30
100
AcDbLine
 10
456.841038
 20
622.695836
 30
0.0
 11
456.834856
 21
621.363004
 31
0.0
  0
ELLIPSE
  5
13B
330
48
100
AcDbEntity
  8
0
  6
Continuous
 62
     0
370
    30
100
AcDbEllipse
 10
450.50411
 20
613.739155
 30
0.0
 11
11.9998230949654
 21
-0.05566362945998393
 31
0.0
210
0.0
220
0.0
230
1.0
 40
0.879593
 41
0.1962800926320254
 42
1.018537543368234
  0
LINE
  5
13C
330
48
100
AcDbEntity
  8
0
  6
Continuous
 62
     0
370
    30
100
AcDbLine
 10
462.276888
 20
614.410181
 30
0.0
 11
462.283071
 21
615.743013
 31
0.0
  0
ELLIPSE
  5
13D
330
48
100
AcDbEntity
  8
0
  6
Continuous
 62
     0
370
    30
100
AcDbEllipse
 10
450.497927
 20
612.406323
 30
0.0
 11
11.9998230949654
 21
-0.05566362945998393
 31
0.0
210
0.0
220
0.0
230
1.0
 40
0.879593
 41
4.160130196958029
 42
6.479465399811759
  0
ELLIPSE
  5
13E
330
48
100
AcDbEntity
  8
0
  6
Continuous
 62
     0
370
    30
100
AcDbEllipse
 10
450.497927
 20
612.406323
 30
0.0
 11
11.9998230949654
 21
-0.05566362945998393
 31
0.0
210
0.0
220
0.0
230
1.0
 40
0.879593
 41
2.178205144795022
 42
3.337872746221972
  0
ELLIPSE
  5
13F
330
48
100
AcDbEntity
  8
0
  6
Continuous
 62
     0
370
    30
100
AcDbEllipse
 10
450.497927
 20
612.406323
 30
0.0
 11
11.9998230949654
 21
-0.05566362945998393
 31
0.0
210
0.0
220
0.0
230
1.0
 40
0.879593
 41
1.018537543368232
 42
2.178205144795021
  0
ELLIPSE
  5
140
330
48
100
AcDbEntity
  8
0
  6
Continuous
 62
     0
370
    30
100
AcDbEllipse
 10
450.496824
 20
612.168462
 30
0.0
 11
-11.49982847427178
 21
0.05334430232674046
 31
0.0
210
0.0
220
0.0
230
-1.0
 40
0.879593
 41
2.830133124516683
 42
5.37982720025243
  0
LINE
  5
141
330
48
100
AcDbEntity
  8
0
  6
Continuous
 62
     0
370
    30
100
AcDbLine
 10
457.651794
 20
620.080001
 30
0.0
 11
461.457744
 21
615.217462
 31
0.0
  0
ELLIPSE
  5
142
330
48
100
AcDbEntity
  8
0
  6
Continuous
 62
     0
370
    30
100
AcDbEllipse
 10
450.496824
 20
612.168462
 30
0.0
 11
-11.49982847427178
 21
0.05334430232674046
 31
0.0
210
0.0
220
0.0
230
-1.0
 40
0.879593
 41
5.971725778106479
 42
8.521419853842229
  0
LINE
  5
143
330
48
100
AcDbEntity
  8
0
  6
Continuous
 62
     0
370
    30
100
AcDbLine
 10
443.341854
 20
604.256923
 30
0.0
 11
439.535904
 21
609.119462
 31
0.0
  0
ELLIPSE
  5
144
330
48
100
AcDbEntity
  8
0
  6
Continuous
 62
     0
370
    30
100
AcDbEllipse
 10
450.496824
 20
612.168462
 30
0.0
 11
10.49988703454696
 21
-0.04870586979802564
 31
0.0
210
0.0
220
0.0
230
1.0
 40
0.879593
 41
0.6074088180001249
 42
3.749001471589918
  0
ELLIPSE
  5
145
330
48
100
AcDbEntity
  8
0
  6
Continuous
 62
     0
370
    30
100
AcDbEllipse
 10
450.496824
 20
612.168462
 30
0.0
 11
10.49988703454696
 21
-0.04870586979802564
 31
0.0
210
0.0
220
0.0
230
1.0
 40
0.879593
 41
3.749001471589919
 42
6.890594125179711
  0
ARC
  5
146
330
48
100
AcDbEntity
  8
0
  6
Continuous
 62
     0
370
    30
100
AcDbCircle
 10
461.259481
 20
621.618623
 30
0.0
 40
24.94934858667857
100
AcDbArc
 50
224.097214
 51
226.738605
  0
ARC
  5
147
330
48
100
AcDbEntity
  8
0
  6
Continuous
 62
     0
370
    30
100
AcDbCircle
 10
487.818399
 20
640.764406
 30
0.0
 40
57.72869116702795
100
AcDbArc
 50
211.731678
 51
213.241329
  0
LINE
  5
148
330
48
100
AcDbEntity
  8
0
  6
Continuous
 62
     0
370
    30
100
AcDbLine
 10
456.834856
 20
621.363004
 30
0.0
 11
457.651794
 21
620.080001
 31
0.0
  0
LINE
  5
149
330
48
100
AcDbEntity
  8
0
  6
Continuous
 62
     0
370
    30
100
AcDbLine
 10
461.457744
 20
615.217462
 30
0.0
 11
462.276888
 21
614.410181
 31
0.0
  0
LINE
  5
14A
330
48
100
AcDbEntity
  8
0
  6
Continuous
 62
     0
370
    30
100
AcDbLine
 10
456.841038
 20
622.695836
 30
0.0
 11
462.283071
 21
615.743013
 31
0.0
  0
ELLIPSE
  5
14B
330
48
100
AcDbEntity
  8
0
  6
Continuous
 62
     0
370
    30
100
AcDbEllipse
 10
450.501237
 20
613.119904
 30
0.0
 11
10.49988703454696
 21
-0.04870586979802564
 31
0.0
210
0.0
220
0.0
230
1.0
 40
0.879593
 41
3.193124763820359
 42
3.749001471589918
  0
ELLIPSE
  5
14C
330
48
100
AcDbEntity
  8
0
  6
Continuous
 62
     0
370
    30
100
AcDbEllipse
 10
450.501237
 20
613.119904
 30
0.0
 11
10.49988703454696
 21
-0.04870586979802564
 31
0.0
210
0.0
220
0.0
230
1.0
 40
0.879593
 41
3.749001471589918
 42
6.231653196949018
  0
ELLIPSE
  5
14D
330
48
100
AcDbEntity
  8
0
  6
Continuous
 62
     0
370
    30
100
AcDbEllipse
 10
450.563358
 20
623.619775
 30
0.0
 11
12.24908577834054
 21
-0.1496582602317587
 31
0.0
210
0.0
220
0.0
230
0.9999999999999999
 40
0.980246
 41
6.194212215362531
 42
6.270831999239099
  0
ELLIPSE
  5
14E
330
48
100
AcDbEntity
  8
0
  6
Continuous
 62
     0
370
    30
100
AcDbEllipse
 10
450.563358
 20
623.619775
 30
0.0
 11
12.24908577834054
 21
-0.1496582602317587
 31
0.0
210
0.0
220
0.0
230
0.9999999999999999
 40
0.980246
 41
3.15394596153027
 42
3.210502331590412
  0
LINE
  5
14F
330
48
100
AcDbEntity
  8
0
  6
Continuous
 62
     0
370
    30
100
AcDbLine
 10
462.49775
 20
612.350659
 30
0.0
 11
462.512978
 21
615.633525
 31
0.0
  0
LINE
  5
150
330
48
100
AcDbEntity
  8
0
  6
Continuous
 62
     0
370
    30
100
AcDbLine
 10
438.498104
 20
612.461986
 30
0.0
 11
438.513332
 21
615.744853
 31
0.0
  0
LINE
  5
151
330
48
100
AcDbEntity
  8
0
  6
Continuous
 62
     0
370
    30
100
AcDbLine
 10
461.800869
 20
623.793256
 30
0.0
 11
461.802755
 21
624.199982
 31
0.0
  0
LINE
  5
152
330
48
100
AcDbEntity
  8
0
  6
Continuous
 62
     0
370
    30
100
AcDbLine
 10
437.629734
 20
619.293149
 30
0.0
 11
437.613294
 21
615.749028
 31
0.0
  0
LINE
  5
153
330
48
100
AcDbEntity
  8
0
  6
Continuous
 62
     0
370
    30
100
AcDbLine
 10
463.429457
 20
619.173472
 30
0.0
 11
463.413017
 21
615.62935
 31
0.0
  0
ARC
  5
154
330
48
100
AcDbEntity
  8
0
  6
Continuous
 62
     0
370
    30
100
AcDbCircle
 10
482.914161
 20
618.430266
 30
0.0
 40
4.123650291866394
100
AcDbArc
 50
358.697581
 51
4.198412
  0
LWPOLYLINE
  5
155
330
48
100
AcDbEntity
  8
0
  6
Continuous
 62
     0
370
    30
100
AcDbPolyline
 90
        4
 70
     0
 43
0.0
 10
486.971039
 20
619.020203
 10
486.993713
 20
618.937805
 10
487.010834
 20
618.855835
 10
487.026642
 20
618.733582
  0
ARC
  5
156
330
48
100
AcDbEntity
  8
0
  6
Continuous
 62
     0
370
    30
100
AcDbCircle
 10
418.078674
 20
618.428605
 30
0.0
 40
4.081355308882291
100
AcDbArc
 50
175.729459
 51
181.311351
  0
LWPOLYLINE
  5
157
330
48
100
AcDbEntity
  8
0
  6
Continuous
 62
     0
370
    30
100
AcDbPolyline
 90
        4
 70
     0
 43
0.0
 10
414.008759
 20
618.733948
 10
414.017944
 20
618.813477
 10
414.031799
 20
618.892456
 10
414.065826
 20
619.023315
  0
LINE
  5
158
330
48
100
AcDbEntity
  8
0
  6
Continuous
 62
     0
370
    30
100
AcDbLine
 10
481.005793
 20
638.726323
 30
0.0
 11
486.971224
 21
619.019615
 31
0.0
  0
LINE
  5
159
330
48
100
AcDbEntity
  8
0
  6
Continuous
 62
     0
370
    30
100
AcDbLine
 10
478.418848
 20
646.672232
 30
0.0
 11
480.998316
 21
638.750143
 31
0.0
  0
LINE
  5
15A
330
48
100
AcDbEntity
  8
0
  6
Continuous
 62
     0
370
    30
100
AcDbLine
 10
413.998409
 20
618.334954
 30
0.0
 11
417.894342
 21
526.676458
 31
0.0
  0
LINE
  5
15B
330
48
100
AcDbEntity
  8
0
  6
Continuous
 62
     0
370
    30
100
AcDbLine
 10
487.036737
 20
618.336315
 30
0.0
 11
483.140885
 21
526.676458
 31
0.0
  0
ENDBLK
  5
15D
330
48
100
AcDbEntity
  8
0
100
AcDbBlockEnd
  0
BLOCK
  5
28C
330
15F
100
AcDbEntity
  8
0
100
AcDbBlockBegin
  2
b
 70
     0
 10
317.66893
 20
159.621346
 30
0.0
  3
b
  1

  0
LINE
  5
160
330
15F
100
AcDbEntity
  8
0
  6
Continuous
 62
     0
370
     0
100
AcDbLine
 10
488.818674
 20
306.73383
 30
0.0
 11
488.817866
 21
306.732313
 31
0.0
  0
LINE
  5
161
330
15F
100
AcDbEntity
  8
0
  6
Continuous
 62
     0
370
     0
100
AcDbLine
 10
502.500819
 20
332.44899
 30
0.0
 11
502.500003
 21
332.447457
 31
0.0
  0
LINE
  5
162
330
15F
100
AcDbEntity
  8
0
  6
Continuous
 62
     0
370
    30
100
AcDbLine
 10
545.89613
 20
305.240659
 30
0.0
 11
517.828843
 21
305.240657
 31
0.0
  0
LINE
  5
163
330
15F
100
AcDbEntity
  8
0
  6
Continuous
 62
     0
370
    30
100
AcDbLine
 10
490.140056
 20
305.240659
 30
0.0
 11
517.828843
 21
305.240657
 31
0.0
  0
LINE
  5
164
330
15F
100
AcDbEntity
  8
0
  6
Continuous
 62
     0
370
     0
100
AcDbLine
 10
502.916613
 20
332.044081
 30
0.0
 11
489.453539
 21
306.740659
 31
0.0
  0
LINE
  5
165
330
15F
100
AcDbEntity
  8
0
  6
Continuous
 62
     0
370
     0
100
AcDbLine
 10
489.453539
 20
306.740659
 30
0.0
 11
516.379687
 21
306.740657
 31
0.0
  0
LINE
  5
166
330
15F
100
AcDbEntity
  8
0
  6
Continuous
 62
     0
370
     0
100
AcDbLine
 10
516.379687
 20
306.740657
 30
0.0
 11
502.916613
 21
332.044081
 31
0.0
  0
LINE
  5
167
330
15F
100
AcDbEntity
  8
0
  6
Continuous
 62
     0
370
     0
100
AcDbLine
 10
517.819867
 20
306.732311
 30
0.0
 11
504.136914
 21
332.44899
 31
0.0
  0
LINE
  5
168
330
15F
100
AcDbEntity
  8
0
  6
Continuous
 62
     0
370
     0
100
AcDbLine
 10
517.819867
 20
306.732311
 30
0.0
 11
531.689863
 21
332.44899
 31
0.0
  0
LINE
  5
169
330
15F
100
AcDbEntity
  8
0
  6
Continuous
 62
     0
370
     0
100
AcDbLine
 10
504.136914
 20
332.44899
 30
0.0
 11
531.689863
 21
332.44899
 31
0.0
  0
LINE
  5
16A
330
15F
100
AcDbEntity
  8
0
  6
Continuous
 62
     0
370
     0
100
AcDbLine
 10
546.563034
 20
306.740659
 30
0.0
 11
519.26881
 21
306.740657
 31
0.0
  0
LINE
  5
16B
330
15F
100
AcDbEntity
  8
0
  6
Continuous
 62
     0
370
     0
100
AcDbLine
 10
546.563034
 20
306.740659
 30
0.0
 11
532.915922
 21
332.044081
 31
0.0
  0
LINE
  5
16C
330
15F
100
AcDbEntity
  8
0
  6
Continuous
 62
     0
370
     0
100
AcDbLine
 10
519.26881
 20
306.740657
 30
0.0
 11
532.915922
 21
332.044081
 31
0.0
  0
LINE
  5
16D
330
15F
100
AcDbEntity
  8
0
  6
Continuous
 62
     0
370
     0
100
AcDbLine
 10
547.21832
 20
306.732313
 30
0.0
 11
533.348324
 21
332.44899
 31
0.0
  0
LINE
  5
16E
330
15F
100
AcDbEntity
  8
0
  6
Continuous
 62
     0
370
     0
100
AcDbLine
 10
547.21832
 20
306.732313
 30
0.0
 11
533.535367
 21
332.448991
 31
0.0
  0
LINE
  5
16F
330
15F
100
AcDbEntity
  8
0
  6
Continuous
 62
     0
370
     0
100
AcDbLine
 10
533.348324
 20
332.44899
 30
0.0
 11
533.535367
 21
332.448991
 31
0.0
  0
LINE
  5
170
330
15F
100
AcDbEntity
  8
0
  6
Continuous
 62
     0
370
    30
100
AcDbLine
 10
488.817866
 20
306.732313
 30
0.0
 11
488.823977
 21
306.740612
 31
0.0
  0
LINE
  5
171
330
15F
100
AcDbEntity
  8
0
  6
Continuous
 62
     0
370
     0
100
AcDbLine
 10
533.535983
 20
332.447899
 30
0.0
 11
533.535367
 21
332.448991
 31
0.0
  0
ARC
  5
172
330
15F
100
AcDbEntity
  8
0
  6
Continuous
 62
     0
370
     0
100
AcDbCircle
 10
532.206135
 20
331.735474
 30
0.0
 40
1.508630572249728
100
AcDbArc
 50
28.226404
 51
58.925579
  0
ARC
  5
173
330
15F
100
AcDbEntity
  8
0
  6
Continuous
 62
     0
370
    30
100
AcDbCircle
 10
532.212197
 20
331.733201
 30
0.0
 40
1.507461791293938
100
AcDbArc
 50
59.167548
 51
89.878862
  0
LINE
  5
174
330
15F
100
AcDbEntity
  8
0
  6
Continuous
 62
     0
370
    30
100
AcDbLine
 10
532.0453
 20
333.240658
 30
0.0
 11
532.215385
 21
333.240659
 31
0.0
  0
ARC
  5
175
330
15F
100
AcDbEntity
  8
0
  6
Continuous
 62
     0
370
    30
100
AcDbCircle
 10
532.020772
 20
331.7253
 30
0.0
 40
1.515361300071082
100
AcDbArc
 50
59.250016
 51
89.880696
  0
ARC
  5
176
330
15F
100
AcDbEntity
  8
0
  6
Continuous
 62
     0
370
     0
100
AcDbCircle
 10
532.015904
 20
331.729463
 30
0.0
 40
1.514286104970488
100
AcDbArc
 50
28.369741
 51
59.011191
  0
LWPOLYLINE
  5
177
330
15F
100
AcDbEntity
  8
0
  6
Continuous
 62
     0
370
     0
100
AcDbPolyline
 90
        3
 70
     0
 43
0.0
 10
546.563049
 20
306.740662
 10
546.698059
 20
306.75235
 10
547.021301
 20
306.775452
  0
LWPOLYLINE
  5
178
330
15F
100
AcDbEntity
  8
0
  6
Continuous
 62
     0
370
    30
100
AcDbPolyline
 90
        3
 70
     0
 43
0.0
 10
547.021301
 20
306.775452
 10
547.103088
 20
306.774323
 10
547.218323
 20
306.7323
  0
LWPOLYLINE
  5
179
330
15F
100
AcDbEntity
  8
0
  6
Continuous
 62
     0
370
     0
100
AcDbPolyline
 90
        3
 70
     0
 43
0.0
 10
533.348328
 20
332.449005
 10
533.351685
 20
332.415283
 10
533.262756
 20
332.285492
  0
ARC
  5
17A
330
15F
100
AcDbEntity
  8
0
  6
Continuous
 62
     0
370
     0
100
AcDbCircle
 10
532.144673
 20
333.522025
 30
0.0
 40
1.667076244678504
100
AcDbArc
 50
297.557313
 51
312.120117
  0
ARC
  5
17B
330
15F
100
AcDbEntity
  8
0
  6
Continuous
 62
     0
370
     0
100
AcDbCircle
 10
531.233017
 20
328.93094
 30
0.0
 40
3.538900241955381
100
AcDbArc
 50
61.605185
 51
71.424843
  0
ARC
  5
17C
330
15F
100
AcDbEntity
  8
0
  6
Continuous
 62
     0
370
     0
100
AcDbCircle
 10
531.112705
 20
328.625867
 30
0.0
 40
3.866442954604623
100
AcDbArc
 50
71.174939
 51
81.415167
  0
ARC
  5
17D
330
15F
100
AcDbEntity
  8
0
  6
Continuous
 62
     0
370
    30
100
AcDbCircle
 10
518.518593
 20
301.173539
 30
0.0
 40
5.602514587035738
100
AcDbArc
 50
89.14929
 51
97.164381
  0
ARC
  5
17E
330
15F
100
AcDbEntity
  8
0
  6
Continuous
 62
     0
370
     0
100
AcDbCircle
 10
518.462921
 20
297.69819
 30
0.0
 40
9.078307509114623
100
AcDbArc
 50
84.907101
 51
89.123626
  0
LWPOLYLINE
  5
17F
330
15F
100
AcDbEntity
  8
0
  6
Continuous
 62
     0
370
     0
100
AcDbPolyline
 90
        4
 70
     0
 43
0.0
 10
545.896118
 20
305.240662
 10
546.079285
 20
305.279999
 10
546.249878
 20
305.395874
 10
546.447754
 20
305.679993
  0
LWPOLYLINE
  5
180
330
15F
100
AcDbEntity
  8
0
  6
Continuous
 62
     0
370
     0
100
AcDbPolyline
 90
        4
 70
     0
 43
0.0
 10
546.447754
 20
305.679993
 10
546.537048
 20
305.932495
 10
546.585022
 20
306.222839
 10
546.563049
 20
306.740662
  0
LWPOLYLINE
  5
181
330
15F
100
AcDbEntity
  8
0
  6
Continuous
 62
     0
370
     0
100
AcDbPolyline
 90
        4
 70
     0
 43
0.0
 10
519.268799
 20
306.740662
 10
519.191101
 20
306.418915
 10
519.06543
 20
306.112
 10
518.767029
 20
305.679993
  0
LWPOLYLINE
  5
182
330
15F
100
AcDbEntity
  8
0
  6
Continuous
 62
     0
370
     0
100
AcDbPolyline
 90
        4
 70
     0
 43
0.0
 10
518.767029
 20
305.679993
 10
518.521606
 20
305.466583
 10
518.24707
 20
305.319885
 10
517.828857
 20
305.240662
  0
LWPOLYLINE
  5
183
330
15F
100
AcDbEntity
  8
0
  6
Continuous
 62
     0
370
     0
100
AcDbPolyline
 90
        3
 70
     0
 43
0.0
 10
531.68988
 20
332.449005
 10
531.74884
 20
332.688293
 10
531.85614
 20
333.027618
  0
LWPOLYLINE
  5
184
330
15F
100
AcDbEntity
  8
0
  6
Continuous
 62
     0
370
     0
100
AcDbPolyline
 90
        3
 70
     0
 43
0.0
 10
531.85614
 20
333.027618
 10
531.923584
 20
333.163055
 10
532.023926
 20
333.240662
  0
LINE
  5
185
330
15F
100
AcDbEntity
  8
0
  6
Continuous
 62
     0
370
    30
100
AcDbLine
 10
503.820802
 20
333.240658
 30
0.0
 11
532.023927
 21
333.240658
 31
0.0
  0
LWPOLYLINE
  5
186
330
15F
100
AcDbEntity
  8
0
  6
Continuous
 62
     0
370
     0
100
AcDbPolyline
 90
        3
 70
     0
 43
0.0
 10
503.820801
 20
333.240662
 10
503.884033
 20
333.205078
 10
503.978119
 20
333.027618
  0
LWPOLYLINE
  5
187
330
15F
100
AcDbEntity
  8
0
  6
Continuous
 62
     0
370
     0
100
AcDbPolyline
 90
        3
 70
     0
 43
0.0
 10
503.978119
 20
333.027618
 10
504.034454
 20
332.856476
 10
504.136902
 20
332.449005
  0
ARC
  5
188
330
15F
100
AcDbEntity
  8
0
  6
Continuous
 62
     0
370
     0
100
AcDbCircle
 10
517.175615
 20
297.912618
 30
0.0
 40
8.863846753148831
100
AcDbArc
 50
90.873012
 51
95.151807
  0
ARC
  5
189
330
15F
100
AcDbEntity
  8
0
  6
Continuous
 62
     0
370
    30
100
AcDbCircle
 10
517.122878
 20
301.199971
 30
0.0
 40
5.576072408138637
100
AcDbArc
 50
82.819446
 51
90.845839
  0
ARC
  5
18A
330
15F
100
AcDbEntity
  8
0
  6
Continuous
 62
     0
370
     0
100
AcDbCircle
 10
504.706674
 20
328.664546
 30
0.0
 40
3.827092978163041
100
AcDbArc
 50
98.561747
 51
108.891486
  0
ARC
  5
18B
330
15F
100
AcDbEntity
  8
0
  6
Continuous
 62
     0
370
     0
100
AcDbCircle
 10
504.563697
 20
329.034487
 30
0.0
 40
3.430821872730529
100
AcDbArc
 50
108.632694
 51
118.690912
  0
LWPOLYLINE
  5
18C
330
15F
100
AcDbEntity
  8
0
  6
Continuous
 62
     0
370
     0
100
AcDbPolyline
 90
        3
 70
     0
 43
0.0
 10
502.916626
 20
332.044067
 10
502.808289
 20
332.108124
 10
502.577301
 20
332.285492
  0
LWPOLYLINE
  5
18D
330
15F
100
AcDbEntity
  8
0
  6
Continuous
 62
     0
370
     0
100
AcDbPolyline
 90
        3
 70
     0
 43
0.0
 10
502.577301
 20
332.285492
 10
502.528687
 20
332.341888
 10
502.500824
 20
332.449005
  0
LWPOLYLINE
  5
18E
330
15F
100
AcDbEntity
  8
0
  6
Continuous
 62
     0
370
    30
100
AcDbPolyline
 90
        3
 70
     0
 43
0.0
 10
489.004272
 20
306.775452
 10
488.925354
 20
306.774323
 10
488.817871
 20
306.7323
  0
LWPOLYLINE
  5
18F
330
15F
100
AcDbEntity
  8
0
  6
Continuous
 62
     0
370
     0
100
AcDbPolyline
 90
        3
 70
     0
 43
0.0
 10
489.453552
 20
306.740662
 10
489.319427
 20
306.752441
 10
489.004272
 20
306.775452
  0
LWPOLYLINE
  5
190
330
15F
100
AcDbEntity
  8
0
  6
Continuous
 62
     0
370
     0
100
AcDbPolyline
 90
        4
 70
     0
 43
0.0
 10
517.828857
 20
305.240662
 10
517.530334
 20
305.279968
 10
517.244385
 20
305.395844
 10
516.883118
 20
305.679993
  0
LWPOLYLINE
  5
191
330
15F
100
AcDbEntity
  8
0
  6
Continuous
 62
     0
370
     0
100
AcDbPolyline
 90
        4
 70
     0
 43
0.0
 10
516.883118
 20
305.679993
 10
516.685913
 20
305.932709
 10
516.530701
 20
306.223328
 10
516.3797
 20
306.740662
  0
LWPOLYLINE
  5
192
330
15F
100
AcDbEntity
  8
0
  6
Continuous
 62
     0
370
     0
100
AcDbPolyline
 90
        4
 70
     0
 43
0.0
 10
489.575653
 20
305.679993
 10
489.483521
 20
305.933014
 10
489.433502
 20
306.223999
 10
489.453552
 20
306.740662
  0
LWPOLYLINE
  5
193
330
15F
100
AcDbEntity
  8
0
  6
Continuous
 62
     0
370
     0
100
AcDbPolyline
 90
        4
 70
     0
 43
0.0
 10
490.140045
 20
305.240662
 10
489.952881
 20
305.279999
 10
489.778381
 20
305.395874
 10
489.575653
 20
305.679993
  0
ARC
  5
194
330
15F
100
AcDbEntity
  8
0
  6
Continuous
 62
     0
370
    30
100
AcDbCircle
 10
503.823989
 20
331.7332
 30
0.0
 40
1.507461776571958
100
AcDbArc
 50
90.121137
 51
120.832451
  0
LWPOLYLINE
  5
195
330
15F
100
AcDbEntity
  8
0
  6
Continuous
 62
     0
370
     0
100
AcDbPolyline
 90
        4
 70
     0
 43
0.0
 10
489.575653
 20
305.679993
 10
489.342072
 20
305.715057
 10
489.154388
 20
305.789337
 10
488.939514
 20
305.993073
  0
LWPOLYLINE
  5
196
330
15F
100
AcDbEntity
  8
0
  6
Continuous
 62
     0
370
     0
100
AcDbPolyline
 90
        4
 70
     0
 43
0.0
 10
489.004272
 20
306.775452
 10
488.88147
 20
306.519379
 10
488.852386
 20
306.260681
 10
488.939514
 20
305.993073
  0
LWPOLYLINE
  5
197
330
15F
100
AcDbEntity
  8
0
  6
Continuous
 62
     0
370
     0
100
AcDbPolyline
 90
        4
 70
     0
 43
0.0
 10
546.447754
 20
305.679993
 10
546.684448
 20
305.715027
 10
546.875549
 20
305.789215
 10
547.09668
 20
305.993073
  0
LWPOLYLINE
  5
198
330
15F
100
AcDbEntity
  8
0
  6
Continuous
 62
     0
370
     0
100
AcDbPolyline
 90
        4
 70
     0
 43
0.0
 10
547.021301
 20
306.775452
 10
547.147095
 20
306.519745
 10
547.179504
 20
306.261322
 10
547.09668
 20
305.993073
  0
LWPOLYLINE
  5
199
330
15F
100
AcDbEntity
  8
0
  6
Continuous
 62
     0
370
     0
100
AcDbPolyline
 90
        4
 70
     0
 43
0.0
 10
533.262756
 20
332.285492
 10
533.149902
 20
332.453583
 10
533.018921
 20
332.605804
 10
532.698303
 20
332.839447
  0
ARC
  5
19A
330
15F
100
AcDbEntity
  8
0
  6
Continuous
 62
     0
370
     0
100
AcDbCircle
 10
527.14437
 20
335.847789
 30
0.0
 40
6.316344873547366
100
AcDbArc
 50
325.668397
 51
331.557486
  0
LWPOLYLINE
  5
19B
330
15F
100
AcDbEntity
  8
0
  6
Continuous
 62
     0
370
     0
100
AcDbPolyline
 90
        3
 70
     0
 43
0.0
 10
531.85614
 20
333.027618
 10
532.234741
 20
332.994019
 10
532.698303
 20
332.839447
  0
LWPOLYLINE
  5
19C
330
15F
100
AcDbEntity
  8
0
  6
Continuous
 62
     0
370
     0
100
AcDbPolyline
 90
        3
 70
     0
 43
0.0
 10
532.795593
 20
333.027618
 10
532.779785
 20
332.984375
 10
532.698303
 20
332.839447
  0
LWPOLYLINE
  5
19D
330
15F
100
AcDbEntity
  8
0
  6
Continuous
 62
     0
370
     0
100
AcDbPolyline
 90
        3
 70
     0
 43
0.0
 10
518.767029
 20
305.679993
 10
518.326965
 20
305.76886
 10
517.820679
 20
305.993073
  0
LWPOLYLINE
  5
19E
330
15F
100
AcDbEntity
  8
0
  6
Continuous
 62
     0
370
     0
100
AcDbPolyline
 90
        3
 70
     0
 43
0.0
 10
516.883118
 20
305.679993
 10
517.319031
 20
305.769257
 10
517.820679
 20
305.993073
  0
LWPOLYLINE
  5
19F
330
15F
100
AcDbEntity
  8
0
  6
Continuous
 62
     0
370
     0
100
AcDbPolyline
 90
        4
 70
     0
 43
0.0
 10
517.040588
 20
306.775421
 10
517.236023
 20
306.551147
 10
517.440796
 20
306.321808
 10
517.820679
 20
305.993073
  0
LWPOLYLINE
  5
1A0
330
15F
100
AcDbEntity
  8
0
  6
Continuous
 62
     0
370
     0
100
AcDbPolyline
 90
        4
 70
     0
 43
0.0
 10
518.601746
 20
306.775421
 10
518.405518
 20
306.552002
 10
518.200989
 20
306.323486
 10
517.820679
 20
305.993073
  0
ARC
  5
1A1
330
15F
100
AcDbEntity
  8
0
  6
Continuous
 62
     0
370
     0
100
AcDbCircle
 10
508.063829
 20
335.401795
 30
0.0
 40
5.553122021491848
100
AcDbArc
 50
207.478923
 51
214.137532
  0
LWPOLYLINE
  5
1A2
330
15F
100
AcDbEntity
  8
0
  6
Continuous
 62
     0
370
     0
100
AcDbPolyline
 90
        4
 70
     0
 43
0.0
 10
502.577301
 20
332.285492
 10
502.688843
 20
332.453827
 10
502.818817
 20
332.606232
 10
503.137207
 20
332.839447
  0
LWPOLYLINE
  5
1A3
330
15F
100
AcDbEntity
  8
0
  6
Continuous
 62
     0
370
     0
100
AcDbPolyline
 90
        3
 70
     0
 43
0.0
 10
503.051361
 20
333.027618
 10
503.061371
 20
332.984375
 10
503.137207
 20
332.839447
  0
LWPOLYLINE
  5
1A4
330
15F
100
AcDbEntity
  8
0
  6
Continuous
 62
     0
370
     0
100
AcDbPolyline
 90
        3
 70
     0
 43
0.0
 10
503.978119
 20
333.027618
 10
503.59967
 20
332.994049
 10
503.137207
 20
332.839447
  0
LINE
  5
1A5
330
15F
100
AcDbEntity
  8
0
  6
Continuous
 62
     0
370
     0
100
AcDbLine
 10
524.767938
 20
333.740659
 30
0.0
 11
511.268253
 21
333.740659
 31
0.0
  0
LINE
  5
1A6
330
15F
100
AcDbEntity
  8
0
  6
Continuous
 62
     0
370
    30
100
AcDbLine
 10
550.518093
 20
346.240657
 30
0.0
 11
350.518093
 21
346.240657
 31
0.0
  0
LINE
  5
1A7
330
15F
100
AcDbEntity
  8
0
  6
Continuous
 62
     0
370
    30
100
AcDbLine
 10
350.518093
 20
346.240657
 30
0.0
 11
350.518093
 21
344.240657
 31
0.0
  0
LINE
  5
1A8
330
15F
100
AcDbEntity
  8
0
  6
Continuous
 62
     0
370
    30
100
AcDbLine
 10
370.518093
 20
336.240657
 30
0.0
 11
350.518093
 21
344.240657
 31
0.0
  0
LINE
  5
1A9
330
15F
100
AcDbEntity
  8
0
  6
Continuous
 62
     0
370
    30
100
AcDbLine
 10
530.518093
 20
336.240657
 30
0.0
 11
370.518093
 21
336.240657
 31
0.0
  0
LINE
  5
1AA
330
15F
100
AcDbEntity
  8
0
  6
Continuous
 62
     0
370
    30
100
AcDbLine
 10
550.518093
 20
344.240657
 30
0.0
 11
530.518093
 21
336.240657
 31
0.0
  0
LINE
  5
1AB
330
15F
100
AcDbEntity
  8
0
  6
Continuous
 62
     0
370
    30
100
AcDbLine
 10
550.518093
 20
346.240657
 30
0.0
 11
550.518093
 21
344.240657
 31
0.0
  0
LINE
  5
1AC
330
15F
100
AcDbEntity
  8
0
  6
Continuous
 62
     0
370
    30
100
AcDbLine
 10
350.518093
 20
344.240657
 30
0.0
 11
350.518093
 21
336.240658
 31
0.0
  0
LINE
  5
1AD
330
15F
100
AcDbEntity
  8
0
  6
Continuous
 62
     0
370
    30
100
AcDbLine
 10
550.518093
 20
336.240658
 30
0.0
 11
550.518093
 21
344.240657
 31
0.0
  0
LINE
  5
1AE
330
15F
100
AcDbEntity
  8
0
  6
Continuous
 62
     0
370
    30
100
AcDbLine
 10
530.518093
 20
336.240657
 30
0.0
 11
550.518093
 21
336.240658
 31
0.0
  0
LINE
  5
1AF
330
15F
100
AcDbEntity
  8
0
  6
Continuous
 62
     0
370
    30
100
AcDbLine
 10
350.518093
 20
336.240658
 30
0.0
 11
370.518093
 21
336.240657
 31
0.0
  0
LINE
  5
1B0
330
15F
100
AcDbEntity
  8
0
  6
Continuous
 62
     0
370
     0
100
AcDbLine
 10
353.823425
 20
306.743946
 30
0.0
 11
367.588842
 21
332.448991
 31
0.0
  0
LINE
  5
1B1
330
15F
100
AcDbEntity
  8
0
  6
Continuous
 62
     0
370
     0
100
AcDbLine
 10
367.599131
 20
332.44899
 30
0.0
 11
353.817196
 21
306.732313
 31
0.0
  0
LINE
  5
1B2
330
15F
100
AcDbEntity
  8
0
  6
Continuous
 62
     0
370
    30
100
AcDbLine
 10
410.896771
 20
305.240659
 30
0.0
 11
383.028503
 21
305.240657
 31
0.0
  0
LINE
  5
1B3
330
15F
100
AcDbEntity
  8
0
  6
Continuous
 62
     0
370
    30
100
AcDbLine
 10
355.139415
 20
305.240659
 30
0.0
 11
383.028503
 21
305.240657
 31
0.0
  0
LINE
  5
1B4
330
15F
100
AcDbEntity
  8
0
  6
Continuous
 62
     0
370
     0
100
AcDbLine
 10
368.023695
 20
332.044081
 30
0.0
 11
354.463229
 21
306.740659
 31
0.0
  0
LINE
  5
1B5
330
15F
100
AcDbEntity
  8
0
  6
Continuous
 62
     0
370
     0
100
AcDbLine
 10
354.463229
 20
306.740659
 30
0.0
 11
381.584161
 21
306.740657
 31
0.0
  0
LINE
  5
1B6
330
15F
100
AcDbEntity
  8
0
  6
Continuous
 62
     0
370
     0
100
AcDbLine
 10
381.584161
 20
306.740657
 30
0.0
 11
368.023695
 21
332.044081
 31
0.0
  0
LINE
  5
1B7
330
15F
100
AcDbEntity
  8
0
  6
Continuous
 62
     0
370
     0
100
AcDbLine
 10
383.028997
 20
306.732311
 30
0.0
 11
369.247062
 21
332.44899
 31
0.0
  0
LINE
  5
1B8
330
15F
100
AcDbEntity
  8
0
  6
Continuous
 62
     0
370
     0
100
AcDbLine
 10
383.028997
 20
306.732311
 30
0.0
 11
396.800643
 21
332.44899
 31
0.0
  0
LINE
  5
1B9
330
15F
100
AcDbEntity
  8
0
  6
Continuous
 62
     0
370
     0
100
AcDbLine
 10
369.247062
 20
332.44899
 30
0.0
 11
396.800643
 21
332.44899
 31
0.0
  0
LINE
  5
1BA
330
15F
100
AcDbEntity
  8
0
  6
Continuous
 62
     0
370
     0
100
AcDbLine
 10
411.574036
 20
306.740659
 30
0.0
 11
384.473351
 21
306.740657
 31
0.0
  0
LINE
  5
1BB
330
15F
100
AcDbEntity
  8
0
  6
Continuous
 62
     0
370
     0
100
AcDbLine
 10
411.574036
 20
306.740659
 30
0.0
 11
398.023693
 21
332.044081
 31
0.0
  0
LINE
  5
1BC
330
15F
100
AcDbEntity
  8
0
  6
Continuous
 62
     0
370
     0
100
AcDbLine
 10
384.473351
 20
306.740657
 30
0.0
 11
398.023693
 21
332.044081
 31
0.0
  0
LINE
  5
1BD
330
15F
100
AcDbEntity
  8
0
  6
Continuous
 62
     0
370
     0
100
AcDbLine
 10
412.218991
 20
306.732313
 30
0.0
 11
398.447344
 21
332.44899
 31
0.0
  0
ARC
  5
1BE
330
15F
100
AcDbEntity
  8
0
  6
Continuous
 62
     0
370
     0
100
AcDbCircle
 10
367.634149
 20
332.42569
 30
0.0
 40
0.0509482756682088
100
AcDbArc
 50
152.783112
 51
186.540796
  0
ARC
  5
1BF
330
15F
100
AcDbEntity
  8
0
  6
Continuous
 62
     0
370
    30
100
AcDbCircle
 10
397.122075
 20
331.729409
 30
0.0
 40
1.51125233859276
100
AcDbArc
 50
59.207204
 51
89.879772
  0
ARC
  5
1C0
330
15F
100
AcDbEntity
  8
0
  6
Continuous
 62
     0
370
    30
100
AcDbCircle
 10
397.116602
 20
331.732614
 30
0.0
 40
1.511314185749074
100
AcDbArc
 50
28.294824
 51
58.966761
  0
LWPOLYLINE
  5
1C1
330
15F
100
AcDbEntity
  8
0
  6
Continuous
 62
     0
370
     0
100
AcDbPolyline
 90
        3
 70
     0
 43
0.0
 10
411.574036
 20
306.740662
 10
411.708588
 20
306.75238
 10
412.027557
 20
306.775452
  0
LWPOLYLINE
  5
1C2
330
15F
100
AcDbEntity
  8
0
  6
Continuous
 62
     0
370
    30
100
AcDbPolyline
 90
        3
 70
     0
 43
0.0
 10
412.027557
 20
306.775452
 10
412.107849
 20
306.774323
 10
412.218994
 20
306.7323
  0
LWPOLYLINE
  5
1C3
330
15F
100
AcDbEntity
  8
0
  6
Continuous
 62
     0
370
     0
100
AcDbPolyline
 90
        3
 70
     0
 43
0.0
 10
398.447357
 20
332.449005
 10
398.452118
 20
332.415283
 10
398.366577
 20
332.285492
  0
LWPOLYLINE
  5
1C4
330
15F
100
AcDbEntity
  8
0
  6
Continuous
 62
     0
370
     0
100
AcDbPolyline
 90
        3
 70
     0
 43
0.0
 10
398.366577
 20
332.285492
 10
398.303833
 20
332.229248
 10
398.023682
 20
332.044067
  0
ARC
  5
1C5
330
15F
100
AcDbEntity
  8
0
  6
Continuous
 62
     0
370
     0
100
AcDbCircle
 10
396.359757
 20
328.985832
 30
0.0
 40
3.481604769291796
100
AcDbArc
 50
61.450216
 51
71.394858
  0
ARC
  5
1C6
330
15F
100
AcDbEntity
  8
0
  6
Continuous
 62
     0
370
     0
100
AcDbCircle
 10
396.227389
 20
328.646168
 30
0.0
 40
3.845786697671729
100
AcDbArc
 50
71.140349
 51
81.427518
  0
ARC
  5
1C7
330
15F
100
AcDbEntity
  8
0
  6
Continuous
 62
     0
370
    30
100
AcDbCircle
 10
383.726823
 20
301.187236
 30
0.0
 40
5.588811923791898
100
AcDbArc
 50
89.151869
 51
97.17274
  0
ARC
  5
1C8
330
15F
100
AcDbEntity
  8
0
  6
Continuous
 62
     0
370
     0
100
AcDbCircle
 10
383.672701
 20
297.811251
 30
0.0
 40
8.965229505926285
100
AcDbArc
 50
84.876309
 51
89.125383
  0
LWPOLYLINE
  5
1C9
330
15F
100
AcDbEntity
  8
0
  6
Continuous
 62
     0
370
     0
100
AcDbPolyline
 90
        4
 70
     0
 43
0.0
 10
410.896759
 20
305.240662
 10
411.082031
 20
305.279999
 10
411.2547
 20
305.395874
 10
411.45517
 20
305.679993
  0
LWPOLYLINE
  5
1CA
330
15F
100
AcDbEntity
  8
0
  6
Continuous
 62
     0
370
     0
100
AcDbPolyline
 90
        4
 70
     0
 43
0.0
 10
411.45517
 20
305.679993
 10
411.545929
 20
305.93277
 10
411.595001
 20
306.22345
 10
411.574036
 20
306.740662
  0
LWPOLYLINE
  5
1CB
330
15F
100
AcDbEntity
  8
0
  6
Continuous
 62
     0
370
     0
100
AcDbPolyline
 90
        4
 70
     0
 43
0.0
 10
384.473358
 20
306.740662
 10
384.395721
 20
306.41861
 10
384.269714
 20
306.111389
 10
383.970673
 20
305.679993
  0
LWPOLYLINE
  5
1CC
330
15F
100
AcDbEntity
  8
0
  6
Continuous
 62
     0
370
     0
100
AcDbPolyline
 90
        4
 70
     0
 43
0.0
 10
383.970673
 20
305.679993
 10
383.724335
 20
305.466583
 10
383.448578
 20
305.319885
 10
383.028503
 20
305.240662
  0
LWPOLYLINE
  5
1CD
330
15F
100
AcDbEntity
  8
0
  6
Continuous
 62
     0
370
     0
100
AcDbPolyline
 90
        3
 70
     0
 43
0.0
 10
396.800629
 20
332.449005
 10
396.85849
 20
332.688324
 10
396.962982
 20
333.027618
  0
LWPOLYLINE
  5
1CE
330
15F
100
AcDbEntity
  8
0
  6
Continuous
 62
     0
370
     0
100
AcDbPolyline
 90
        3
 70
     0
 43
0.0
 10
396.962982
 20
333.027618
 10
397.02829
 20
333.163055
 10
397.125244
 20
333.240662
  0
LINE
  5
1CF
330
15F
100
AcDbEntity
  8
0
  6
Continuous
 62
     0
370
    30
100
AcDbLine
 10
368.921472
 20
333.240658
 30
0.0
 11
397.125246
 21
333.240658
 31
0.0
  0
LWPOLYLINE
  5
1D0
330
15F
100
AcDbEntity
  8
0
  6
Continuous
 62
     0
370
     0
100
AcDbPolyline
 90
        3
 70
     0
 43
0.0
 10
368.921478
 20
333.240662
 10
368.987
 20
333.205078
 10
369.08432
 20
333.027618
  0
LWPOLYLINE
  5
1D1
330
15F
100
AcDbEntity
  8
0
  6
Continuous
 62
     0
370
     0
100
AcDbPolyline
 90
        3
 70
     0
 43
0.0
 10
369.08432
 20
333.027618
 10
369.142303
 20
332.856506
 10
369.24707
 20
332.449005
  0
ARC
  5
1D2
330
15F
100
AcDbEntity
  8
0
  6
Continuous
 62
     0
370
     0
100
AcDbCircle
 10
382.385359
 20
297.799456
 30
0.0
 40
8.977026530400433
100
AcDbArc
 50
90.874801
 51
95.120451
  0
ARC
  5
1D3
330
15F
100
AcDbEntity
  8
0
  6
Continuous
 62
     0
370
    30
100
AcDbCircle
 10
382.331076
 20
301.185782
 30
0.0
 40
5.590266453521573
100
AcDbArc
 50
82.82815
 51
90.848398
  0
ARC
  5
1D4
330
15F
100
AcDbEntity
  8
0
  6
Continuous
 62
     0
370
     0
100
AcDbCircle
 10
369.820723
 20
328.644041
 30
0.0
 40
3.847951234186899
100
AcDbArc
 50
98.573752
 51
108.855997
  0
ARC
  5
1D5
330
15F
100
AcDbEntity
  8
0
  6
Continuous
 62
     0
370
     0
100
AcDbCircle
 10
369.689602
 20
328.980136
 30
0.0
 40
3.487549663577596
100
AcDbArc
 50
108.601977
 51
118.533497
  0
ARC
  5
1D6
330
15F
100
AcDbEntity
  8
0
  6
Continuous
 62
     0
370
     0
100
AcDbCircle
 10
368.77495
 20
333.477215
 30
0.0
 40
1.618103241356095
100
AcDbArc
 50
227.433874
 51
242.3363
  0
LWPOLYLINE
  5
1D7
330
15F
100
AcDbEntity
  8
0
  6
Continuous
 62
     0
370
     0
100
AcDbPolyline
 90
        3
 70
     0
 43
0.0
 10
367.680389
 20
332.285492
 10
367.630524
 20
332.341888
 10
367.599121
 20
332.449005
  0
LWPOLYLINE
  5
1D8
330
15F
100
AcDbEntity
  8
0
  6
Continuous
 62
     0
370
    30
100
AcDbPolyline
 90
        3
 70
     0
 43
0.0
 10
354.009186
 20
306.775452
 10
353.928772
 20
306.774323
 10
353.8172
 20
306.7323
  0
LWPOLYLINE
  5
1D9
330
15F
100
AcDbEntity
  8
0
  6
Continuous
 62
     0
370
     0
100
AcDbPolyline
 90
        3
 70
     0
 43
0.0
 10
354.463226
 20
306.740662
 10
354.328613
 20
306.75238
 10
354.009186
 20
306.775452
  0
LWPOLYLINE
  5
1DA
330
15F
100
AcDbEntity
  8
0
  6
Continuous
 62
     0
370
     0
100
AcDbPolyline
 90
        4
 70
     0
 43
0.0
 10
383.028503
 20
305.240662
 10
382.731293
 20
305.279968
 10
382.446625
 20
305.395844
 10
382.086731
 20
305.679993
  0
LWPOLYLINE
  5
1DB
330
15F
100
AcDbEntity
  8
0
  6
Continuous
 62
     0
370
     0
100
AcDbPolyline
 90
        4
 70
     0
 43
0.0
 10
382.086731
 20
305.679993
 10
381.890381
 20
305.932434
 10
381.735565
 20
306.222717
 10
381.584167
 20
306.740662
  0
LWPOLYLINE
  5
1DC
330
15F
100
AcDbEntity
  8
0
  6
Continuous
 62
     0
370
     0
100
AcDbPolyline
 90
        4
 70
     0
 43
0.0
 10
354.581726
 20
305.679993
 10
354.491089
 20
305.932739
 10
354.442169
 20
306.223389
 10
354.463226
 20
306.740662
  0
LWPOLYLINE
  5
1DD
330
15F
100
AcDbEntity
  8
0
  6
Continuous
 62
     0
370
     0
100
AcDbPolyline
 90
        4
 70
     0
 43
0.0
 10
355.139404
 20
305.240662
 10
354.954376
 20
305.279999
 10
354.781921
 20
305.395874
 10
354.581726
 20
305.679993
  0
ARC
  5
1DE
330
15F
100
AcDbEntity
  8
0
  6
Continuous
 62
     0
370
    30
100
AcDbCircle
 10
368.930049
 20
331.732284
 30
0.0
 40
1.511625286819224
100
AcDbArc
 50
121.02853
 51
151.697291
  0
ARC
  5
1DF
330
15F
100
AcDbEntity
  8
0
  6
Continuous
 62
     0
370
    30
100
AcDbCircle
 10
368.924641
 20
331.728974
 30
0.0
 40
1.511686874939479
100
AcDbArc
 50
90.120127
 51
120.78826
  0
ARC
  5
1E0
330
15F
100
AcDbEntity
  8
0
  6
Continuous
 62
     0
370
    30
100
AcDbCircle
 10
368.919585
 20
331.732615
 30
0.0
 40
1.511314224005048
100
AcDbArc
 50
121.03324
 51
151.705176
  0
LWPOLYLINE
  5
1E1
330
15F
100
AcDbEntity
  8
0
  6
Continuous
 62
     0
370
     0
100
AcDbPolyline
 90
        4
 70
     0
 43
0.0
 10
354.581726
 20
305.679993
 10
354.346497
 20
305.715057
 10
354.157013
 20
305.789276
 10
353.938843
 20
305.993073
  0
LWPOLYLINE
  5
1E2
330
15F
100
AcDbEntity
  8
0
  6
Continuous
 62
     0
370
     0
100
AcDbPolyline
 90
        4
 70
     0
 43
0.0
 10
354.009186
 20
306.775452
 10
353.884827
 20
306.519562
 10
353.853973
 20
306.261017
 10
353.938843
 20
305.993073
  0
ARC
  5
1E3
330
15F
100
AcDbEntity
  8
0
  6
Continuous
 62
     0
370
     0
100
AcDbCircle
 10
368.146143
 20
333.02368
 30
0.0
 40
0.0069196345794759
100
AcDbArc
 50
145.367331
 51
203.471883
  0
LWPOLYLINE
  5
1E4
330
15F
100
AcDbEntity
  8
0
  6
Continuous
 62
     0
370
     0
100
AcDbPolyline
 90
        4
 70
     0
 43
0.0
 10
411.45517
 20
305.679993
 10
411.690216
 20
305.715057
 10
411.879517
 20
305.789276
 10
412.097321
 20
305.993073
  0
LWPOLYLINE
  5
1E5
330
15F
100
AcDbEntity
  8
0
  6
Continuous
 62
     0
370
     0
100
AcDbPolyline
 90
        4
 70
     0
 43
0.0
 10
412.027557
 20
306.775452
 10
412.151764
 20
306.519562
 10
412.182434
 20
306.260956
 10
412.097321
 20
305.993073
  0
LWPOLYLINE
  5
1E6
330
15F
100
AcDbEntity
  8
0
  6
Continuous
 62
     0
370
     0
100
AcDbPolyline
 90
        4
 70
     0
 43
0.0
 10
398.366577
 20
332.285492
 10
398.254395
 20
332.453705
 10
398.123932
 20
332.606049
 10
397.804504
 20
332.839447
  0
ARC
  5
1E7
330
15F
100
AcDbEntity
  8
0
  6
Continuous
 62
     0
370
     0
100
AcDbCircle
 10
392.598761
 20
335.600032
 30
0.0
 40
5.892408242303379
100
AcDbArc
 50
325.770361
 51
332.063269
  0
LWPOLYLINE
  5
1E8
330
15F
100
AcDbEntity
  8
0
  6
Continuous
 62
     0
370
     0
100
AcDbPolyline
 90
        3
 70
     0
 43
0.0
 10
396.962982
 20
333.027618
 10
397.341492
 20
332.994049
 10
397.804504
 20
332.839447
  0
LWPOLYLINE
  5
1E9
330
15F
100
AcDbEntity
  8
0
  6
Continuous
 62
     0
370
     0
100
AcDbPolyline
 90
        3
 70
     0
 43
0.0
 10
397.895752
 20
333.027618
 10
397.882996
 20
332.984375
 10
397.804504
 20
332.839447
  0
LWPOLYLINE
  5
1EA
330
15F
100
AcDbEntity
  8
0
  6
Continuous
 62
     0
370
     0
100
AcDbPolyline
 90
        3
 70
     0
 43
0.0
 10
383.970673
 20
305.679993
 10
383.532776
 20
305.769073
 10
383.028961
 20
305.993073
  0
LWPOLYLINE
  5
1EB
330
15F
100
AcDbEntity
  8
0
  6
Continuous
 62
     0
370
     0
100
AcDbPolyline
 90
        3
 70
     0
 43
0.0
 10
382.086731
 20
305.679993
 10
382.524872
 20
305.769043
 10
383.028961
 20
305.993073
  0
LWPOLYLINE
  5
1EC
330
15F
100
AcDbEntity
  8
0
  6
Continuous
 62
     0
370
     0
100
AcDbPolyline
 90
        4
 70
     0
 43
0.0
 10
382.248291
 20
306.775421
 10
382.444153
 20
306.551605
 10
382.648834
 20
306.322693
 10
383.028961
 20
305.993073
  0
LWPOLYLINE
  5
1ED
330
15F
100
AcDbEntity
  8
0
  6
Continuous
 62
     0
370
     0
100
AcDbPolyline
 90
        4
 70
     0
 43
0.0
 10
383.80954
 20
306.775421
 10
383.613739
 20
306.551544
 10
383.409058
 20
306.322601
 10
383.028961
 20
305.993073
  0
ARC
  5
1EE
330
15F
100
AcDbEntity
  8
0
  6
Continuous
 62
     0
370
     0
100
AcDbCircle
 10
373.482864
 20
335.624489
 30
0.0
 40
5.934260085030209
100
AcDbArc
 50
207.989734
 51
214.240314
  0
LWPOLYLINE
  5
1EF
330
15F
100
AcDbEntity
  8
0
  6
Continuous
 62
     0
370
     0
100
AcDbPolyline
 90
        4
 70
     0
 43
0.0
 10
367.680389
 20
332.285492
 10
367.792664
 20
332.453705
 10
367.923157
 20
332.606018
 10
368.242737
 20
332.839447
  0
LWPOLYLINE
  5
1F0
330
15F
100
AcDbEntity
  8
0
  6
Continuous
 62
     0
370
     0
100
AcDbPolyline
 90
        3
 70
     0
 43
0.0
 10
368.150848
 20
333.027618
 10
368.16391
 20
332.984375
 10
368.242737
 20
332.839447
  0
LWPOLYLINE
  5
1F1
330
15F
100
AcDbEntity
  8
0
  6
Continuous
 62
     0
370
     0
100
AcDbPolyline
 90
        3
 70
     0
 43
0.0
 10
369.08432
 20
333.027618
 10
368.70578
 20
332.994049
 10
368.242737
 20
332.839447
  0
LWPOLYLINE
  5
1F2
330
15F
100
AcDbEntity
  8
0
  6
Continuous
 62
     0
370
     0
100
AcDbPolyline
 90
       22
 70
     0
 43
0.0
 10
389.768097
 20
333.740662
 10
389.692902
 20
333.740662
 10
389.469604
 20
333.740662
 10
389.102905
 20
333.740662
 10
388.600281
 20
333.740662
 10
387.97348
 20
333.740662
 10
387.236053
 20
333.740662
 10
386.404907
 20
333.740662
 10
385.498657
 20
333.740662
 10
384.536804
 20
333.740662
 10
383.541229
 20
333.740662
 10
382.534149
 20
333.740662
 10
381.537689
 20
333.740662
 10
380.574127
 20
333.740662
 10
379.665283
 20
333.740662
 10
378.830811
 20
333.740662
 10
378.089569
 20
333.740662
 10
377.458466
 20
333.740662
 10
376.950531
 20
333.740662
 10
376.577911
 20
333.740662
 10
376.348846
 20
333.740662
 10
376.268097
 20
333.740662
  0
LINE
  5
1F3
330
15F
100
AcDbEntity
  8
0
  6
Continuous
 62
     0
370
    30
100
AcDbLine
 10
389.768093
 20
336.240659
 30
0.0
 11
389.768093
 21
333.740659
 31
0.0
  0
LINE
  5
1F4
330
15F
100
AcDbEntity
  8
0
  6
Continuous
 62
     0
370
    30
100
AcDbLine
 10
376.268093
 20
336.240659
 30
0.0
 11
376.268093
 21
333.740659
 31
0.0
  0
ARC
  5
1F5
330
15F
100
AcDbEntity
  8
0
  6
Continuous
 62
     0
370
    30
100
AcDbCircle
 10
375.768095
 20
333.740661
 30
0.0
 40
0.5000025634071918
100
AcDbArc
 50
270.000536
 51
359.999706
  0
ARC
  5
1F6
330
15F
100
AcDbEntity
  8
0
  6
Continuous
 62
     0
370
    30
100
AcDbCircle
 10
390.268096
 20
333.740662
 30
0.0
 40
0.5000035721508285
100
AcDbArc
 50
180.000409
 51
269.999628
  0
ARC
  5
1F7
330
15F
100
AcDbEntity
  8
0
  6
Continuous
 62
     0
370
    30
100
AcDbCircle
 10
383.029289
 20
308.626328
 30
0.0
 40
1.882521118856467
100
AcDbArc
 50
265.905363
 51
275.444057
  0
LINE
  5
1F8
330
15F
100
AcDbEntity
  8
0
  6
Continuous
 62
     0
370
    30
100
AcDbLine
 10
397.894265
 20
333.028474
 30
0.0
 11
397.844966
 21
333.056701
 31
0.0
  0
LINE
  5
1F9
330
15F
100
AcDbEntity
  8
0
  6
Continuous
 62
     0
370
    30
100
AcDbLine
 10
412.218692
 20
306.732864
 30
0.0
 11
412.217874
 21
306.734441
 31
0.0
  0
LWPOLYLINE
  5
1FA
330
15F
100
AcDbEntity
  8
0
  6
Continuous
 62
     0
370
    30
100
AcDbPolyline
 90
        6
 70
     0
 43
0.0
 10
412.09787
 20
305.993896
 10
412.166595
 20
306.129974
 10
412.20694
 20
306.277435
 10
412.224701
 20
306.42923
 10
412.227112
 20
306.582062
 10
412.213348
 20
306.740631
  0
LWPOLYLINE
  5
1FB
330
15F
100
AcDbEntity
  8
0
  6
Continuous
 62
     0
370
    30
100
AcDbPolyline
 90
        5
 70
     0
 43
0.0
 10
410.896759
 20
305.240662
 10
411.242767
 20
305.296265
 10
411.558807
 20
305.44931
 10
411.833313
 20
305.668671
 10
412.09726
 20
305.99295
  0
LWPOLYLINE
  5
1FC
330
15F
100
AcDbEntity
  8
0
  6
Continuous
 62
     0
370
    30
100
AcDbPolyline
 90
        5
 70
     0
 43
0.0
 10
367.595734
 20
332.461548
 10
367.608154
 20
332.483856
 10
367.623566
 20
332.510315
 10
367.614349
 20
332.494751
 10
367.595734
 20
332.461517
  0
LINE
  5
1FD
330
15F
100
AcDbEntity
  8
0
  6
Continuous
 62
     0
370
    30
100
AcDbLine
 10
368.140429
 20
333.027601
 30
0.0
 11
368.127935
 21
333.019943
 31
0.0
  0
LINE
  5
1FE
330
15F
100
AcDbEntity
  8
0
  6
Continuous
 62
     0
370
    30
100
AcDbLine
 10
353.8174
 20
306.732688
 30
0.0
 11
353.817954
 21
306.733711
 31
0.0
  0
LWPOLYLINE
  5
1FF
330
15F
100
AcDbEntity
  8
0
  6
Continuous
 62
     0
370
    30
100
AcDbPolyline
 90
        6
 70
     0
 43
0.0
 10
353.938751
 20
305.993256
 10
353.871552
 20
306.124573
 10
353.831299
 20
306.266632
 10
353.812531
 20
306.413177
 10
353.808624
 20
306.560883
 10
353.822937
 20
306.740692
  0
LWPOLYLINE
  5
200
330
15F
100
AcDbEntity
  8
0
  6
Continuous
 62
     0
370
    30
100
AcDbPolyline
 90
        5
 70
     0
 43
0.0
 10
355.139404
 20
305.240662
 10
354.793701
 20
305.296173
 10
354.477875
 20
305.449005
 10
354.203491
 20
305.66806
 10
353.939423
 20
305.992218
  0
LINE
  5
201
330
15F
100
AcDbEntity
  8
0
  6
Continuous
 62
     0
370
    30
100
AcDbLine
 10
511.268093
 20
336.240659
 30
0.0
 11
511.268093
 21
333.740659
 31
0.0
  0
LINE
  5
202
330
15F
100
AcDbEntity
  8
0
  6
Continuous
 62
     0
370
    30
100
AcDbLine
 10
524.768093
 20
336.240659
 30
0.0
 11
524.768093
 21
333.740659
 31
0.0
  0
ARC
  5
203
330
15F
100
AcDbEntity
  8
0
  6
Continuous
 62
     0
370
    30
100
AcDbCircle
 10
525.2681
 20
333.740658
 30
0.0
 40
0.4999993783956396
100
AcDbArc
 50
179.999929
 51
269.999019
  0
ARC
  5
204
330
15F
100
AcDbEntity
  8
0
  6
Continuous
 62
     0
370
    30
100
AcDbCircle
 10
510.768096
 20
333.740662
 30
0.0
 40
0.5000031805839009
100
AcDbArc
 50
270.000436
 51
359.999636
  0
LWPOLYLINE
  5
205
330
15F
100
AcDbEntity
  8
0
  6
Continuous
 62
     0
370
    30
100
AcDbPolyline
 90
        4
 70
     0
 43
0.0
 10
502.500214
 20
332.447906
 10
502.620544
 20
332.637787
 10
502.768433
 20
332.807983
 10
503.051117
 20
333.027496
  0
ARC
  5
206
330
15F
100
AcDbEntity
  8
0
  6
Continuous
 62
     0
370
    30
100
AcDbCircle
 10
517.820271
 20
308.62697
 30
0.0
 40
1.883162045225152
100
AcDbArc
 50
265.906414
 51
275.442866
  0
LINE
  5
207
330
15F
100
AcDbEntity
  8
0
  6
Continuous
 62
     0
370
    30
100
AcDbLine
 10
547.217488
 20
306.733916
 30
0.0
 11
547.212225
 21
306.743613
 31
0.0
  0
LWPOLYLINE
  5
208
330
15F
100
AcDbEntity
  8
0
  6
Continuous
 62
     0
370
    30
100
AcDbPolyline
 90
        9
 70
     0
 43
0.0
 10
547.103882
 20
306.004181
 10
547.149292
 20
306.089111
 10
547.1828
 20
306.179443
 10
547.205505
 20
306.273132
 10
547.219238
 20
306.3685
 10
547.22583
 20
306.464691
 10
547.226929
 20
306.561066
 10
547.222534
 20
306.657349
 10
547.211609
 20
306.743927
  0
LWPOLYLINE
  5
209
330
15F
100
AcDbEntity
  8
0
  6
Continuous
 62
     0
370
    30
100
AcDbPolyline
 90
        5
 70
     0
 43
0.0
 10
545.896118
 20
305.240662
 10
546.237244
 20
305.294678
 10
546.5495
 20
305.443787
 10
546.821594
 20
305.657959
 10
547.088135
 20
305.980103
  0
LINE
  5
20A
330
15F
100
AcDbEntity
  8
0
  6
Continuous
 62
     0
370
    30
100
AcDbLine
 10
533.535985
 20
332.447895
 30
0.0
 11
533.535387
 21
332.448991
 31
0.0
  0
LINE
  5
20B
330
15F
100
AcDbEntity
  8
0
  6
Continuous
 62
     0
370
    30
100
AcDbLine
 10
488.818918
 20
306.73435
 30
0.0
 11
488.819582
 21
306.73559
 31
0.0
  0
LWPOLYLINE
  5
20C
330
15F
100
AcDbEntity
  8
0
  6
Continuous
 62
     0
370
    30
100
AcDbPolyline
 90
        7
 70
     0
 43
0.0
 10
488.933228
 20
306.002747
 10
488.877045
 20
306.112305
 10
488.839813
 20
306.229889
 10
488.818909
 20
306.351349
 10
488.809967
 20
306.474365
 10
488.810211
 20
306.597687
 10
488.823608
 20
306.741302
  0
LINE
  5
20D
330
15F
100
AcDbEntity
  8
0
  6
Continuous
 62
     0
370
    30
100
AcDbLine
 10
488.938088
 20
305.995243
 30
0.0
 11
488.944165
 21
305.986055
 31
0.0
  0
LWPOLYLINE
  5
20E
330
15F
100
AcDbEntity
  8
0
  6
Continuous
 62
     0
370
    30
100
AcDbPolyline
 90
        5
 70
     0
 43
0.0
 10
490.140045
 20
305.240662
 10
489.796417
 20
305.295502
 10
489.482208
 20
305.446655
 10
489.208832
 20
305.663483
 10
488.943665
 20
305.986755
  0
LINE
  5
20F
330
15F
100
AcDbEntity
  8
0
  6
Continuous
 62
     0
370
    30
100
AcDbLine
 10
502.499974
 20
332.447473
 30
0.0
 11
488.818645
 21
306.733846
 31
0.0
  0
LINE
  5
210
330
15F
100
AcDbEntity
  8
0
  6
Continuous
 62
     0
370
    30
100
AcDbLine
 10
445.318019
 20
289.104955
 30
0.0
 11
445.318019
 21
264.104955
 31
0.0
  0
LINE
  5
211
330
15F
100
AcDbEntity
  8
0
  6
Continuous
 62
     0
370
    30
100
AcDbLine
 10
455.318019
 20
264.104955
 30
0.0
 11
445.318019
 21
264.104955
 31
0.0
  0
LINE
  5
212
330
15F
100
AcDbEntity
  8
0
  6
Continuous
 62
     0
370
    30
100
AcDbLine
 10
455.318019
 20
289.104955
 30
0.0
 11
455.318019
 21
264.104955
 31
0.0
  0
LINE
  5
213
330
15F
100
AcDbEntity
  8
0
  6
Continuous
 62
     0
370
    30
100
AcDbLine
 10
445.318019
 20
289.104955
 30
0.0
 11
455.318019
 21
289.104955
 31
0.0
  0
LWPOLYLINE
  5
214
330
15F
100
AcDbEntity
  8
0
  6
Continuous
 62
     0
370
    30
100
AcDbPolyline
 90
       23
 70
     0
 43
0.0
 10
447.818024
 20
260.662506
 10
447.832703
 20
260.661255
 10
447.877106
 20
260.660309
 10
447.95224
 20
260.659637
 10
448.06015
 20
260.659302
 10
448.203979
 20
260.65921
 10
448.388245
 20
260.65976
 10
448.620453
 20
260.660736
 10
448.911133
 20
260.662079
 10
449.27655
 20
260.663483
 10
449.7323
 20
260.669495
 10
450.283722
 20
260.671265
 10
450.838531
 20
260.670715
 10
451.309174
 20
260.668213
 10
451.684998
 20
260.666412
 10
451.983368
 20
260.66452
 10
452.222046
 20
260.663788
 10
452.411835
 20
260.663269
 10
452.560242
 20
260.663116
 10
452.672363
 20
260.663483
 10
452.751404
 20
260.664124
 10
452.7995
 20
260.665039
 10
452.817841
 20
260.666321
  0
LINE
  5
215
330
15F
100
AcDbEntity
  8
0
  6
Continuous
 62
     0
370
    30
100
AcDbLine
 10
447.818019
 20
260.662503
 30
0.0
 11
447.818019
 21
264.104956
 31
0.0
  0
ARC
  5
216
330
15F
100
AcDbEntity
  8
0
  6
Continuous
 62
     0
370
    30
100
AcDbCircle
 10
476.790999
 20
258.914453
 30
0.0
 40
1.500758676829743
100
AcDbArc
 50
52.331977
 51
89.980499
  0
ARC
  5
217
330
15F
100
AcDbEntity
  8
0
  6
Continuous
 62
     0
370
    30
100
AcDbCircle
 10
476.790701
 20
258.914821
 30
0.0
 40
1.500649318674661
100
AcDbArc
 50
12.376729
 51
52.314373
  0
LINE
  5
218
330
15F
100
AcDbEntity
  8
0
  6
Continuous
 62
     0
370
    30
100
AcDbLine
 10
478.256474
 20
259.236469
 30
0.0
 11
478.257347
 21
259.257267
 31
0.0
  0
ARC
  5
219
330
15F
100
AcDbEntity
  8
0
  6
Continuous
 62
     0
370
    30
100
AcDbCircle
 10
476.794308
 20
258.930308
 30
0.0
 40
1.499127578669054
100
AcDbArc
 50
12.597395
 51
89.335881
  0
LINE
  5
21A
330
15F
100
AcDbEntity
  8
0
  6
Continuous
 62
     0
370
    30
100
AcDbLine
 10
476.811685
 20
260.429335
 30
0.0
 11
476.79151
 21
260.415212
 31
0.0
  0
LINE
  5
21B
330
15F
100
AcDbEntity
  8
0
  6
Continuous
 62
     0
370
    30
100
AcDbLine
 10
483.106441
 20
237.602262
 30
0.0
 11
483.10318
 21
237.617175
 31
0.0
  0
LINE
  5
21C
330
15F
100
AcDbEntity
  8
0
  6
Continuous
 62
     0
370
     0
100
AcDbLine
 10
483.10318
 20
237.617175
 30
0.0
 11
487.010086
 21
219.321043
 31
0.0
  0
LINE
  5
21D
330
15F
100
AcDbEntity
  8
0
  6
Continuous
 62
     0
370
     0
100
AcDbLine
 10
417.932055
 20
237.617179
 30
0.0
 11
414.025081
 21
219.321513
 31
0.0
  0
LINE
  5
21E
330
15F
100
AcDbEntity
  8
0
  6
Continuous
 62
     0
370
    30
100
AcDbLine
 10
424.223552
 20
260.429335
 30
0.0
 11
424.243682
 21
260.415212
 31
0.0
  0
ARC
  5
21F
330
15F
100
AcDbEntity
  8
0
  6
Continuous
 62
     0
370
    30
100
AcDbCircle
 10
424.240928
 20
258.930308
 30
0.0
 40
1.499127578813153
100
AcDbArc
 50
90.664119
 51
167.402604
  0
LINE
  5
220
330
15F
100
AcDbEntity
  8
0
  6
Continuous
 62
     0
370
    30
100
AcDbLine
 10
422.778724
 20
259.236496
 30
0.0
 11
422.777889
 21
259.257267
 31
0.0
  0
ARC
  5
221
330
15F
100
AcDbEntity
  8
0
  6
Continuous
 62
     0
370
    30
100
AcDbCircle
 10
424.244491
 20
258.914821
 30
0.0
 40
1.500649839054041
100
AcDbArc
 50
127.694868
 51
167.622192
  0
ARC
  5
222
330
15F
100
AcDbEntity
  8
0
  6
Continuous
 62
     0
370
    30
100
AcDbCircle
 10
424.244193
 20
258.914453
 30
0.0
 40
1.500758503712755
100
AcDbArc
 50
90.019498
 51
127.677256
  0
LINE
  5
223
330
15F
100
AcDbEntity
  8
0
  6
Continuous
 62
     0
370
    30
100
AcDbLine
 10
478.38976
 20
202.995772
 30
0.0
 11
478.395049
 21
203.000464
 31
0.0
  0
LINE
  5
224
330
15F
100
AcDbEntity
  8
0
  6
Continuous
 62
     0
370
    30
100
AcDbLine
 10
480.903272
 20
182.112931
 30
0.0
 11
478.38976
 21
202.995772
 31
0.0
  0
ARC
  5
225
330
15F
100
AcDbEntity
  8
0
  6
Continuous
 62
     0
370
     0
100
AcDbCircle
 10
480.038382
 20
182.660614
 30
0.0
 40
1.023714470453289
100
AcDbArc
 50
327.656339
 51
340.458965
  0
LWPOLYLINE
  5
226
330
15F
100
AcDbEntity
  8
0
  6
Continuous
 62
     0
370
     0
100
AcDbPolyline
 90
        2
 70
     0
 43
0.0
 10
478.418762
 20
203.740585
 10
481.003143
 20
182.318207
  0
ARC
  5
227
330
15F
100
AcDbEntity
  8
0
  6
Continuous
 62
     0
370
    30
100
AcDbCircle
 10
468.48364
 20
203.688448
 30
0.0
 40
9.935257969736995
100
AcDbArc
 50
356.029278
 51
0.300678
  0
LINE
  5
228
330
15F
100
AcDbEntity
  8
0
  6
Continuous
 62
     0
370
     0
100
AcDbLine
 10
422.62414
 20
203.75278
 30
0.0
 11
420.166021
 21
182.313384
 31
0.0
  0
ARC
  5
229
330
15F
100
AcDbEntity
  8
0
  6
Continuous
 62
     0
370
     0
100
AcDbCircle
 10
421.128628
 20
182.657445
 30
0.0
 40
1.022251181553405
100
AcDbArc
 50
199.668497
 51
212.518363
  0
LINE
  5
22A
330
15F
100
AcDbEntity
  8
0
  6
Continuous
 62
     0
370
    30
100
AcDbLine
 10
420.266646
 20
182.107914
 30
0.0
 11
422.655901
 21
202.986944
 31
0.0
  0
LINE
  5
22B
330
15F
100
AcDbEntity
  8
0
  6
Continuous
 62
     0
370
    30
100
AcDbLine
 10
422.655901
 20
202.986944
 30
0.0
 11
422.652432
 21
202.99002
 31
0.0
  0
ARC
  5
22C
330
15F
100
AcDbEntity
  8
0
  6
Continuous
 62
     0
370
    30
100
AcDbCircle
 10
432.585157
 20
203.740337
 30
0.0
 40
9.961024191124057
100
AcDbArc
 50
179.928429
 51
184.319914
  0
LINE
  5
22D
330
15F
100
AcDbEntity
  8
0
  6
Continuous
 62
     0
370
     0
100
AcDbLine
 10
424.243682
 20
260.415212
 30
0.0
 11
436.450906
 21
260.417025
 31
0.0
  0
LINE
  5
22E
330
15F
100
AcDbEntity
  8
0
  6
Continuous
 62
     0
370
    30
100
AcDbLine
 10
436.450906
 20
260.417025
 30
0.0
 11
464.589787
 21
260.417025
 31
0.0
  0
LINE
  5
22F
330
15F
100
AcDbEntity
  8
0
  6
Continuous
 62
     0
370
     0
100
AcDbLine
 10
464.589787
 20
260.417025
 30
0.0
 11
476.79151
 21
260.415212
 31
0.0
  0
LINE
  5
230
330
15F
100
AcDbEntity
  8
0
  6
Continuous
 62
     0
370
    30
100
AcDbLine
 10
447.818019
 20
260.713751
 30
0.0
 11
424.223552
 21
260.429335
 31
0.0
  0
LINE
  5
231
330
15F
100
AcDbEntity
  8
0
  6
Continuous
 62
     0
370
    30
100
AcDbLine
 10
476.811685
 20
260.429335
 30
0.0
 11
452.818019
 21
260.718524
 31
0.0
  0
LINE
  5
232
330
15F
100
AcDbEntity
  8
0
  6
Continuous
 62
     0
370
    30
100
AcDbLine
 10
478.256474
 20
259.236469
 30
0.0
 11
478.306004
 21
259.010586
 31
0.0
  0
LINE
  5
233
330
15F
100
AcDbEntity
  8
0
  6
Continuous
 62
     0
370
    30
100
AcDbLine
 10
478.306004
 20
259.010586
 30
0.0
 11
487.010086
 21
219.321043
 31
0.0
  0
LINE
  5
234
330
15F
100
AcDbEntity
  8
0
  6
Continuous
 62
     0
370
    30
100
AcDbLine
 10
483.10318
 20
237.617175
 30
0.0
 11
478.257347
 21
259.257267
 31
0.0
  0
LINE
  5
235
330
15F
100
AcDbEntity
  8
0
  6
Continuous
 62
     0
370
    30
100
AcDbLine
 10
417.932055
 20
237.617179
 30
0.0
 11
422.777889
 21
259.257267
 31
0.0
  0
LINE
  5
236
330
15F
100
AcDbEntity
  8
0
  6
Continuous
 62
     0
370
    30
100
AcDbLine
 10
422.729205
 20
259.010682
 30
0.0
 11
414.025081
 21
219.321513
 31
0.0
  0
LINE
  5
237
330
15F
100
AcDbEntity
  8
0
  6
Continuous
 62
     0
370
    30
100
AcDbLine
 10
422.778724
 20
259.236496
 30
0.0
 11
422.729205
 21
259.010682
 31
0.0
  0
LINE
  5
238
330
15F
100
AcDbEntity
  8
0
  6
Continuous
 62
     0
370
     0
100
AcDbLine
 10
481.003057
 20
182.3182
 30
0.0
 11
486.970321
 21
219.0423
 31
0.0
  0
LINE
  5
239
330
15F
100
AcDbEntity
  8
0
  6
Continuous
 62
     0
370
     0
100
AcDbLine
 10
486.970321
 20
219.0423
 30
0.0
 11
478.411026
 21
258.063498
 31
0.0
  0
LWPOLYLINE
  5
23A
330
15F
100
AcDbEntity
  8
0
  6
Continuous
 62
     0
370
    30
100
AcDbPolyline
 90
        6
 70
     0
 43
0.0
 10
478.411041
 20
258.063507
 10
478.411163
 20
247.868591
 10
478.411591
 20
237.673676
 10
478.412506
 20
227.478775
 10
478.413696
 20
217.283859
 10
478.418701
 20
203.740585
  0
LINE
  5
23B
330
15F
100
AcDbEntity
  8
0
  6
Continuous
 62
     0
370
    30
100
AcDbLine
 10
422.624189
 20
258.06342
 30
0.0
 11
422.624109
 21
203.75278
 31
0.0
  0
LINE
  5
23C
330
15F
100
AcDbEntity
  8
0
  6
Continuous
 62
     0
370
     0
100
AcDbLine
 10
414.066087
 20
219.040159
 30
0.0
 11
422.624189
 21
258.06342
 31
0.0
  0
LINE
  5
23D
330
15F
100
AcDbEntity
  8
0
  6
Continuous
 62
     0
370
     0
100
AcDbLine
 10
420.165624
 20
182.313392
 30
0.0
 11
414.066087
 21
219.040159
 31
0.0
  0
ARC
  5
23E
330
15F
100
AcDbEntity
  8
0
  6
Continuous
 62
     0
370
    30
100
AcDbCircle
 10
427.084432
 20
258.048393
 30
0.0
 40
4.460268927412132
100
AcDbArc
 50
167.540656
 51
179.806954
  0
ARC
  5
23F
330
15F
100
AcDbEntity
  8
0
  6
Continuous
 62
     0
370
     0
100
AcDbCircle
 10
414.402763
 20
219.241014
 30
0.0
 40
0.3861655945853554
100
AcDbArc
 50
167.968066
 51
188.555482
  0
ARC
  5
240
330
15F
100
AcDbEntity
  8
0
  6
Continuous
 62
     0
370
     0
100
AcDbCircle
 10
414.510559
 20
219.259061
 30
0.0
 40
0.4954502095521536
100
AcDbArc
 50
188.764747
 51
206.220275
  0
ARC
  5
241
330
15F
100
AcDbEntity
  8
0
  6
Continuous
 62
     0
370
     0
100
AcDbCircle
 10
421.504359
 20
182.051924
 30
0.0
 40
1.36402961727183
100
AcDbArc
 50
168.948707
 51
189.275106
  0
ARC
  5
242
330
15F
100
AcDbEntity
  8
0
  6
Continuous
 62
     0
370
     0
100
AcDbCircle
 10
415.576988
 20
218.777187
 30
0.0
 40
1.533587881730552
100
AcDbArc
 50
170.126382
 51
189.36497
  0
ARC
  5
243
330
15F
100
AcDbEntity
  8
0
  6
Continuous
 62
     0
370
     0
100
AcDbCircle
 10
479.671609
 20
182.048622
 30
0.0
 40
1.35852985228273
100
AcDbArc
 50
350.99174
 51
11.444819
  0
ARC
  5
244
330
15F
100
AcDbEntity
  8
0
  6
Continuous
 62
     0
370
     0
100
AcDbCircle
 10
485.449729
 20
218.778246
 30
0.0
 40
1.543165532276441
100
AcDbArc
 50
350.791101
 51
9.852482
  0
ARC
  5
245
330
15F
100
AcDbEntity
  8
0
  6
Continuous
 62
     0
370
     0
100
AcDbCircle
 10
486.527291
 20
219.258214
 30
0.0
 40
0.4926497719097662
100
AcDbArc
 50
334.006347
 51
351.380366
  0
ARC
  5
246
330
15F
100
AcDbEntity
  8
0
  6
Continuous
 62
     0
370
     0
100
AcDbCircle
 10
486.633468
 20
219.240713
 30
0.0
 40
0.3850508167358012
100
AcDbArc
 50
351.587201
 51
12.040398
  0
ARC
  5
247
330
15F
100
AcDbEntity
  8
0
  6
Continuous
 62
     0
370
    30
100
AcDbCircle
 10
473.988775
 20
258.052396
 30
0.0
 40
4.422264264367007
100
AcDbArc
 50
0.144339
 51
12.513705
  0
ARC
  5
248
330
15F
100
AcDbEntity
  8
0
  6
Continuous
 62
     0
370
     0
100
AcDbCircle
 10
424.246427
 20
260.404259
 30
0.0
 40
0.0112919109386247
100
AcDbArc
 50
104.06967
 51
162.948143
  0
ARC
  5
249
330
15F
100
AcDbEntity
  8
0
  6
Continuous
 62
     0
370
    30
100
AcDbCircle
 10
438.082795
 20
-9737.902342
 30
0.0
 40
9998.31950024624
100
AcDbArc
 50
90.009352
 51
90.079352
  0
ARC
  5
24A
330
15F
100
AcDbEntity
  8
0
  6
Continuous
 62
     0
370
    30
100
AcDbCircle
 10
462.951716
 20
-9740.326329
 30
0.0
 40
10000.74348752261
100
AcDbArc
 50
89.920664
 51
89.990615
  0
ARC
  5
24B
330
15F
100
AcDbEntity
  8
0
  6
Continuous
 62
     0
370
     0
100
AcDbCircle
 10
476.788765
 20
260.404261
 30
0.0
 40
0.0112891060374655
100
AcDbArc
 50
17.048972
 51
75.92688
  0
ARC
  5
24C
330
15F
100
AcDbEntity
  8
0
  6
Continuous
 62
     0
370
     0
100
AcDbCircle
 10
414.624143
 20
219.05706
 30
0.0
 40
0.6163701915156977
100
AcDbArc
 50
168.15632
 51
187.655634
  0
ARC
  5
24D
330
15F
100
AcDbEntity
  8
0
  6
Continuous
 62
     0
370
    30
100
AcDbCircle
 10
424.226254
 20
258.930489
 30
0.0
 40
1.477110464867167
100
AcDbArc
 50
89.636239
 51
127.506713
  0
LWPOLYLINE
  5
24E
330
15F
100
AcDbEntity
  8
0
  6
Continuous
 62
     0
370
    30
100
AcDbPolyline
 90
        2
 70
     0
 43
0.0
 10
420.616577
 20
180.811356
 10
420.639404
 20
180.792435
  0
ARC
  5
24F
330
15F
100
AcDbEntity
  8
0
  6
Continuous
 62
     0
370
    30
100
AcDbCircle
 10
422.073326
 20
182.066711
 30
0.0
 40
1.918297517936163
100
AcDbArc
 50
215.712585
 51
221.626633
  0
ARC
  5
250
330
15F
100
AcDbEntity
  8
0
  6
Continuous
 62
     0
370
     0
100
AcDbCircle
 10
421.406559
 20
181.709517
 30
0.0
 40
1.172613612929425
100
AcDbArc
 50
209.396394
 51
220.564411
  0
LWPOLYLINE
  5
251
330
15F
100
AcDbEntity
  8
0
  6
Continuous
 62
     0
370
    30
100
AcDbPolyline
 90
        5
 70
     0
 43
0.0
 10
420.515747
 20
180.94696
 10
420.381927
 20
181.187027
 10
420.299286
 20
181.44664
 10
420.259521
 20
181.715088
 10
420.26651
 20
182.107895
  0
ARC
  5
252
330
15F
100
AcDbEntity
  8
0
  6
Continuous
 62
     0
370
     0
100
AcDbCircle
 10
479.765135
 20
181.708578
 30
0.0
 40
1.172785168919596
100
AcDbArc
 50
319.429556
 51
330.671839
  0
ARC
  5
253
330
15F
100
AcDbEntity
  8
0
  6
Continuous
 62
     0
370
    30
100
AcDbCircle
 10
479.038841
 20
182.117124
 30
0.0
 40
1.996779573714606
100
AcDbArc
 50
312.935617
 51
324.0841
  0
ARC
  5
254
330
15F
100
AcDbEntity
  8
0
  6
Continuous
 62
     0
370
    30
100
AcDbCircle
 10
480.360831
 20
180.728773
 30
0.0
 40
0.0828465007818437
100
AcDbArc
 50
297.433811
 51
329.928204
  0
LWPOLYLINE
  5
255
330
15F
100
AcDbEntity
  8
0
  6
Continuous
 62
     0
370
    30
100
AcDbPolyline
 90
        5
 70
     0
 43
0.0
 10
480.656006
 20
180.945816
 10
480.79071
 20
181.18782
 10
480.873291
 20
181.449646
 10
480.912231
 20
181.720352
 10
480.903259
 20
182.11293
  0
ARC
  5
256
330
15F
100
AcDbEntity
  8
0
  6
Continuous
 62
     0
370
     0
100
AcDbCircle
 10
486.40775
 20
219.057008
 30
0.0
 40
0.6198486610187963
100
AcDbArc
 50
351.574045
 51
11.857914
  0
ARC
  5
257
330
15F
100
AcDbEntity
  8
0
  6
Continuous
 62
     0
370
    30
100
AcDbCircle
 10
476.808938
 20
258.930492
 30
0.0
 40
1.477109230443252
100
AcDbArc
 50
52.502589
 51
90.363843
  0
LINE
  5
258
330
15F
100
AcDbEntity
  8
0
  6
Continuous
 62
     0
370
    30
100
AcDbLine
 10
478.389326
 20
202.995804
 30
0.0
 11
478.360421
 21
202.970186
 31
0.0
  0
LINE
  5
259
330
15F
100
AcDbEntity
  8
0
  6
Continuous
 62
     0
370
    30
100
AcDbLine
 10
422.674816
 20
202.970186
 30
0.0
 11
422.655902
 21
202.986944
 31
0.0
  0
LINE
  5
25A
330
15F
100
AcDbEntity
  8
0
  6
Continuous
 62
     0
370
    30
100
AcDbLine
 10
422.674816
 20
202.970186
 30
0.0
 11
478.360421
 21
202.970186
 31
0.0
  0
LINE
  5
25B
330
15F
100
AcDbEntity
  8
0
  6
Continuous
 62
     0
370
    30
100
AcDbLine
 10
480.399
 20
180.65536
 30
0.0
 11
420.639418
 21
180.792435
 31
0.0
  0
ELLIPSE
  5
25C
330
15F
100
AcDbEntity
  8
0
  6
Continuous
 62
     0
370
    30
100
AcDbEllipse
 10
450.513159
 20
165.080681
 30
0.0
 11
-12.89995940321135
 21
0.03236349021747805
 31
0.0
210
0.0
220
0.0
230
1.0
 40
0.475721
 41
0.953879585309859
 42
3.141592653714467
  0
ELLIPSE
  5
25D
330
15F
100
AcDbEntity
  8
0
  6
Continuous
 62
     0
370
    30
100
AcDbEllipse
 10
450.513159
 20
165.080681
 30
0.0
 11
-12.89995940321135
 21
0.03236349021747805
 31
0.0
210
0.0
220
0.0
230
1.0
 40
0.475721
 41
0.0000000001246763
 42
0.953879585309859
  0
ELLIPSE
  5
25E
330
15F
100
AcDbEntity
  8
0
  6
Continuous
 62
     0
370
    30
100
AcDbEllipse
 10
450.529599
 20
171.633653
 30
0.0
 11
12.89995940321135
 21
-0.03236349021747805
 31
0.0
210
0.0
220
0.0
230
-1.0
 40
0.475721
 41
2.187713068279934
 42
3.382759128850486
  0
ELLIPSE
  5
25F
330
15F
100
AcDbEntity
  8
0
  6
Continuous
 62
     0
370
    30
100
AcDbEllipse
 10
450.529599
 20
171.633653
 30
0.0
 11
12.89995940321135
 21
-0.03236349021747805
 31
0.0
210
0.0
220
0.0
230
-1.0
 40
0.475721
 41
5.77185237055345
 42
6.524351782440277
  0
LINE
  5
260
330
15F
100
AcDbEntity
  8
0
  6
Continuous
 62
     0
370
    30
100
AcDbLine
 10
463.052557
 20
170.136544
 30
0.0
 11
463.045937
 21
167.497764
 31
0.0
  0
ELLIPSE
  5
261
330
15F
100
AcDbEntity
  8
0
  6
Continuous
 62
     0
370
    30
100
AcDbEllipse
 10
450.522979
 20
168.994872
 30
0.0
 11
12.89995940321135
 21
-0.03236349021747805
 31
0.0
210
0.0
220
0.0
230
-1.0
 40
0.475721
 41
0.2411664752606931
 42
0.9926670077093802
  0
LINE
  5
262
330
15F
100
AcDbEntity
  8
0
  6
Continuous
 62
     0
370
    30
100
AcDbLine
 10
457.559374
 20
163.837716
 30
0.0
 11
457.565994
 21
166.476496
 31
0.0
  0
ELLIPSE
  5
263
330
15F
100
AcDbEntity
  8
0
  6
Continuous
 62
     0
370
    30
100
AcDbEllipse
 10
450.529599
 20
171.633653
 30
0.0
 11
12.89995940321135
 21
-0.03236349021747805
 31
0.0
210
0.0
220
0.0
230
-1.0
 40
0.475721
 41
0.9926670077093803
 42
2.187713068279933
  0
ELLIPSE
  5
264
330
15F
100
AcDbEntity
  8
0
  6
Continuous
 62
     0
370
    30
100
AcDbEllipse
 10
450.53324
 20
173.084982
 30
0.0
 11
-11.24996459582385
 21
0.02822397402687039
 31
0.0
210
0.0
220
0.0
230
1.0
 40
0.475721
 41
0.9538795853098598
 42
3.141592653714467
  0
ELLIPSE
  5
265
330
15F
100
AcDbEntity
  8
0
  6
Continuous
 62
     0
370
    30
100
AcDbEllipse
 10
450.53324
 20
173.084982
 30
0.0
 11
-11.24996459582385
 21
0.02822397402687039
 31
0.0
210
0.0
220
0.0
230
1.0
 40
0.475721
 41
0.0000000001246745
 42
0.9538795853098598
  0
ELLIPSE
  5
266
330
15F
100
AcDbEntity
  8
0
  6
Continuous
 62
     0
370
    30
100
AcDbEllipse
 10
450.55288
 20
180.913363
 30
0.0
 11
11.24996459582385
 21
-0.02822397402687039
 31
0.0
210
0.0
220
0.0
230
-1.0
 40
0.475721
 41
2.187713068279934
 42
3.105717146173362
  0
ELLIPSE
  5
267
330
15F
100
AcDbEntity
  8
0
  6
Continuous
 62
     0
370
    30
100
AcDbEllipse
 10
450.55288
 20
180.913363
 30
0.0
 11
11.24996459582385
 21
-0.02822397402687039
 31
0.0
210
0.0
220
0.0
230
-1.0
 40
0.475721
 41
0.034971536578688
 42
2.187713068279933
  0
LWPOLYLINE
  5
268
330
15F
100
AcDbEntity
  8
0
  6
Continuous
 62
     0
370
    30
100
AcDbPolyline
 90
        8
 70
     0
 43
0.0
 10
457.565979
 20
166.476501
 10
458.322784
 20
167.349716
 10
459.098236
 20
168.129959
 10
459.887238
 20
168.7957
 10
460.681213
 20
169.330017
 10
461.470154
 20
169.725845
 10
462.245514
 20
169.98793
 10
463.052551
 20
170.136551
  0
LWPOLYLINE
  5
269
330
15F
100
AcDbEntity
  8
0
  6
Continuous
 62
     0
370
    30
100
AcDbPolyline
 90
        3
 70
     0
 43
0.0
 10
439.286865
 20
174.543945
 10
438.930054
 20
174.181763
 10
438.006653
 20
173.130768
  0
LINE
  5
26A
330
15F
100
AcDbEntity
  8
0
  6
Continuous
 62
     0
370
    30
100
AcDbLine
 10
463.045937
 20
167.497764
 30
0.0
 11
460.302656
 21
165.66774
 31
0.0
  0
LINE
  5
26B
330
15F
100
AcDbEntity
  8
0
  6
Continuous
 62
     0
370
    30
100
AcDbLine
 10
460.302656
 20
165.66774
 30
0.0
 11
457.559374
 21
163.837716
 31
0.0
  0
LWPOLYLINE
  5
26C
330
15F
100
AcDbEntity
  8
0
  6
Continuous
 62
     0
370
    30
100
AcDbPolyline
 90
       15
 70
     0
 43
0.0
 10
454.531158
 20
180.449142
 10
454.278564
 20
180.100677
 10
453.891602
 20
179.78125
 10
453.385071
 20
179.50264
 10
452.776642
 20
179.274719
 10
452.088013
 20
179.105865
 10
451.344452
 20
179.001755
 10
450.572296
 20
178.966522
 10
449.799438
 20
179.001282
 10
449.053741
 20
179.104813
 10
448.361847
 20
179.273346
 10
447.748749
 20
179.500839
 10
447.236725
 20
179.779144
 10
446.843475
 20
180.098267
 10
446.572601
 20
180.468552
  0
ARC
  5
26D
330
15F
100
AcDbEntity
  8
0
  6
Continuous
 62
     0
370
    30
100
AcDbCircle
 10
448.109474
 20
182.329406
 30
0.0
 40
2.413445054660981
100
AcDbArc
 50
221.393288
 51
230.446842
  0
ARC
  5
26E
330
15F
100
AcDbEntity
  8
0
  6
Continuous
 62
     0
370
    30
100
AcDbCircle
 10
453.005654
 20
182.314177
 30
0.0
 40
2.409456395485506
100
AcDbArc
 50
309.281427
 51
318.386874
  0
LINE
  5
26F
330
15F
100
AcDbEntity
  8
0
  6
Continuous
 62
     0
370
    30
100
AcDbLine
 10
456.841042
 20
156.615083
 30
0.0
 11
456.83486
 21
154.150716
 31
0.0
  0
ELLIPSE
  5
270
330
15F
100
AcDbEntity
  8
0
  6
Continuous
 62
     0
370
    30
100
AcDbEllipse
 10
450.504114
 20
161.475129
 30
0.0
 11
11.99991443352191
 21
-0.03010545236934434
 31
0.0
210
0.0
220
0.0
230
-0.9999999999999999
 40
0.475721
 41
0.1910064503736976
 42
1.013263901109906
  0
LINE
  5
271
330
15F
100
AcDbEntity
  8
0
  6
Continuous
 62
     0
370
    30
100
AcDbLine
 10
462.276892
 20
157.897442
 30
0.0
 11
462.283074
 21
160.361808
 31
0.0
  0
ELLIPSE
  5
272
330
15F
100
AcDbEntity
  8
0
  6
Continuous
 62
     0
370
    30
100
AcDbEllipse
 10
450.497931
 20
159.010763
 30
0.0
 11
11.99991443352191
 21
-0.03010545236934434
 31
0.0
210
0.0
220
0.0
230
-0.9999999999999999
 40
0.475721
 41
6.283185307054911
 42
6.474191757553434
  0
ELLIPSE
  5
273
330
15F
100
AcDbEntity
  8
0
  6
Continuous
 62
     0
370
    30
100
AcDbEllipse
 10
450.497931
 20
159.010763
 30
0.0
 11
11.99991443352191
 21
-0.03010545236934434
 31
0.0
210
0.0
220
0.0
230
-0.9999999999999999
 40
0.475721
 41
2.172931502536697
 42
3.141592653465123
  0
ELLIPSE
  5
274
330
15F
100
AcDbEntity
  8
0
  6
Continuous
 62
     0
370
    30
100
AcDbEllipse
 10
450.497931
 20
159.010763
 30
0.0
 11
11.99991443352191
 21
-0.03010545236934434
 31
0.0
210
0.0
220
0.0
230
-0.9999999999999999
 40
0.475721
 41
1.013263901109905
 42
2.172931502536695
  0
LINE
  5
275
330
15F
100
AcDbEntity
  8
0
  6
Continuous
 62
     0
370
    30
100
AcDbLine
 10
457.651798
 20
154.274124
 30
0.0
 11
461.457747
 21
156.894441
 31
0.0
  0
ELLIPSE
  5
276
330
15F
100
AcDbEntity
  8
0
  6
Continuous
 62
     0
370
    30
100
AcDbEllipse
 10
450.496828
 20
158.570966
 30
0.0
 11
-11.49991600703994
 21
0.02885105352370338
 31
0.0
210
0.0
220
0.0
230
0.9999999999999999
 40
0.475721
 41
0.5714356734667021
 42
2.243508188920968
  0
LINE
  5
277
330
15F
100
AcDbEntity
  8
0
  6
Continuous
 62
     0
370
    30
100
AcDbLine
 10
456.83486
 20
154.150716
 30
0.0
 11
457.651798
 21
154.274124
 31
0.0
  0
LINE
  5
278
330
15F
100
AcDbEntity
  8
0
  6
Continuous
 62
     0
370
    30
100
AcDbLine
 10
461.457747
 20
156.894441
 30
0.0
 11
462.276892
 21
157.897442
 31
0.0
  0
ELLIPSE
  5
279
330
15F
100
AcDbEntity
  8
0
  6
Continuous
 62
     0
370
    30
100
AcDbEllipse
 10
450.55273
 20
180.93154
 30
0.0
 11
4.641914376256773
 21
-0.01144218075732101
 31
0.0
210
0.0
220
0.0
230
-0.9999999999999999
 40
0.197765
 41
0.5407631749760882
 42
2.600565724116242
  0
LINE
  5
27A
330
15F
100
AcDbEntity
  8
0
  6
Continuous
 62
     0
370
    30
100
AcDbLine
 10
440.816533
 20
155.636431
 30
0.0
 11
440.396753
 21
155.948639
 31
0.0
  0
LINE
  5
27B
330
15F
100
AcDbEntity
  8
0
  6
Continuous
 62
     0
370
    30
100
AcDbLine
 10
462.497845
 20
158.980658
 30
0.0
 11
462.507424
 21
162.7985
 31
0.0
  0
LINE
  5
27C
330
15F
100
AcDbEntity
  8
0
  6
Continuous
 62
     0
370
    30
100
AcDbLine
 10
438.498016
 20
159.040869
 30
0.0
 11
438.507595
 21
162.858711
 31
0.0
  0
LINE
  5
27D
330
15F
100
AcDbEntity
  8
0
  6
Continuous
 62
     0
370
    30
100
AcDbLine
 10
461.783205
 20
173.056758
 30
0.0
 11
461.802375
 21
180.698017
 31
0.0
  0
LINE
  5
27E
330
15F
100
AcDbEntity
  8
0
  6
Continuous
 62
     0
370
    30
100
AcDbLine
 10
439.283276
 20
173.113206
 30
0.0
 11
439.302434
 21
180.749627
 31
0.0
  0
LINE
  5
27F
330
15F
100
AcDbEntity
  8
0
  6
Continuous
 62
     0
370
    30
100
AcDbLine
 10
437.62964
 20
171.666016
 30
0.0
 11
437.6132
 21
165.113045
 31
0.0
  0
LINE
  5
280
330
15F
100
AcDbEntity
  8
0
  6
Continuous
 62
     0
370
    30
100
AcDbLine
 10
463.429559
 20
171.601289
 30
0.0
 11
463.413119
 21
165.048318
 31
0.0
  0
LWPOLYLINE
  5
281
330
15F
100
AcDbEntity
  8
0
  6
Continuous
 62
     0
370
    30
100
AcDbPolyline
 90
        4
 70
     0
 43
0.0
 10
487.017395
 20
219.285049
 10
487.037506
 20
219.112625
 10
487.033752
 20
218.965866
 10
486.998962
 20
218.764725
  0
LWPOLYLINE
  5
282
330
15F
100
AcDbEntity
  8
0
  6
Continuous
 62
     0
370
    30
100
AcDbPolyline
 90
        5
 70
     0
 43
0.0
 10
486.977264
 20
218.557129
 10
486.990295
 20
218.664612
 10
487.000031
 20
218.777679
 10
487.010284
 20
218.88382
 10
487.0224
 20
218.977264
  0
LWPOLYLINE
  5
283
330
15F
100
AcDbEntity
  8
0
  6
Continuous
 62
     0
370
    30
100
AcDbPolyline
 90
        7
 70
     0
 43
0.0
 10
481.013702
 20
181.835861
 10
480.991821
 20
181.715866
 10
480.965179
 20
181.596893
 10
480.932953
 20
181.479279
 10
480.894073
 20
181.363678
 10
480.847565
 20
181.251236
 10
480.787598
 20
181.13414
  0
ARC
  5
284
330
15F
100
AcDbEntity
  8
0
  6
Continuous
 62
     0
370
    30
100
AcDbCircle
 10
479.037589
 20
182.145838
 30
0.0
 40
2.021591727802885
100
AcDbArc
 50
313.125666
 51
329.282214
  0
LWPOLYLINE
  5
285
330
15F
100
AcDbEntity
  8
0
  6
Continuous
 62
     0
370
    30
100
AcDbPolyline
 90
        5
 70
     0
 43
0.0
 10
420.384918
 20
181.133942
 10
420.308105
 20
181.288528
 10
420.247375
 20
181.451981
 10
420.200775
 20
181.620071
 10
420.15799
 20
181.832047
  0
ARC
  5
286
330
15F
100
AcDbEntity
  8
0
  6
Continuous
 62
     0
370
    30
100
AcDbCircle
 10
422.105465
 20
182.12548
 30
0.0
 40
1.985923469866608
100
AcDbArc
 50
210.652085
 51
221.433623
  0
LWPOLYLINE
  5
287
330
15F
100
AcDbEntity
  8
0
  6
Continuous
 62
     0
370
    30
100
AcDbPolyline
 90
        4
 70
     0
 43
0.0
 10
414.01825
 20
219.28804
 10
413.997589
 20
219.111893
 10
414.00177
 20
218.961777
 10
414.037445
 20
218.760071
  0
LWPOLYLINE
  5
288
330
15F
100
AcDbEntity
  8
0
  6
Continuous
 62
     0
370
    30
100
AcDbPolyline
 90
        5
 70
     0
 43
0.0
 10
414.013184
 20
218.97554
 10
414.024597
 20
218.89035
 10
414.035583
 20
218.781494
 10
414.045929
 20
218.664139
 10
414.059723
 20
218.552063
  0
LINE
  5
289
330
15F
100
AcDbEntity
  8
0
  6
Continuous
 62
     0
370
    30
100
AcDbLine
 10
481.013722
 20
181.83602
 30
0.0
 11
486.973979
 21
218.535389
 31
0.0
  0
LINE
  5
28A
330
15F
100
AcDbEntity
  8
0
  6
Continuous
 62
     0
370
    30
100
AcDbLine
 10
414.063266
 20
218.52974
 30
0.0
 11
420.157848
 21
181.832519
 31
0.0
  0
LINE
  5
28B
330
15F
100
AcDbEntity
  8
0
  6
Continuous
 62
     0
370
    30
100
AcDbLine
 10
452.818019
 20
264.104956
 30
0.0
 11
452.818019
 21
260.666483
 31
0.0
  0
ENDBLK
  5
28D
330
15F
100
AcDbEntity
  8
0
100
AcDbBlockEnd
  0
BLOCK
  5
37C
330
28F
100
AcDbEntity
  8
0
100
AcDbBlockBegin
  2
c
 70
     0
 10
400.142548
 20
111.934883
 30
0.0
  3
c
  1

  0
LINE
  5
290
330
28F
100
AcDbEntity
  8
0
  6
Continuous
 62
     0
370
     0
100
AcDbLine
 10
739.213272
 20
787.563835
 30
0.0
 11
713.508583
 21
773.887261
 31
0.0
  0
LINE
  5
291
330
28F
100
AcDbEntity
  8
0
  6
Continuous
 62
     0
370
     0
100
AcDbLine
 10
713.508584
 20
773.799238
 30
0.0
 11
713.508583
 21
773.887261
 31
0.0
  0
LINE
  5
292
330
28F
100
AcDbEntity
  8
0
  6
Continuous
 62
     0
370
     0
100
AcDbLine
 10
713.508584
 20
742.852713
 30
0.0
 11
713.510118
 21
742.851897
 31
0.0
  0
LWPOLYLINE
  5
293
330
28F
100
AcDbEntity
  8
0
  6
Continuous
 62
     0
370
     0
100
AcDbPolyline
 90
        3
 70
     0
 43
0.0
 10
713.508606
 20
742.852722
 10
713.51416
 20
742.849976
 10
713.625854
 20
742.888184
  0
ARC
  5
294
330
28F
100
AcDbEntity
  8
0
  6
Continuous
 62
     0
370
     0
100
AcDbCircle
 10
714.222102
 20
744.181946
 30
0.0
 40
1.508630532739684
100
AcDbArc
 50
211.07442
 51
241.773596
  0
LINE
  5
295
330
28F
100
AcDbEntity
  8
0
  6
Continuous
 62
     0
370
    30
100
AcDbLine
 10
712.716917
 20
744.172696
 30
0.0
 11
712.717033
 21
744.154061
 31
0.0
  0
LINE
  5
296
330
28F
100
AcDbEntity
  8
0
  6
Continuous
 62
     0
370
     0
100
AcDbLine
 10
713.509675
 20
773.887877
 30
0.0
 11
713.508583
 21
773.887261
 31
0.0
  0
ARC
  5
297
330
28F
100
AcDbEntity
  8
0
  6
Continuous
 62
     0
370
     0
100
AcDbCircle
 10
714.2221
 20
772.558029
 30
0.0
 40
1.508630572284306
100
AcDbArc
 50
118.226404
 51
148.925579
  0
ARC
  5
298
330
28F
100
AcDbEntity
  8
0
  6
Continuous
 62
     0
370
    30
100
AcDbCircle
 10
714.224374
 20
772.564092
 30
0.0
 40
1.507461791316763
100
AcDbArc
 50
149.167548
 51
179.878862
  0
LINE
  5
299
330
28F
100
AcDbEntity
  8
0
  6
Continuous
 62
     0
370
     0
100
AcDbLine
 10
712.718826
 20
744.187353
 30
0.0
 11
712.716917
 21
744.172696
 31
0.0
  0
LWPOLYLINE
  5
29A
330
28F
100
AcDbEntity
  8
0
  6
Continuous
 62
     0
370
     0
100
AcDbPolyline
 90
        2
 70
     0
 43
0.0
 10
712.929993
 20
743.403259
 10
712.984558
 20
743.418213
  0
LINE
  5
29B
330
28F
100
AcDbEntity
  8
0
  6
Continuous
 62
     0
370
    30
100
AcDbLine
 10
699.716923
 20
786.869987
 30
0.0
 11
701.716923
 21
786.869987
 31
0.0
  0
LINE
  5
29C
330
28F
100
AcDbEntity
  8
0
  6
Continuous
 62
     0
370
    30
100
AcDbLine
 10
709.716922
 20
786.869987
 30
0.0
 11
701.716923
 21
786.869987
 31
0.0
  0
LINE
  5
29D
330
28F
100
AcDbEntity
  8
0
  6
Continuous
 62
     0
370
    30
100
AcDbLine
 10
699.716923
 20
786.869987
 30
0.0
 11
699.716923
 21
729.869987
 31
0.0
  0
LINE
  5
29E
330
28F
100
AcDbEntity
  8
0
  6
Continuous
 62
     0
370
    30
100
AcDbLine
 10
699.716923
 20
729.869987
 30
0.0
 11
701.716923
 21
729.869987
 31
0.0
  0
LINE
  5
29F
330
28F
100
AcDbEntity
  8
0
  6
Continuous
 62
     0
370
    30
100
AcDbLine
 10
709.716923
 20
749.869987
 30
0.0
 11
701.716923
 21
729.869987
 31
0.0
  0
LINE
  5
2A0
330
28F
100
AcDbEntity
  8
0
  6
Continuous
 62
     0
370
    30
100
AcDbLine
 10
709.716923
 20
766.869987
 30
0.0
 11
709.716923
 21
749.869987
 31
0.0
  0
LINE
  5
2A1
330
28F
100
AcDbEntity
  8
0
  6
Continuous
 62
     0
370
    30
100
AcDbLine
 10
701.716923
 20
786.869987
 30
0.0
 11
709.716923
 21
766.869987
 31
0.0
  0
LINE
  5
2A2
330
28F
100
AcDbEntity
  8
0
  6
Continuous
 62
     0
370
    30
100
AcDbLine
 10
701.716923
 20
729.869987
 30
0.0
 11
709.716922
 21
729.869987
 31
0.0
  0
LINE
  5
2A3
330
28F
100
AcDbEntity
  8
0
  6
Continuous
 62
     0
370
    30
100
AcDbLine
 10
709.716923
 20
766.869987
 30
0.0
 11
709.716922
 21
786.869987
 31
0.0
  0
LINE
  5
2A4
330
28F
100
AcDbEntity
  8
0
  6
Continuous
 62
     0
370
    30
100
AcDbLine
 10
709.716922
 20
729.869987
 30
0.0
 11
709.716923
 21
749.869987
 31
0.0
  0
LINE
  5
2A5
330
28F
100
AcDbEntity
  8
0
  6
Continuous
 62
     0
370
     0
100
AcDbLine
 10
713.50859
 20
744.598956
 30
0.0
 11
713.50859
 21
772.152538
 31
0.0
  0
LINE
  5
2A6
330
28F
100
AcDbEntity
  8
0
  6
Continuous
 62
     0
370
     0
100
AcDbLine
 10
739.225269
 20
758.380891
 30
0.0
 11
713.50859
 21
744.598956
 31
0.0
  0
LINE
  5
2A7
330
28F
100
AcDbEntity
  8
0
  6
Continuous
 62
     0
370
     0
100
AcDbLine
 10
713.50859
 20
772.152538
 30
0.0
 11
739.225269
 21
758.380891
 31
0.0
  0
LINE
  5
2A8
330
28F
100
AcDbEntity
  8
0
  6
Continuous
 62
     0
370
    30
100
AcDbLine
 10
740.716923
 20
758.380397
 30
0.0
 11
740.716922
 21
786.248665
 31
0.0
  0
LINE
  5
2A9
330
28F
100
AcDbEntity
  8
0
  6
Continuous
 62
     0
370
    30
100
AcDbLine
 10
740.716922
 20
730.49131
 30
0.0
 11
740.716923
 21
758.380397
 31
0.0
  0
LINE
  5
2AA
330
28F
100
AcDbEntity
  8
0
  6
Continuous
 62
     0
370
     0
100
AcDbLine
 10
713.9135
 20
773.375587
 30
0.0
 11
739.216923
 21
759.825245
 31
0.0
  0
LINE
  5
2AB
330
28F
100
AcDbEntity
  8
0
  6
Continuous
 62
     0
370
     0
100
AcDbLine
 10
739.216923
 20
759.825245
 30
0.0
 11
739.216922
 21
786.92593
 31
0.0
  0
LINE
  5
2AC
330
28F
100
AcDbEntity
  8
0
  6
Continuous
 62
     0
370
     0
100
AcDbLine
 10
739.216922
 20
786.92593
 30
0.0
 11
713.9135
 21
773.375587
 31
0.0
  0
LINE
  5
2AD
330
28F
100
AcDbEntity
  8
0
  6
Continuous
 62
     0
370
     0
100
AcDbLine
 10
739.225268
 20
787.570885
 30
0.0
 11
713.50859
 21
773.799238
 31
0.0
  0
LINE
  5
2AE
330
28F
100
AcDbEntity
  8
0
  6
Continuous
 62
     0
370
     0
100
AcDbLine
 10
713.50859
 20
742.951025
 30
0.0
 11
739.225268
 21
729.16909
 31
0.0
  0
LINE
  5
2AF
330
28F
100
AcDbEntity
  8
0
  6
Continuous
 62
     0
370
     0
100
AcDbLine
 10
739.216922
 20
729.815124
 30
0.0
 11
739.216923
 21
756.936055
 31
0.0
  0
LINE
  5
2B0
330
28F
100
AcDbEntity
  8
0
  6
Continuous
 62
     0
370
     0
100
AcDbLine
 10
739.216923
 20
756.936055
 30
0.0
 11
713.9135
 21
743.375589
 31
0.0
  0
LINE
  5
2B1
330
28F
100
AcDbEntity
  8
0
  6
Continuous
 62
     0
370
     0
100
AcDbLine
 10
713.9135
 20
743.375589
 30
0.0
 11
739.216922
 21
729.815124
 31
0.0
  0
ARC
  5
2B2
330
28F
100
AcDbEntity
  8
0
  6
Continuous
 62
     0
370
     0
100
AcDbCircle
 10
717.31354
 20
745.172618
 30
0.0
 40
3.847951234059376
100
AcDbArc
 50
188.573752
 51
198.855997
  0
ARC
  5
2B3
330
28F
100
AcDbEntity
  8
0
  6
Continuous
 62
     0
370
     0
100
AcDbCircle
 10
716.977445
 20
745.041496
 30
0.0
 40
3.487549663449971
100
AcDbArc
 50
198.601977
 51
208.533497
  0
ARC
  5
2B4
330
28F
100
AcDbEntity
  8
0
  6
Continuous
 62
     0
370
     0
100
AcDbCircle
 10
748.158125
 20
757.737253
 30
0.0
 40
8.977026530474001
100
AcDbArc
 50
180.874801
 51
185.120451
  0
ARC
  5
2B5
330
28F
100
AcDbEntity
  8
0
  6
Continuous
 62
     0
370
    30
100
AcDbCircle
 10
744.771798
 20
757.68297
 30
0.0
 40
5.590266453517296
100
AcDbArc
 50
172.82815
 51
180.848398
  0
LWPOLYLINE
  5
2B6
330
28F
100
AcDbEntity
  8
0
  6
Continuous
 62
     0
370
    30
100
AcDbPolyline
 90
        3
 70
     0
 43
0.0
 10
739.225281
 20
729.169067
 10
739.201538
 20
729.195129
 10
739.182129
 20
729.361084
  0
LWPOLYLINE
  5
2B7
330
28F
100
AcDbEntity
  8
0
  6
Continuous
 62
     0
370
     0
100
AcDbPolyline
 90
        3
 70
     0
 43
0.0
 10
739.182129
 20
729.361084
 10
739.18634
 20
729.450195
 10
739.216919
 20
729.815125
  0
ARC
  5
2B8
330
28F
100
AcDbEntity
  8
0
  6
Continuous
 62
     0
370
     0
100
AcDbCircle
 10
712.480365
 20
744.126844
 30
0.0
 40
1.618103241209832
100
AcDbArc
 50
317.433874
 51
332.3363
  0
LWPOLYLINE
  5
2B9
330
28F
100
AcDbEntity
  8
0
  6
Continuous
 62
     0
370
     0
100
AcDbPolyline
 90
        3
 70
     0
 43
0.0
 10
713.508606
 20
742.95105
 10
713.542297
 20
742.946411
 10
713.672119
 20
743.032288
  0
LWPOLYLINE
  5
2BA
330
28F
100
AcDbEntity
  8
0
  6
Continuous
 62
     0
370
     0
100
AcDbPolyline
 90
        4
 70
     0
 43
0.0
 10
739.216919
 20
729.815125
 10
739.539307
 20
729.786926
 10
739.846741
 20
729.807129
 10
740.277588
 20
729.933655
  0
LWPOLYLINE
  5
2BB
330
28F
100
AcDbEntity
  8
0
  6
Continuous
 62
     0
370
     0
100
AcDbPolyline
 90
        4
 70
     0
 43
0.0
 10
740.277588
 20
729.933655
 10
740.491028
 20
730.067688
 10
740.637695
 20
730.23114
 10
740.716919
 20
730.491333
  0
LWPOLYLINE
  5
2BC
330
28F
100
AcDbEntity
  8
0
  6
Continuous
 62
     0
370
     0
100
AcDbPolyline
 90
        4
 70
     0
 43
0.0
 10
740.277588
 20
757.43866
 10
740.490967
 20
757.684875
 10
740.637695
 20
757.96051
 10
740.716919
 20
758.380371
  0
LWPOLYLINE
  5
2BD
330
28F
100
AcDbEntity
  8
0
  6
Continuous
 62
     0
370
     0
100
AcDbPolyline
 90
        4
 70
     0
 43
0.0
 10
739.216919
 20
756.936035
 10
739.53894
 20
757.013672
 10
739.84613
 20
757.139648
 10
740.277588
 20
757.43866
  0
ARC
  5
2BE
330
28F
100
AcDbEntity
  8
0
  6
Continuous
 62
     0
370
    30
100
AcDbCircle
 10
714.229595
 20
744.266668
 30
0.0
 40
1.512815283382173
100
AcDbArc
 50
182.408423
 51
210.786713
  0
ARC
  5
2BF
330
28F
100
AcDbEntity
  8
0
  6
Continuous
 62
     0
370
    30
100
AcDbCircle
 10
714.225297
 20
744.281943
 30
0.0
 40
1.511625286812217
100
AcDbArc
 50
211.02853
 51
241.697291
  0
ARC
  5
2C0
330
28F
100
AcDbEntity
  8
0
  6
Continuous
 62
     0
370
    30
100
AcDbCircle
 10
714.228606
 20
744.276536
 30
0.0
 40
1.511686874933378
100
AcDbArc
 50
180.120127
 51
210.78826
  0
ARC
  5
2C1
330
28F
100
AcDbEntity
  8
0
  6
Continuous
 62
     0
370
    30
100
AcDbCircle
 10
714.228172
 20
772.473969
 30
0.0
 40
1.511252338581985
100
AcDbArc
 50
149.207204
 51
179.879772
  0
ARC
  5
2C2
330
28F
100
AcDbEntity
  8
0
  6
Continuous
 62
     0
370
    30
100
AcDbCircle
 10
714.224966
 20
772.468496
 30
0.0
 40
1.511314185738094
100
AcDbArc
 50
118.294824
 51
148.966761
  0
LWPOLYLINE
  5
2C3
330
28F
100
AcDbEntity
  8
0
  6
Continuous
 62
     0
370
     0
100
AcDbPolyline
 90
        3
 70
     0
 43
0.0
 10
739.216919
 20
786.925903
 10
739.2052
 20
787.060486
 10
739.182129
 20
787.379456
  0
LWPOLYLINE
  5
2C4
330
28F
100
AcDbEntity
  8
0
  6
Continuous
 62
     0
370
    30
100
AcDbPolyline
 90
        3
 70
     0
 43
0.0
 10
739.182129
 20
787.379456
 10
739.183228
 20
787.459717
 10
739.225281
 20
787.570862
  0
LWPOLYLINE
  5
2C5
330
28F
100
AcDbEntity
  8
0
  6
Continuous
 62
     0
370
     0
100
AcDbPolyline
 90
        3
 70
     0
 43
0.0
 10
713.508606
 20
773.799255
 10
713.542297
 20
773.804016
 10
713.672119
 20
773.718445
  0
LWPOLYLINE
  5
2C6
330
28F
100
AcDbEntity
  8
0
  6
Continuous
 62
     0
370
     0
100
AcDbPolyline
 90
        3
 70
     0
 43
0.0
 10
713.672119
 20
773.718445
 10
713.728333
 20
773.655762
 10
713.913513
 20
773.37561
  0
ARC
  5
2C7
330
28F
100
AcDbEntity
  8
0
  6
Continuous
 62
     0
370
     0
100
AcDbCircle
 10
716.971749
 20
771.711651
 30
0.0
 40
3.481604769285009
100
AcDbArc
 50
151.450216
 51
161.394858
  0
ARC
  5
2C8
330
28F
100
AcDbEntity
  8
0
  6
Continuous
 62
     0
370
     0
100
AcDbCircle
 10
717.311412
 20
771.579283
 30
0.0
 40
3.845786697730656
100
AcDbArc
 50
161.140349
 51
171.427518
  0
ARC
  5
2C9
330
28F
100
AcDbEntity
  8
0
  6
Continuous
 62
     0
370
    30
100
AcDbCircle
 10
744.770344
 20
759.078717
 30
0.0
 40
5.588811923781671
100
AcDbArc
 50
179.151869
 51
187.17274
  0
ARC
  5
2CA
330
28F
100
AcDbEntity
  8
0
  6
Continuous
 62
     0
370
     0
100
AcDbCircle
 10
748.14633
 20
759.024595
 30
0.0
 40
8.965229505935717
100
AcDbArc
 50
174.876309
 51
179.125383
  0
LWPOLYLINE
  5
2CB
330
28F
100
AcDbEntity
  8
0
  6
Continuous
 62
     0
370
     0
100
AcDbPolyline
 90
        4
 70
     0
 43
0.0
 10
740.716919
 20
786.248657
 10
740.677612
 20
786.43396
 10
740.561707
 20
786.606628
 10
740.277588
 20
786.807068
  0
LWPOLYLINE
  5
2CC
330
28F
100
AcDbEntity
  8
0
  6
Continuous
 62
     0
370
     0
100
AcDbPolyline
 90
        4
 70
     0
 43
0.0
 10
740.277588
 20
786.807068
 10
740.02478
 20
786.897827
 10
739.734131
 20
786.946899
 10
739.216919
 20
786.925903
  0
LWPOLYLINE
  5
2CD
330
28F
100
AcDbEntity
  8
0
  6
Continuous
 62
     0
370
     0
100
AcDbPolyline
 90
        4
 70
     0
 43
0.0
 10
740.277588
 20
759.322571
 10
740.025085
 20
759.519043
 10
739.734802
 20
759.673889
 10
739.216919
 20
759.825256
  0
LWPOLYLINE
  5
2CE
330
28F
100
AcDbEntity
  8
0
  6
Continuous
 62
     0
370
     0
100
AcDbPolyline
 90
        4
 70
     0
 43
0.0
 10
740.716919
 20
758.380371
 10
740.677612
 20
758.677734
 10
740.561768
 20
758.962524
 10
740.277588
 20
759.322571
  0
LWPOLYLINE
  5
2CF
330
28F
100
AcDbEntity
  8
0
  6
Continuous
 62
     0
370
     0
100
AcDbPolyline
 90
        3
 70
     0
 43
0.0
 10
713.508606
 20
772.152527
 10
713.269287
 20
772.210388
 10
712.929993
 20
772.31488
  0
LWPOLYLINE
  5
2D0
330
28F
100
AcDbEntity
  8
0
  6
Continuous
 62
     0
370
     0
100
AcDbPolyline
 90
        3
 70
     0
 43
0.0
 10
712.929993
 20
772.31488
 10
712.794556
 20
772.380188
 10
712.716919
 20
772.477112
  0
LINE
  5
2D1
330
28F
100
AcDbEntity
  8
0
  6
Continuous
 62
     0
370
    30
100
AcDbLine
 10
712.716923
 20
744.273366
 30
0.0
 11
712.716923
 21
772.47714
 31
0.0
  0
LWPOLYLINE
  5
2D2
330
28F
100
AcDbEntity
  8
0
  6
Continuous
 62
     0
370
     0
100
AcDbPolyline
 90
        3
 70
     0
 43
0.0
 10
712.929993
 20
744.436218
 10
712.794556
 20
744.370667
 10
712.716919
 20
744.273376
  0
LWPOLYLINE
  5
2D3
330
28F
100
AcDbEntity
  8
0
  6
Continuous
 62
     0
370
     0
100
AcDbPolyline
 90
        3
 70
     0
 43
0.0
 10
713.508606
 20
744.598938
 10
713.269287
 20
744.541016
 10
712.929993
 20
744.436218
  0
LWPOLYLINE
  5
2D4
330
28F
100
AcDbEntity
  8
0
  6
Continuous
 62
     0
370
     0
100
AcDbPolyline
 90
        3
 70
     0
 43
0.0
 10
740.277588
 20
759.322571
 10
740.188538
 20
758.884705
 10
739.964478
 20
758.380859
  0
LWPOLYLINE
  5
2D5
330
28F
100
AcDbEntity
  8
0
  6
Continuous
 62
     0
370
     0
100
AcDbPolyline
 90
        3
 70
     0
 43
0.0
 10
740.277588
 20
757.43866
 10
740.188538
 20
757.87677
 10
739.964478
 20
758.380859
  0
LWPOLYLINE
  5
2D6
330
28F
100
AcDbEntity
  8
0
  6
Continuous
 62
     0
370
     0
100
AcDbPolyline
 90
        4
 70
     0
 43
0.0
 10
739.182129
 20
759.161438
 10
739.406006
 20
758.965637
 10
739.634949
 20
758.760925
 10
739.964478
 20
758.380859
  0
LWPOLYLINE
  5
2D7
330
28F
100
AcDbEntity
  8
0
  6
Continuous
 62
     0
370
     0
100
AcDbPolyline
 90
        4
 70
     0
 43
0.0
 10
739.182129
 20
757.60022
 10
739.406006
 20
757.796082
 10
739.634888
 20
758.000732
 10
739.964478
 20
758.380859
  0
LWPOLYLINE
  5
2D8
330
28F
100
AcDbEntity
  8
0
  6
Continuous
 62
     0
370
     0
100
AcDbPolyline
 90
        3
 70
     0
 43
0.0
 10
712.929993
 20
743.502747
 10
712.973206
 20
743.515808
 10
713.118103
 20
743.594604
  0
LWPOLYLINE
  5
2D9
330
28F
100
AcDbEntity
  8
0
  6
Continuous
 62
     0
370
     0
100
AcDbPolyline
 90
        3
 70
     0
 43
0.0
 10
712.929993
 20
744.436218
 10
712.963562
 20
744.057678
 10
713.118103
 20
743.594604
  0
LWPOLYLINE
  5
2DA
330
28F
100
AcDbEntity
  8
0
  6
Continuous
 62
     0
370
     0
100
AcDbPolyline
 90
        4
 70
     0
 43
0.0
 10
713.672119
 20
743.032288
 10
713.503906
 20
743.144531
 10
713.351562
 20
743.275024
 10
713.118103
 20
743.594604
  0
ARC
  5
2DB
330
28F
100
AcDbEntity
  8
0
  6
Continuous
 62
     0
370
     0
100
AcDbCircle
 10
710.333092
 20
748.834758
 30
0.0
 40
5.934260085256939
100
AcDbArc
 50
297.989734
 51
304.240314
  0
LWPOLYLINE
  5
2DC
330
28F
100
AcDbEntity
  8
0
  6
Continuous
 62
     0
370
     0
100
AcDbPolyline
 90
        4
 70
     0
 43
0.0
 10
740.277588
 20
729.933655
 10
740.242554
 20
729.698425
 10
740.168335
 20
729.508911
 10
739.964478
 20
729.290771
  0
LWPOLYLINE
  5
2DD
330
28F
100
AcDbEntity
  8
0
  6
Continuous
 62
     0
370
     0
100
AcDbPolyline
 90
        4
 70
     0
 43
0.0
 10
739.182129
 20
729.361084
 10
739.437988
 20
729.236694
 10
739.696594
 20
729.205872
 10
739.964478
 20
729.290771
  0
ARC
  5
2DE
330
28F
100
AcDbEntity
  8
0
  6
Continuous
 62
     0
370
     0
100
AcDbCircle
 10
712.9339
 20
743.498037
 30
0.0
 40
0.0069196344762006
100
AcDbArc
 50
235.367333
 51
293.471886
  0
LWPOLYLINE
  5
2DF
330
28F
100
AcDbEntity
  8
0
  6
Continuous
 62
     0
370
     0
100
AcDbPolyline
 90
        4
 70
     0
 43
0.0
 10
740.277588
 20
786.807068
 10
740.242554
 20
787.042114
 10
740.168335
 20
787.231384
 10
739.964478
 20
787.449219
  0
LWPOLYLINE
  5
2E0
330
28F
100
AcDbEntity
  8
0
  6
Continuous
 62
     0
370
     0
100
AcDbPolyline
 90
        4
 70
     0
 43
0.0
 10
739.182129
 20
787.379456
 10
739.438049
 20
787.503662
 10
739.696594
 20
787.534363
 10
739.964478
 20
787.449219
  0
LWPOLYLINE
  5
2E1
330
28F
100
AcDbEntity
  8
0
  6
Continuous
 62
     0
370
     0
100
AcDbPolyline
 90
        4
 70
     0
 43
0.0
 10
713.672119
 20
773.718445
 10
713.503845
 20
773.606262
 10
713.351562
 20
773.47583
 10
713.118103
 20
773.156372
  0
ARC
  5
2E2
330
28F
100
AcDbEntity
  8
0
  6
Continuous
 62
     0
370
     0
100
AcDbCircle
 10
710.357548
 20
767.950655
 30
0.0
 40
5.89240824255221
100
AcDbArc
 50
55.770361
 51
62.063269
  0
LWPOLYLINE
  5
2E3
330
28F
100
AcDbEntity
  8
0
  6
Continuous
 62
     0
370
     0
100
AcDbPolyline
 90
        3
 70
     0
 43
0.0
 10
712.929993
 20
772.31488
 10
712.963562
 20
772.69342
 10
713.118103
 20
773.156372
  0
LWPOLYLINE
  5
2E4
330
28F
100
AcDbEntity
  8
0
  6
Continuous
 62
     0
370
     0
100
AcDbPolyline
 90
        3
 70
     0
 43
0.0
 10
712.929993
 20
773.24762
 10
712.973206
 20
773.234924
 10
713.118103
 20
773.156372
  0
LWPOLYLINE
  5
2E5
330
28F
100
AcDbEntity
  8
0
  6
Continuous
 62
     0
370
     0
100
AcDbPolyline
 90
       12
 70
     0
 43
0.0
 10
712.216919
 20
765.119995
 10
712.216919
 20
765.052307
 10
712.216919
 20
764.851135
 10
712.216919
 20
764.520264
 10
712.216919
 20
764.065491
 10
712.216919
 20
763.49707
 10
712.216919
 20
762.825806
 10
712.216919
 20
762.064941
 10
712.216919
 20
761.230347
 10
712.216919
 20
760.338257
 10
712.216919
 20
759.406677
 10
712.216919
 20
758.372498
  0
LINE
  5
2E6
330
28F
100
AcDbEntity
  8
0
  6
Continuous
 62
     0
370
     0
100
AcDbLine
 10
712.216922
 20
758.372516
 30
0.0
 11
712.216922
 21
751.619988
 31
0.0
  0
LINE
  5
2E7
330
28F
100
AcDbEntity
  8
0
  6
Continuous
 62
     0
370
    30
100
AcDbLine
 10
709.716922
 20
765.119987
 30
0.0
 11
712.216922
 21
765.119987
 31
0.0
  0
LINE
  5
2E8
330
28F
100
AcDbEntity
  8
0
  6
Continuous
 62
     0
370
    30
100
AcDbLine
 10
709.716922
 20
751.619987
 30
0.0
 11
712.216922
 21
751.619987
 31
0.0
  0
ARC
  5
2E9
330
28F
100
AcDbEntity
  8
0
  6
Continuous
 62
     0
370
    30
100
AcDbCircle
 10
712.216918
 20
751.119984
 30
0.0
 40
0.5000034430905196
100
AcDbArc
 50
0.00785
 51
89.999605
  0
ARC
  5
2EA
330
28F
100
AcDbEntity
  8
0
  6
Continuous
 62
     0
370
    30
100
AcDbCircle
 10
712.216916
 20
765.619986
 30
0.0
 40
0.500005973411203
100
AcDbArc
 50
270.000684
 51
359.999861
  0
LINE
  5
2EB
330
28F
100
AcDbEntity
  8
0
  6
Continuous
 62
     0
370
    30
100
AcDbLine
 10
712.929107
 20
773.246159
 30
0.0
 11
712.90088
 21
773.196861
 31
0.0
  0
LINE
  5
2EC
330
28F
100
AcDbEntity
  8
0
  6
Continuous
 62
     0
370
    30
100
AcDbLine
 10
739.224717
 20
787.570586
 30
0.0
 11
739.223139
 21
787.569768
 31
0.0
  0
LWPOLYLINE
  5
2ED
330
28F
100
AcDbEntity
  8
0
  6
Continuous
 62
     0
370
    30
100
AcDbPolyline
 90
        6
 70
     0
 43
0.0
 10
739.963684
 20
787.449768
 10
739.827637
 20
787.518494
 10
739.680115
 20
787.558838
 10
739.528381
 20
787.576599
 10
739.375549
 20
787.578979
 10
739.216919
 20
787.565247
  0
LWPOLYLINE
  5
2EE
330
28F
100
AcDbEntity
  8
0
  6
Continuous
 62
     0
370
    30
100
AcDbPolyline
 90
        5
 70
     0
 43
0.0
 10
740.716919
 20
786.248657
 10
740.661316
 20
786.594666
 10
740.50824
 20
786.910706
 10
740.288879
 20
787.185181
 10
739.9646
 20
787.449158
  0
LINE
  5
2EF
330
28F
100
AcDbEntity
  8
0
  6
Continuous
 62
     0
370
    30
100
AcDbLine
 10
712.929106
 20
743.493815
 30
0.0
 11
712.900878
 21
743.543114
 31
0.0
  0
LWPOLYLINE
  5
2F0
330
28F
100
AcDbEntity
  8
0
  6
Continuous
 62
     0
370
    30
100
AcDbPolyline
 90
        6
 70
     0
 43
0.0
 10
739.963684
 20
729.290222
 10
739.827698
 20
729.221497
 10
739.680298
 20
729.181152
 10
739.528625
 20
729.163391
 10
739.375854
 20
729.16095
 10
739.21698
 20
729.174744
  0
LWPOLYLINE
  5
2F1
330
28F
100
AcDbEntity
  8
0
  6
Continuous
 62
     0
370
    30
100
AcDbPolyline
 90
        5
 70
     0
 43
0.0
 10
740.716919
 20
730.491333
 10
740.661316
 20
730.145325
 10
740.50824
 20
729.829285
 10
740.288879
 20
729.554749
 10
739.9646
 20
729.290833
  0
ARC
  5
2F2
330
28F
100
AcDbEntity
  8
0
  6
Continuous
 62
     0
370
    30
100
AcDbCircle
 10
737.331177
 20
758.380587
 30
0.0
 40
1.882596983016803
100
AcDbArc
 50
354.55608
 51
4.094517
  0
LINE
  5
2F3
330
28F
100
AcDbEntity
  8
0
  6
Continuous
 62
     0
370
    30
100
AcDbLine
 10
713.50968
 20
773.88788
 30
0.0
 11
713.508583
 21
773.887281
 31
0.0
  0
LINE
  5
2F4
330
28F
100
AcDbEntity
  8
0
  6
Continuous
 62
     0
370
    30
100
AcDbLine
 10
739.223658
 20
729.170592
 30
0.0
 11
739.221724
 21
729.171606
 31
0.0
  0
LINE
  5
2F5
330
28F
100
AcDbEntity
  8
0
  6
Continuous
 62
     0
370
    30
100
AcDbLine
 10
712.717118
 20
744.154003
 30
0.0
 11
712.718644
 21
744.10034
 31
0.0
  0
ARC
  5
2F6
330
28F
100
AcDbEntity
  8
0
  6
Continuous
 62
     0
370
    30
100
AcDbCircle
 10
714.211052
 20
744.171982
 30
0.0
 40
1.494042936162749
100
AcDbArc
 50
180.687225
 51
210.974887
  0
LINE
  5
2F7
330
28F
100
AcDbEntity
  8
0
  6
Continuous
 62
     0
370
    30
100
AcDbLine
 10
739.219337
 20
729.172875
 30
0.0
 11
739.223729
 21
729.170539
 31
0.0
  0
LINE
  5
2F8
330
28F
100
AcDbEntity
  8
0
  6
Continuous
 62
     0
370
    30
100
AcDbLine
 10
713.510102
 20
742.851868
 30
0.0
 11
739.213301
 21
729.176087
 31
0.0
  0
LINE
  5
2F9
330
28F
100
AcDbEntity
  8
0
  6
Continuous
 62
     0
370
    30
100
AcDbLine
 10
756.852631
 20
563.406464
 30
0.0
 11
781.852631
 21
563.406464
 31
0.0
  0
LINE
  5
2FA
330
28F
100
AcDbEntity
  8
0
  6
Continuous
 62
     0
370
    30
100
AcDbLine
 10
781.852631
 20
574.406464
 30
0.0
 11
781.852631
 21
563.406464
 31
0.0
  0
LINE
  5
2FB
330
28F
100
AcDbEntity
  8
0
  6
Continuous
 62
     0
370
    30
100
AcDbLine
 10
756.852631
 20
574.406464
 30
0.0
 11
781.852631
 21
574.406464
 31
0.0
  0
LINE
  5
2FC
330
28F
100
AcDbEntity
  8
0
  6
Continuous
 62
     0
370
    30
100
AcDbLine
 10
756.852631
 20
563.406464
 30
0.0
 11
756.852631
 21
574.406464
 31
0.0
  0
LWPOLYLINE
  5
2FD
330
28F
100
AcDbEntity
  8
0
  6
Continuous
 62
     0
370
    30
100
AcDbPolyline
 90
       15
 70
     0
 43
0.0
 10
785.295105
 20
547.528503
 10
785.296082
 20
547.980408
 10
785.296875
 20
548.431702
 10
785.297546
 20
548.881409
 10
785.298035
 20
549.328674
 10
785.298279
 20
549.772522
 10
785.298401
 20
550.211426
 10
785.298218
 20
550.643799
 10
785.297546
 20
551.067322
 10
785.296814
 20
551.477234
 10
785.295959
 20
551.867737
 10
785.293457
 20
552.229309
 10
785.292236
 20
552.541382
 10
785.28772
 20
552.774658
 10
785.285828
 20
552.871033
  0
LWPOLYLINE
  5
2FE
330
28F
100
AcDbEntity
  8
0
  6
Continuous
 62
     0
370
    30
100
AcDbPolyline
 90
       17
 70
     0
 43
0.0
 10
785.25354
 20
542.282043
 10
785.262207
 20
542.319458
 10
785.263794
 20
542.483521
 10
785.267395
 20
542.723999
 10
785.271545
 20
543.014343
 10
785.274414
 20
543.338074
 10
785.277527
 20
543.682129
 10
785.28009
 20
544.040771
 10
785.282593
 20
544.409668
 10
785.284729
 20
544.786133
 10
785.286621
 20
545.168335
 10
785.288391
 20
545.554565
 10
785.290039
 20
545.943909
 10
785.291504
 20
546.33551
 10
785.292847
 20
546.728821
 10
785.294006
 20
547.123108
 10
785.295105
 20
547.528503
  0
ARC
  5
2FF
330
28F
100
AcDbEntity
  8
0
  6
Continuous
 62
     0
370
     0
100
AcDbCircle
 10
-195004.330868
 20
42512.891582
 30
0.0
 40
200295.7621508159
100
AcDbArc
 50
347.899852
 51
347.920796
  0
LINE
  5
300
330
28F
100
AcDbEntity
  8
0
  6
Continuous
 62
     0
370
    30
100
AcDbLine
 10
841.399429
 20
526.676464
 30
0.0
 11
841.84554
 21
526.676381
 31
0.0
  0
LWPOLYLINE
  5
301
330
28F
100
AcDbEntity
  8
0
  6
Continuous
 62
     0
370
    30
100
AcDbPolyline
 90
       24
 70
     0
 43
0.0
 10
857.112549
 20
598.187866
 10
857.096802
 20
598.109741
 10
857.080994
 20
598.031677
 10
857.065247
 20
597.953674
 10
857.0495
 20
597.875732
 10
857.033752
 20
597.797852
 10
857.018005
 20
597.71991
 10
857.00238
 20
597.642517
 10
856.986816
 20
597.565308
 10
856.97113
 20
597.487732
 10
856.955444
 20
597.410706
 10
856.938477
 20
597.326538
 10
856.938049
 20
597.325195
 10
856.954773
 20
597.408875
 10
856.970398
 20
597.486206
 10
856.986023
 20
597.563782
 10
857.001526
 20
597.640991
 10
857.01709
 20
597.718445
 10
857.032837
 20
597.796326
 10
857.048523
 20
597.874268
 10
857.064209
 20
597.952148
 10
857.079956
 20
598.030212
 10
857.095703
 20
598.108276
 10
857.111816
 20
598.188354
  0
LINE
  5
302
330
28F
100
AcDbEntity
  8
0
  6
Continuous
 62
     0
370
     0
100
AcDbLine
 10
857.111802
 20
598.188359
 30
0.0
 11
856.734232
 21
598.269866
 31
0.0
  0
LINE
  5
303
330
28F
100
AcDbEntity
  8
0
  6
Continuous
 62
     0
370
     0
100
AcDbLine
 10
808.34041
 20
526.676464
 30
0.0
 11
826.636072
 21
618.554585
 31
0.0
  0
LINE
  5
304
330
28F
100
AcDbEntity
  8
0
  6
Continuous
 62
     0
370
    30
100
AcDbLine
 10
809.75561
 20
526.676464
 30
0.0
 11
808.34041
 21
526.676464
 31
0.0
  0
LINE
  5
305
330
28F
100
AcDbEntity
  8
0
  6
Continuous
 62
     0
370
     0
100
AcDbLine
 10
827.880159
 20
617.57222
 30
0.0
 11
809.75561
 21
526.676464
 31
0.0
  0
LWPOLYLINE
  5
306
330
28F
100
AcDbEntity
  8
0
  6
Continuous
 62
     0
370
     0
100
AcDbPolyline
 90
        3
 70
     0
 43
0.0
 10
827.314148
 20
618.044312
 10
827.480713
 20
617.915649
 10
827.880188
 20
617.572205
  0
LWPOLYLINE
  5
307
330
28F
100
AcDbEntity
  8
0
  6
Continuous
 62
     0
370
     0
100
AcDbPolyline
 90
        2
 70
     0
 43
0.0
 10
826.636047
 20
618.554565
 10
827.314148
 20
618.044312
  0
LINE
  5
308
330
28F
100
AcDbEntity
  8
0
  6
Continuous
 62
     0
370
    30
100
AcDbLine
 10
785.528254
 20
526.676464
 30
0.0
 11
785.542372
 21
646.521275
 31
0.0
  0
LINE
  5
309
330
28F
100
AcDbEntity
  8
0
  6
Continuous
 62
     0
370
    30
100
AcDbLine
 10
786.700322
 20
526.676464
 30
0.0
 11
785.528254
 21
526.676464
 31
0.0
  0
LINE
  5
30A
330
28F
100
AcDbEntity
  8
0
  6
Continuous
 62
     0
370
     0
100
AcDbLine
 10
786.721088
 20
646.672218
 30
0.0
 11
786.700322
 21
526.676464
 31
0.0
  0
LINE
  5
30B
330
28F
100
AcDbEntity
  8
0
  6
Continuous
 62
     0
370
    30
100
AcDbLine
 10
785.855331
 20
646.672218
 30
0.0
 11
786.721088
 21
646.672218
 31
0.0
  0
LWPOLYLINE
  5
30C
330
28F
100
AcDbEntity
  8
0
  6
Continuous
 62
     0
370
     0
100
AcDbPolyline
 90
        4
 70
     0
 43
0.0
 10
785.542358
 20
646.521301
 10
785.563171
 20
646.559509
 10
785.624695
 20
646.597656
 10
785.855347
 20
646.672241
  0
LINE
  5
30D
330
28F
100
AcDbEntity
  8
0
  6
Continuous
 62
     0
370
    30
100
AcDbLine
 10
842.96181
 20
646.681922
 30
0.0
 11
842.957117
 21
646.672443
 31
0.0
  0
LINE
  5
30E
330
28F
100
AcDbEntity
  8
0
  6
Continuous
 62
     0
370
     0
100
AcDbLine
 10
842.204804
 20
646.672218
 30
0.0
 11
863.6442
 21
638.73256
 31
0.0
  0
ARC
  5
30F
330
28F
100
AcDbEntity
  8
0
  6
Continuous
 62
     0
370
     0
100
AcDbCircle
 10
868.488926
 20
634.464341
 30
0.0
 40
6.456700046707708
100
AcDbArc
 50
135.932269
 51
138.619843
  0
LINE
  5
310
330
28F
100
AcDbEntity
  8
0
  6
Continuous
 62
     0
370
    30
100
AcDbLine
 10
863.84967
 20
638.955029
 30
0.0
 11
842.97064
 21
646.678417
 31
0.0
  0
LINE
  5
311
330
28F
100
AcDbEntity
  8
0
  6
Continuous
 62
     0
370
    30
100
AcDbLine
 10
842.97064
 20
646.678417
 30
0.0
 11
842.967564
 21
646.672218
 31
0.0
  0
LINE
  5
312
330
28F
100
AcDbEntity
  8
0
  6
Continuous
 62
     0
370
    30
100
AcDbLine
 10
842.967564
 20
646.672218
 30
0.0
 11
842.204804
 21
646.672218
 31
0.0
  0
LINE
  5
313
330
28F
100
AcDbEntity
  8
0
  6
Continuous
 62
     0
370
     0
100
AcDbLine
 10
785.54212
 20
646.542247
 30
0.0
 11
785.540558
 21
646.672218
 31
0.0
  0
LWPOLYLINE
  5
314
330
28F
100
AcDbEntity
  8
0
  6
Continuous
 62
     0
370
    30
100
AcDbPolyline
 90
        7
 70
     0
 43
0.0
 10
785.212769
 20
526.677551
 10
785.264038
 20
526.676514
 10
785.31665
 20
526.676514
 10
785.369263
 20
526.676453
 10
785.421875
 20
526.676453
 10
785.474548
 20
526.676453
 10
785.528259
 20
526.676453
  0
LINE
  5
315
330
28F
100
AcDbEntity
  8
0
  6
Continuous
 62
     0
370
    30
100
AcDbLine
 10
841.399429
 20
526.676464
 30
0.0
 11
809.755608
 21
526.676464
 31
0.0
  0
LINE
  5
316
330
28F
100
AcDbEntity
  8
0
  6
Continuous
 62
     0
370
     0
100
AcDbLine
 10
827.880169
 20
617.572218
 30
0.0
 11
856.734232
 21
598.269866
 31
0.0
  0
LINE
  5
317
330
28F
100
AcDbEntity
  8
0
  6
Continuous
 62
     0
370
    30
100
AcDbLine
 10
808.34041
 20
526.676464
 30
0.0
 11
786.700322
 21
526.676464
 31
0.0
  0
LINE
  5
318
330
28F
100
AcDbEntity
  8
0
  6
Continuous
 62
     0
370
     0
100
AcDbLine
 10
786.946902
 20
646.672218
 30
0.0
 11
826.636072
 21
618.554585
 31
0.0
  0
LINE
  5
319
330
28F
100
AcDbEntity
  8
0
  6
Continuous
 62
     0
370
    30
100
AcDbLine
 10
786.721088
 20
646.672218
 30
0.0
 11
786.946902
 21
646.672218
 31
0.0
  0
LINE
  5
31A
330
28F
100
AcDbEntity
  8
0
  6
Continuous
 62
     0
370
     0
100
AcDbLine
 10
857.123519
 20
598.956412
 30
0.0
 11
828.39764
 21
618.140273
 31
0.0
  0
LINE
  5
31B
330
28F
100
AcDbEntity
  8
0
  6
Continuous
 62
     0
370
     0
100
AcDbLine
 10
864.974759
 20
637.521486
 30
0.0
 11
857.123519
 21
598.956412
 31
0.0
  0
LINE
  5
31C
330
28F
100
AcDbEntity
  8
0
  6
Continuous
 62
     0
370
    30
100
AcDbLine
 10
865.031187
 20
637.79866
 30
0.0
 11
864.974759
 21
637.521486
 31
0.0
  0
LINE
  5
31D
330
28F
100
AcDbEntity
  8
0
  6
Continuous
 62
     0
370
     0
100
AcDbLine
 10
828.39764
 20
618.140273
 30
0.0
 11
865.031179
 21
637.798684
 31
0.0
  0
LINE
  5
31E
330
28F
100
AcDbEntity
  8
0
  6
Continuous
 62
     0
370
    30
100
AcDbLine
 10
787.894164
 20
646.672218
 30
0.0
 11
842.204804
 21
646.672243
 31
0.0
  0
LINE
  5
31F
330
28F
100
AcDbEntity
  8
0
  6
Continuous
 62
     0
370
     0
100
AcDbLine
 10
826.917426
 20
619.024188
 30
0.0
 11
787.894164
 21
646.672218
 31
0.0
  0
LINE
  5
320
330
28F
100
AcDbEntity
  8
0
  6
Continuous
 62
     0
370
     0
100
AcDbLine
 10
863.644192
 20
638.732661
 30
0.0
 11
826.917426
 21
619.024188
 31
0.0
  0
LINE
  5
321
330
28F
100
AcDbEntity
  8
0
  6
Continuous
 62
     0
370
    30
100
AcDbLine
 10
786.946902
 20
646.672218
 30
0.0
 11
787.894163
 21
646.672216
 31
0.0
  0
ARC
  5
322
330
28F
100
AcDbEntity
  8
0
  6
Continuous
 62
     0
370
     0
100
AcDbCircle
 10
834.039213
 20
614.433459
 30
0.0
 40
8.472907783719677
100
AcDbArc
 50
149.03275
 51
150.896507
  0
ARC
  5
323
330
28F
100
AcDbEntity
  8
0
  6
Continuous
 62
     0
370
     0
100
AcDbCircle
 10
834.43247
 20
614.199007
 30
0.0
 40
8.930747436073244
100
AcDbArc
 50
147.29672
 51
149.041196
  0
LWPOLYLINE
  5
324
330
28F
100
AcDbEntity
  8
0
  6
Continuous
 62
     0
370
     0
100
AcDbPolyline
 90
        3
 70
     0
 43
0.0
 10
865.031189
 20
637.798645
 10
864.858276
 20
637.90686
 10
864.390747
 20
638.229187
  0
ARC
  5
325
330
28F
100
AcDbEntity
  8
0
  6
Continuous
 62
     0
370
     0
100
AcDbCircle
 10
855.596041
 20
625.994001
 30
0.0
 40
15.06805242413152
100
AcDbArc
 50
54.291277
 51
57.715736
  0
ARC
  5
326
330
28F
100
AcDbEntity
  8
0
  6
Continuous
 62
     0
370
     0
100
AcDbCircle
 10
818.826749
 20
604.714745
 30
0.0
 40
16.43833876382175
100
AcDbArc
 50
57.286877
 51
60.515811
  0
LWPOLYLINE
  5
327
330
28F
100
AcDbEntity
  8
0
  6
Continuous
 62
     0
370
     0
100
AcDbPolyline
 90
        3
 70
     0
 43
0.0
 10
827.710571
 20
618.545776
 10
827.927063
 20
618.410583
 10
828.397644
 20
618.140259
  0
LINE
  5
328
330
28F
100
AcDbEntity
  8
0
  6
Continuous
 62
     0
370
    30
100
AcDbLine
 10
785.542381
 20
646.526313
 30
0.0
 11
785.542372
 21
646.521275
 31
0.0
  0
LINE
  5
329
330
28F
100
AcDbEntity
  8
0
  6
Continuous
 62
     0
370
    30
100
AcDbLine
 10
785.54513
 20
646.611947
 30
0.0
 11
785.54251
 21
646.541427
 31
0.0
  0
LINE
  5
32A
330
28F
100
AcDbEntity
  8
0
  6
Continuous
 62
     0
370
    30
100
AcDbLine
 10
785.550014
 20
646.672218
 30
0.0
 11
785.545775
 21
646.622009
 31
0.0
  0
LINE
  5
32B
330
28F
100
AcDbEntity
  8
0
  6
Continuous
 62
     0
370
    30
100
AcDbLine
 10
860.334175
 20
614.009588
 30
0.0
 11
857.275078
 21
598.983377
 31
0.0
  0
LINE
  5
32C
330
28F
100
AcDbEntity
  8
0
  6
Continuous
 62
     0
370
    30
100
AcDbLine
 10
861.302382
 20
618.765403
 30
0.0
 11
860.84556
 21
616.521503
 31
0.0
  0
LINE
  5
32D
330
28F
100
AcDbEntity
  8
0
  6
Continuous
 62
     0
370
    30
100
AcDbLine
 10
865.167822
 20
637.752354
 30
0.0
 11
863.154439
 21
627.862663
 31
0.0
  0
ARC
  5
32E
330
28F
100
AcDbEntity
  8
0
  6
Continuous
 62
     0
370
     0
100
AcDbCircle
 10
858.731356
 20
597.591183
 30
0.0
 40
2.109293010674143
100
AcDbArc
 50
150.387457
 51
161.230702
  0
ARC
  5
32F
330
28F
100
AcDbEntity
  8
0
  6
Continuous
 62
     0
370
     0
100
AcDbCircle
 10
858.715865
 20
597.601827
 30
0.0
 40
2.090565813384354
100
AcDbArc
 50
139.612676
 51
150.431275
  0
ARC
  5
330
330
28F
100
AcDbEntity
  8
0
  6
Continuous
 62
     0
370
     0
100
AcDbCircle
 10
829.729031
 20
616.405277
 30
0.0
 40
2.186963941247837
100
AcDbArc
 50
127.501704
 51
137.757522
  0
ARC
  5
331
330
28F
100
AcDbEntity
  8
0
  6
Continuous
 62
     0
370
     0
100
AcDbCircle
 10
829.68559
 20
616.442766
 30
0.0
 40
2.12960203101542
100
AcDbArc
 50
137.718473
 51
147.970337
  0
ARC
  5
332
330
28F
100
AcDbEntity
  8
0
  6
Continuous
 62
     0
370
     0
100
AcDbCircle
 10
856.926251
 20
600.666024
 30
0.0
 40
1.720955103481017
100
AcDbArc
 50
276.582413
 51
281.505239
  0
LINE
  5
333
330
28F
100
AcDbEntity
  8
0
  6
Continuous
 62
     0
370
    30
100
AcDbLine
 10
864.974759
 20
637.521486
 30
0.0
 11
857.269508
 21
598.979649
 31
0.0
  0
ARC
  5
334
330
28F
100
AcDbEntity
  8
0
  6
Continuous
 62
     0
370
     0
100
AcDbCircle
 10
802.972812
 20
582.422428
 30
0.0
 40
43.46031949659248
100
AcDbArc
 50
54.662323
 51
55.671999
  0
LWPOLYLINE
  5
335
330
28F
100
AcDbEntity
  8
0
  6
Continuous
 62
     0
370
     0
100
AcDbPolyline
 90
        3
 70
     0
 43
0.0
 10
827.481384
 20
618.312927
 10
827.442017
 20
618.25647
 10
827.314148
 20
618.044312
  0
LWPOLYLINE
  5
336
330
28F
100
AcDbEntity
  8
0
  6
Continuous
 62
     0
370
     0
100
AcDbPolyline
 90
        2
 70
     0
 43
0.0
 10
827.710571
 20
618.545776
 10
827.481384
 20
618.312927
  0
ARC
  5
337
330
28F
100
AcDbEntity
  8
0
  6
Continuous
 62
     0
370
     0
100
AcDbCircle
 10
814.466195
 20
599.903102
 30
0.0
 40
22.54589779482473
100
AcDbArc
 50
54.740896
 51
56.913753
  0
LINE
  5
338
330
28F
100
AcDbEntity
  8
0
  6
Continuous
 62
     0
370
    30
100
AcDbLine
 10
785.855329
 20
646.672218
 30
0.0
 11
785.550014
 21
646.672218
 31
0.0
  0
LWPOLYLINE
  5
339
330
28F
100
AcDbEntity
  8
0
  6
Continuous
 62
     0
370
    30
100
AcDbPolyline
 90
        4
 70
     0
 43
0.0
 10
865.031189
 20
637.798706
 10
865.071838
 20
638.005981
 10
865.116516
 20
638.227905
 10
865.165161
 20
638.468445
  0
LINE
  5
33A
330
28F
100
AcDbEntity
  8
0
  6
Continuous
 62
     0
370
    30
100
AcDbLine
 10
865.165148
 20
638.468416
 30
0.0
 11
865.010621
 21
638.52558
 31
0.0
  0
ARC
  5
33B
330
28F
100
AcDbEntity
  8
0
  6
Continuous
 62
     0
370
     0
100
AcDbCircle
 10
862.682046
 20
642.599105
 30
0.0
 40
4.692106442832769
100
AcDbArc
 50
291.356029
 51
299.753853
  0
LINE
  5
33C
330
28F
100
AcDbEntity
  8
0
  6
Continuous
 62
     0
370
    30
100
AcDbLine
 10
865.010621
 20
638.525581
 30
0.0
 11
863.849691
 21
638.955096
 31
0.0
  0
LINE
  5
33D
330
28F
100
AcDbEntity
  8
0
  6
Continuous
 62
     0
370
    30
100
AcDbLine
 10
865.167824
 20
637.752352
 30
0.0
 11
865.302339
 21
638.417671
 31
0.0
  0
LINE
  5
33E
330
28F
100
AcDbEntity
  8
0
  6
Continuous
 62
     0
370
    30
100
AcDbLine
 10
857.189019
 20
598.576524
 30
0.0
 11
857.111834
 21
598.188352
 31
0.0
  0
ARC
  5
33F
330
28F
100
AcDbEntity
  8
0
  6
Continuous
 62
     0
370
     0
100
AcDbCircle
 10
857.893947
 20
602.96002
 30
0.0
 40
4.439815453509507
100
AcDbArc
 50
257.031237
 51
260.864242
  0
LINE
  5
340
330
28F
100
AcDbEntity
  8
0
  6
Continuous
 62
     0
370
    30
100
AcDbLine
 10
857.269508
 20
598.979649
 30
0.0
 11
857.189016
 21
598.576526
 31
0.0
  0
LINE
  5
341
330
28F
100
AcDbEntity
  8
0
  6
Continuous
 62
     0
370
    30
100
AcDbLine
 10
857.192127
 20
598.576461
 30
0.0
 11
857.275076
 21
598.98338
 31
0.0
  0
LINE
  5
342
330
28F
100
AcDbEntity
  8
0
  6
Continuous
 62
     0
370
    30
100
AcDbLine
 10
857.112593
 20
598.187857
 30
0.0
 11
857.192126
 21
598.576461
 31
0.0
  0
LINE
  5
343
330
28F
100
AcDbEntity
  8
0
  6
Continuous
 62
     0
370
    30
100
AcDbLine
 10
842.961778
 20
646.681694
 30
0.0
 11
842.970638
 21
646.678417
 31
0.0
  0
LINE
  5
344
330
28F
100
AcDbEntity
  8
0
  6
Continuous
 62
     0
370
    30
100
AcDbLine
 10
865.302222
 20
638.417713
 30
0.0
 11
865.165149
 21
638.468419
 31
0.0
  0
LWPOLYLINE
  5
345
330
28F
100
AcDbEntity
  8
0
  6
Continuous
 62
     0
370
    30
100
AcDbPolyline
 90
       29
 70
     0
 43
0.0
 10
859.760681
 20
611.315125
 10
859.770935
 20
611.381531
 10
859.808716
 20
611.584534
 10
859.876221
 20
611.934998
 10
859.974792
 20
612.43927
 10
860.104614
 20
613.098083
 10
860.264648
 20
613.905762
 10
860.452454
 20
614.849915
 10
860.664429
 20
615.912354
 10
860.895935
 20
617.069824
 10
861.141663
 20
618.295776
 10
861.395935
 20
619.5625
 10
861.653381
 20
620.842773
 10
861.908875
 20
622.111572
 10
862.15802
 20
623.347229
 10
862.407349
 20
624.582458
 10
862.663635
 20
625.85022
 10
862.922485
 20
627.128967
 10
863.178894
 20
628.393555
 10
863.427368
 20
629.616882
 10
863.662292
 20
630.771118
 10
863.878235
 20
631.829834
 10
864.070557
 20
632.769836
 10
864.235474
 20
633.572937
 10
864.370544
 20
634.22699
 10
864.474426
 20
634.726257
 10
864.547363
 20
635.071655
 10
864.590454
 20
635.269653
 10
864.606018
 20
635.331177
  0
LWPOLYLINE
  5
346
330
28F
100
AcDbEntity
  8
0
  6
Continuous
 62
     0
370
    30
100
AcDbPolyline
 90
        8
 70
     0
 43
0.0
 10
860.324463
 20
614.014832
 10
860.177124
 20
613.296692
 10
860.051453
 20
612.686584
 10
859.948486
 20
612.189697
 10
859.868591
 20
611.807434
 10
859.811462
 20
611.538025
 10
859.776184
 20
611.376587
 10
859.760681
 20
611.315125
  0
LINE
  5
347
330
28F
100
AcDbEntity
  8
0
  6
Continuous
 62
     0
370
    30
100
AcDbLine
 10
861.292166
 20
618.767464
 30
0.0
 11
860.830158
 21
616.492833
 31
0.0
  0
LWPOLYLINE
  5
348
330
28F
100
AcDbEntity
  8
0
  6
Continuous
 62
     0
370
    30
100
AcDbPolyline
 90
       12
 70
     0
 43
0.0
 10
864.606018
 20
635.331177
 10
864.597107
 20
635.272644
 10
864.564209
 20
635.094727
 10
864.505371
 20
634.788025
 10
864.419312
 20
634.34668
 10
864.305664
 20
633.768982
 10
864.165039
 20
633.058105
 10
863.999023
 20
632.222351
 10
863.810242
 20
631.274902
 10
863.602112
 20
630.233276
 10
863.378906
 20
629.118042
 10
863.128174
 20
627.867981
  0
ELLIPSE
  5
349
330
28F
100
AcDbEntity
  8
0
  6
Continuous
 62
     0
370
    30
100
AcDbEllipse
 10
880.876902
 20
615.689189
 30
0.0
 11
-6.136815743858061
 21
-11.3467833559091
 31
0.0
210
0.0
220
0.0
230
-1.0
 40
0.002207
 41
2.52348244188593
 42
3.517353038278338
  0
ELLIPSE
  5
34A
330
28F
100
AcDbEntity
  8
0
  6
Continuous
 62
     0
370
    30
100
AcDbEllipse
 10
880.876902
 20
615.689189
 30
0.0
 11
-6.136815743858061
 21
-11.3467833559091
 31
0.0
210
0.0
220
0.0
230
-1.0
 40
0.002207
 41
5.907424964080187
 42
8.806667749065516
  0
ELLIPSE
  5
34B
330
28F
100
AcDbEntity
  8
0
  6
Continuous
 62
     0
370
    30
100
AcDbEllipse
 10
874.323931
 20
619.23331
 30
0.0
 11
6.136815743858061
 21
11.3467833559091
 31
0.0
210
0.0
220
0.0
230
1.0
 40
0.002207
 41
0.618110211703863
 42
1.813156272274338
  0
LINE
  5
34C
330
28F
100
AcDbEntity
  8
0
  6
Continuous
 62
     0
370
    30
100
AcDbLine
 10
872.826823
 20
616.523294
 30
0.0
 11
875.465604
 21
615.096131
 31
0.0
  0
ELLIPSE
  5
34D
330
28F
100
AcDbEntity
  8
0
  6
Continuous
 62
     0
370
    30
100
AcDbEllipse
 10
876.962711
 20
617.806147
 30
0.0
 11
6.136815743858061
 21
11.3467833559091
 31
0.0
210
0.0
220
0.0
230
1.0
 40
0.002207
 41
1.813156272274258
 42
2.56465680472297
  0
LINE
  5
34E
330
28F
100
AcDbEntity
  8
0
  6
Continuous
 62
     0
370
    30
100
AcDbLine
 10
871.805556
 20
608.303364
 30
0.0
 11
869.166775
 21
609.730527
 31
0.0
  0
ELLIPSE
  5
34F
330
28F
100
AcDbEntity
  8
0
  6
Continuous
 62
     0
370
    30
100
AcDbEllipse
 10
874.323931
 20
619.23331
 30
0.0
 11
6.136815743858061
 21
11.3467833559091
 31
0.0
210
0.0
220
0.0
230
1.0
 40
0.002207
 41
2.564656804722918
 42
3.141592632795298
  0
ELLIPSE
  5
350
330
28F
100
AcDbEntity
  8
0
  6
Continuous
 62
     0
370
    30
100
AcDbEllipse
 10
874.323931
 20
619.23331
 30
0.0
 11
6.136815743858061
 21
11.3467833559091
 31
0.0
210
0.0
220
0.0
230
1.0
 40
0.002207
 41
6.283185286384842
 42
6.901295518883297
  0
ELLIPSE
  5
351
330
28F
100
AcDbEntity
  8
0
  6
Continuous
 62
     0
370
    30
100
AcDbEllipse
 10
872.872602
 20
620.01825
 30
0.0
 11
-5.351874195225053
 21
-9.895450601083521
 31
0.0
210
0.0
220
0.0
230
-1.0
 40
0.002207
 41
2.523482441885961
 42
3.141592674384428
  0
ELLIPSE
  5
352
330
28F
100
AcDbEntity
  8
0
  6
Continuous
 62
     0
370
    30
100
AcDbEllipse
 10
872.872602
 20
620.01825
 30
0.0
 11
-5.351874195225053
 21
-9.895450601083521
 31
0.0
210
0.0
220
0.0
230
-1.0
 40
0.002207
 41
0.0000000207945634
 42
2.523482441886078
  0
ELLIPSE
  5
353
330
28F
100
AcDbEntity
  8
0
  6
Continuous
 62
     0
370
    30
100
AcDbEllipse
 10
865.04422
 20
624.252167
 30
0.0
 11
5.351874195225053
 21
9.895450601083521
 31
0.0
210
0.0
220
0.0
230
1.0
 40
0.002207
 41
0.6181102117037449
 42
2.497650732222326
  0
ELLIPSE
  5
354
330
28F
100
AcDbEntity
  8
0
  6
Continuous
 62
     0
370
    30
100
AcDbEllipse
 10
865.04422
 20
624.252167
 30
0.0
 11
5.351874195225053
 21
9.895450601083521
 31
0.0
210
0.0
220
0.0
230
1.0
 40
0.002207
 41
6.283185286385201
 42
6.901295518883389
  0
LWPOLYLINE
  5
355
330
28F
100
AcDbEntity
  8
0
  6
Continuous
 62
     0
370
    30
100
AcDbPolyline
 90
        8
 70
     0
 43
0.0
 10
869.166748
 20
609.73053
 10
869.303772
 20
610.876343
 10
869.561462
 20
611.98761
 10
869.954712
 20
613.047913
 10
870.489014
 20
614.040161
 10
871.157654
 20
614.951599
 10
871.943298
 20
615.777344
 10
872.826843
 20
616.523315
  0
ELLIPSE
  5
356
330
28F
100
AcDbEntity
  8
0
  6
Continuous
 62
     0
370
    30
100
AcDbEllipse
 10
880.876902
 20
615.689189
 30
0.0
 11
-5.708643067687047
 21
-10.5551052612401
 31
0.0
210
0.0
220
0.0
230
-1.0
 40
0.002207
 41
2.538264007629259
 42
3.14159267438433
  0
ELLIPSE
  5
357
330
28F
100
AcDbEntity
  8
0
  6
Continuous
 62
     0
370
    30
100
AcDbEllipse
 10
880.876902
 20
615.689189
 30
0.0
 11
-5.708643067687047
 21
-10.5551052612401
 31
0.0
210
0.0
220
0.0
230
-1.0
 40
0.002207
 41
0.0000000207945367
 42
2.538264007629452
  0
ELLIPSE
  5
358
330
28F
100
AcDbEntity
  8
0
  6
Continuous
 62
     0
370
    30
100
AcDbEllipse
 10
886.946821
 20
612.406323
 30
0.0
 11
5.708643067687047
 21
10.5551052612401
 31
0.0
210
0.0
220
0.0
230
1.0
 40
0.002207
 41
2.585253698123526
 42
3.143799368911247
  0
LINE
  5
359
330
28F
100
AcDbEntity
  8
0
  6
Continuous
 62
     0
370
    30
100
AcDbLine
 10
879.622408
 20
604.782474
 30
0.0
 11
882.086775
 21
603.449642
 31
0.0
  0
ELLIPSE
  5
35A
330
28F
100
AcDbEntity
  8
0
  6
Continuous
 62
     0
370
    30
100
AcDbEllipse
 10
884.482455
 20
613.739155
 30
0.0
 11
5.708643067687047
 21
10.5551052612401
 31
0.0
210
0.0
220
0.0
230
1.0
 40
0.002207
 41
1.762996247387261
 42
2.585253698123557
  0
LINE
  5
35B
330
28F
100
AcDbEntity
  8
0
  6
Continuous
 62
     0
370
    30
100
AcDbLine
 10
885.8335
 20
610.402465
 30
0.0
 11
883.369134
 21
611.735297
 31
0.0
  0
ELLIPSE
  5
35C
330
28F
100
AcDbEntity
  8
0
  6
Continuous
 62
     0
370
    30
100
AcDbEllipse
 10
886.946821
 20
612.406323
 30
0.0
 11
5.708643067687047
 21
10.5551052612401
 31
0.0
210
0.0
220
0.0
230
1.0
 40
0.002207
 41
0.6033286459606737
 42
1.762996247387436
  0
ELLIPSE
  5
35D
330
28F
100
AcDbEntity
  8
0
  6
Continuous
 62
     0
370
    30
100
AcDbEllipse
 10
886.946821
 20
612.406323
 30
0.0
 11
5.708643067687047
 21
10.5551052612401
 31
0.0
210
0.0
220
0.0
230
1.0
 40
0.002207
 41
6.280978550268789
 42
6.886513953139983
  0
ELLIPSE
  5
35E
330
28F
100
AcDbEntity
  8
0
  6
Continuous
 62
     0
370
    30
100
AcDbEllipse
 10
887.386618
 20
612.168462
 30
0.0
 11
-5.470781992343277
 21
-10.1153074567467
 31
0.0
210
0.0
220
0.0
230
-1.0
 40
0.002207
 41
4.405009623351239
 42
6.95470369908693
  0
LINE
  5
35F
330
28F
100
AcDbEntity
  8
0
  6
Continuous
 62
     0
370
    30
100
AcDbLine
 10
891.683459
 20
620.080001
 30
0.0
 11
889.063143
 21
615.217462
 31
0.0
  0
ELLIPSE
  5
360
330
28F
100
AcDbEntity
  8
0
  6
Continuous
 62
     0
370
    30
100
AcDbEllipse
 10
887.386618
 20
612.168462
 30
0.0
 11
-5.470781992343277
 21
-10.1153074567467
 31
0.0
210
0.0
220
0.0
230
-1.0
 40
0.002207
 41
1.263416969761314
 42
3.813111045497605
  0
LINE
  5
361
330
28F
100
AcDbEntity
  8
0
  6
Continuous
 62
     0
370
    30
100
AcDbLine
 10
883.089776
 20
604.256923
 30
0.0
 11
885.710092
 21
609.119462
 31
0.0
  0
ELLIPSE
  5
362
330
28F
100
AcDbEntity
  8
0
  6
Continuous
 62
     0
370
    30
100
AcDbEllipse
 10
887.386618
 20
612.168462
 30
0.0
 11
4.995082582210048
 21
9.23575389434462
 31
0.0
210
0.0
220
0.0
230
1.0
 40
0.002207
 41
5.315717626345035
 42
8.457310279935133
  0
ELLIPSE
  5
363
330
28F
100
AcDbEntity
  8
0
  6
Continuous
 62
     0
370
    30
100
AcDbEllipse
 10
887.386618
 20
612.168462
 30
0.0
 11
4.995082582210048
 21
9.23575389434462
 31
0.0
210
0.0
220
0.0
230
1.0
 40
0.002207
 41
2.174124972755406
 42
5.315717626345035
  0
LINE
  5
364
330
28F
100
AcDbEntity
  8
0
  6
Continuous
 62
     0
370
    30
100
AcDbLine
 10
883.369134
 20
611.735297
 30
0.0
 11
879.622408
 21
604.782474
 31
0.0
  0
ARC
  5
365
330
28F
100
AcDbEntity
  8
0
  6
Continuous
 62
     0
370
    30
100
AcDbCircle
 10
875.355139
 20
612.84004
 30
0.0
 40
11.55398198237993
100
AcDbArc
 50
305.635363
 51
312.023448
  0
ARC
  5
366
330
28F
100
AcDbEntity
  8
0
  6
Continuous
 62
     0
370
    30
100
AcDbCircle
 10
874.251192
 20
610.86909
 30
0.0
 40
11.5917037965552
100
AcDbArc
 50
351.318716
 51
357.692929
  0
ELLIPSE
  5
367
330
28F
100
AcDbEntity
  8
0
  6
Continuous
 62
     0
370
    30
100
AcDbEllipse
 10
865.026044
 20
622.749609
 30
0.0
 11
0.9180146818112517
 21
4.550247140978034
 31
0.0
210
0.0
220
0.0
230
1.0
 40
0.002416
 41
6.283185298535114
 42
7.299617316740425
  0
LINE
  5
368
330
28F
100
AcDbEntity
  8
0
  6
Continuous
 62
     0
370
    30
100
AcDbLine
 10
863.074494
 20
627.878793
 30
0.0
 11
865.944058
 21
627.299856
 31
0.0
  0
LINE
  5
369
330
28F
100
AcDbEntity
  8
0
  6
Continuous
 62
     0
370
    30
100
AcDbLine
 10
861.238465
 20
618.778298
 30
0.0
 11
861.979644
 21
618.628765
 31
0.0
  0
ARC
  5
36A
330
28F
100
AcDbEntity
  8
0
  6
Continuous
 62
     0
370
    30
100
AcDbCircle
 10
869.486255
 20
621.849608
 30
0.0
 40
6.500191443765952
100
AcDbArc
 50
112.898523
 51
123.020681
  0
LINE
  5
36B
330
28F
100
AcDbEntity
  8
0
  6
Continuous
 62
     0
370
    30
100
AcDbLine
 10
881.915898
 20
602.053153
 30
0.0
 11
881.238243
 21
601.851215
 31
0.0
  0
LINE
  5
36C
330
28F
100
AcDbEntity
  8
0
  6
Continuous
 62
     0
370
    30
100
AcDbLine
 10
892.655501
 20
622.961374
 30
0.0
 11
892.857435
 21
622.283718
 31
0.0
  0
LINE
  5
36D
330
28F
100
AcDbEntity
  8
0
  6
Continuous
 62
     0
370
    30
100
AcDbLine
 10
892.655464
 20
622.961428
 30
0.0
 11
886.585545
 21
626.244294
 31
0.0
  0
LINE
  5
36E
330
28F
100
AcDbEntity
  8
0
  6
Continuous
 62
     0
370
    30
100
AcDbLine
 10
881.238178
 20
601.851217
 30
0.0
 11
875.168259
 21
605.134084
 31
0.0
  0
LINE
  5
36F
330
28F
100
AcDbEntity
  8
0
  6
Continuous
 62
     0
370
    30
100
AcDbLine
 10
868.187082
 20
607.886595
 30
0.0
 11
867.520699
 21
610.122859
 31
0.0
  0
LINE
  5
370
330
28F
100
AcDbEntity
  8
0
  6
Continuous
 62
     0
370
    30
100
AcDbLine
 10
878.224411
 20
629.913697
 30
0.0
 11
880.460672
 21
630.58009
 31
0.0
  0
LINE
  5
371
330
28F
100
AcDbEntity
  8
0
  6
Continuous
 62
     0
370
    30
100
AcDbLine
 10
878.224476
 20
629.913701
 30
0.0
 11
870.396094
 21
634.147617
 31
0.0
  0
LINE
  5
372
330
28F
100
AcDbEntity
  8
0
  6
Continuous
 62
     0
370
    30
100
AcDbLine
 10
867.520728
 20
610.122799
 30
0.0
 11
860.290015
 21
614.033472
 31
0.0
  0
LINE
  5
373
330
28F
100
AcDbEntity
  8
0
  6
Continuous
 62
     0
370
    30
100
AcDbLine
 10
868.187115
 20
607.886527
 30
0.0
 11
874.740087
 21
604.342406
 31
0.0
  0
LINE
  5
374
330
28F
100
AcDbEntity
  8
0
  6
Continuous
 62
     0
370
    30
100
AcDbLine
 10
880.460747
 20
630.580094
 30
0.0
 11
887.013718
 21
627.035972
 31
0.0
  0
LINE
  5
375
330
28F
100
AcDbEntity
  8
0
  6
Continuous
 62
     0
370
    30
100
AcDbLine
 10
785.546018
 20
646.625559
 30
0.0
 11
785.544844
 21
646.607135
 31
0.0
  0
LINE
  5
376
330
28F
100
AcDbEntity
  8
0
  6
Continuous
 62
     0
370
    30
100
AcDbLine
 10
785.542374
 20
646.523629
 30
0.0
 11
785.542521
 21
646.542252
 31
0.0
  0
LINE
  5
377
330
28F
100
AcDbEntity
  8
0
  6
Continuous
 62
     0
370
    30
100
AcDbLine
 10
785.538018
 20
646.677592
 30
0.0
 11
785.282632
 21
552.877081
 31
0.0
  0
LINE
  5
378
330
28F
100
AcDbEntity
  8
0
  6
Continuous
 62
     0
370
    30
100
AcDbLine
 10
785.2113
 20
526.677617
 30
0.0
 11
785.253784
 21
542.281807
 31
0.0
  0
ARC
  5
379
330
28F
100
AcDbEntity
  8
0
  6
Continuous
 62
     0
370
    30
100
AcDbCircle
 10
-262865.345998
 20
56900.941611
 30
0.0
 40
269665.6086503328
100
AcDbArc
 50
347.933169
 51
347.948516
  0
LINE
  5
37A
330
28F
100
AcDbEntity
  8
0
  6
Continuous
 62
     0
370
    30
100
AcDbLine
 10
774.021009
 20
563.406841
 30
0.0
 11
785.25327
 21
542.28203
 31
0.0
  0
LINE
  5
37B
330
28F
100
AcDbEntity
  8
0
  6
Continuous
 62
     0
370
    30
100
AcDbLine
 10
779.684271
 20
563.406067
 30
0.0
 11
785.286136
 21
552.870491
 31
0.0
  0
ENDBLK
  5
37D
330
28F
100
AcDbEntity
  8
0
100
AcDbBlockEnd
  0
BLOCK
  5
454
330
37F
100
AcDbEntity
  8
0
100
AcDbBlockBegin
  2
e
 70
     0
 10
257.889374
 20
0.0
 30
0.0
  3
e
  1

  0
LINE
  5
380
330
37F
100
AcDbEntity
  8
0
  6
Continuous
 62
     0
370
    30
100
AcDbLine
 10
169.335156
 20
730.491942
 30
0.0
 11
169.335155
 21
758.55923
 31
0.0
  0
LINE
  5
381
330
37F
100
AcDbEntity
  8
0
  6
Continuous
 62
     0
370
    30
100
AcDbLine
 10
169.335155
 20
758.55923
 30
0.0
 11
169.335156
 21
786.248017
 31
0.0
  0
LINE
  5
382
330
37F
100
AcDbEntity
  8
0
  6
Continuous
 62
     0
370
     0
100
AcDbLine
 10
196.541955
 20
773.88807
 30
0.0
 11
196.543488
 21
773.887254
 31
0.0
  0
LINE
  5
383
330
37F
100
AcDbEntity
  8
0
  6
Continuous
 62
     0
370
     0
100
AcDbLine
 10
170.82681
 20
787.570206
 30
0.0
 11
170.828328
 21
787.569399
 31
0.0
  0
LINE
  5
384
330
37F
100
AcDbEntity
  8
0
  6
Continuous
 62
     0
370
     0
100
AcDbLine
 10
170.835155
 20
760.008385
 30
0.0
 11
170.835156
 21
786.934533
 31
0.0
  0
LINE
  5
385
330
37F
100
AcDbEntity
  8
0
  6
Continuous
 62
     0
370
     0
100
AcDbLine
 10
170.835155
 20
760.008385
 30
0.0
 11
196.138579
 21
773.471459
 31
0.0
  0
LINE
  5
386
330
37F
100
AcDbEntity
  8
0
  6
Continuous
 62
     0
370
     0
100
AcDbLine
 10
170.835156
 20
786.934533
 30
0.0
 11
196.138579
 21
773.471459
 31
0.0
  0
LINE
  5
387
330
37F
100
AcDbEntity
  8
0
  6
Continuous
 62
     0
370
     0
100
AcDbLine
 10
170.826809
 20
758.568206
 30
0.0
 11
196.543488
 21
772.251158
 31
0.0
  0
LINE
  5
388
330
37F
100
AcDbEntity
  8
0
  6
Continuous
 62
     0
370
     0
100
AcDbLine
 10
170.826809
 20
758.568206
 30
0.0
 11
196.543488
 21
744.69821
 31
0.0
  0
LINE
  5
389
330
37F
100
AcDbEntity
  8
0
  6
Continuous
 62
     0
370
     0
100
AcDbLine
 10
196.543488
 20
772.251158
 30
0.0
 11
196.543488
 21
744.69821
 31
0.0
  0
LINE
  5
38A
330
37F
100
AcDbEntity
  8
0
  6
Continuous
 62
     0
370
     0
100
AcDbLine
 10
170.835156
 20
729.825039
 30
0.0
 11
170.835155
 21
757.119262
 31
0.0
  0
LINE
  5
38B
330
37F
100
AcDbEntity
  8
0
  6
Continuous
 62
     0
370
     0
100
AcDbLine
 10
196.138579
 20
743.472151
 30
0.0
 11
170.835156
 21
729.825039
 31
0.0
  0
LINE
  5
38C
330
37F
100
AcDbEntity
  8
0
  6
Continuous
 62
     0
370
     0
100
AcDbLine
 10
170.835155
 20
757.119262
 30
0.0
 11
196.138579
 21
743.472151
 31
0.0
  0
LINE
  5
38D
330
37F
100
AcDbEntity
  8
0
  6
Continuous
 62
     0
370
     0
100
AcDbLine
 10
196.543488
 20
743.039749
 30
0.0
 11
170.82681
 21
729.169753
 31
0.0
  0
LINE
  5
38E
330
37F
100
AcDbEntity
  8
0
  6
Continuous
 62
     0
370
     0
100
AcDbLine
 10
196.543489
 20
742.852706
 30
0.0
 11
170.82681
 21
729.169753
 31
0.0
  0
LINE
  5
38F
330
37F
100
AcDbEntity
  8
0
  6
Continuous
 62
     0
370
     0
100
AcDbLine
 10
196.543489
 20
742.852706
 30
0.0
 11
196.543488
 21
743.039749
 31
0.0
  0
LINE
  5
390
330
37F
100
AcDbEntity
  8
0
  6
Continuous
 62
     0
370
    30
100
AcDbLine
 10
197.335157
 20
744.172688
 30
0.0
 11
197.335156
 21
744.342772
 31
0.0
  0
ARC
  5
391
330
37F
100
AcDbEntity
  8
0
  6
Continuous
 62
     0
370
    30
100
AcDbCircle
 10
195.819798
 20
744.367301
 30
0.0
 40
1.515361300054926
100
AcDbArc
 50
329.250016
 51
359.880696
  0
ARC
  5
392
330
37F
100
AcDbEntity
  8
0
  6
Continuous
 62
     0
370
     0
100
AcDbCircle
 10
195.82396
 20
744.372169
 30
0.0
 40
1.514286104990329
100
AcDbArc
 50
298.369741
 51
329.011191
  0
ARC
  5
393
330
37F
100
AcDbEntity
  8
0
  6
Continuous
 62
     0
370
     0
100
AcDbCircle
 10
195.829972
 20
744.181938
 30
0.0
 40
1.508630572281284
100
AcDbArc
 50
298.226404
 51
328.925579
  0
ARC
  5
394
330
37F
100
AcDbEntity
  8
0
  6
Continuous
 62
     0
370
    30
100
AcDbCircle
 10
195.827699
 20
744.175875
 30
0.0
 40
1.507461791323871
100
AcDbArc
 50
329.167548
 51
359.878862
  0
LWPOLYLINE
  5
395
330
37F
100
AcDbEntity
  8
0
  6
Continuous
 62
     0
370
     0
100
AcDbPolyline
 90
        3
 70
     0
 43
0.0
 10
170.835159
 20
729.825012
 10
170.846848
 20
729.690002
 10
170.869934
 20
729.36676
  0
LWPOLYLINE
  5
396
330
37F
100
AcDbEntity
  8
0
  6
Continuous
 62
     0
370
    30
100
AcDbPolyline
 90
        3
 70
     0
 43
0.0
 10
170.869934
 20
729.36676
 10
170.868835
 20
729.284973
 10
170.826813
 20
729.169739
  0
LWPOLYLINE
  5
397
330
37F
100
AcDbEntity
  8
0
  6
Continuous
 62
     0
370
     0
100
AcDbPolyline
 90
        3
 70
     0
 43
0.0
 10
196.543488
 20
743.039734
 10
196.509781
 20
743.036377
 10
196.37999
 20
743.125305
  0
ARC
  5
398
330
37F
100
AcDbEntity
  8
0
  6
Continuous
 62
     0
370
     0
100
AcDbCircle
 10
197.616523
 20
744.2434
 30
0.0
 40
1.667076244708895
100
AcDbArc
 50
207.557313
 51
222.120117
  0
ARC
  5
399
330
37F
100
AcDbEntity
  8
0
  6
Continuous
 62
     0
370
     0
100
AcDbCircle
 10
193.025438
 20
745.155055
 30
0.0
 40
3.538900241845584
100
AcDbArc
 50
331.605185
 51
341.424843
  0
ARC
  5
39A
330
37F
100
AcDbEntity
  8
0
  6
Continuous
 62
     0
370
     0
100
AcDbCircle
 10
192.720365
 20
745.275367
 30
0.0
 40
3.866442954527406
100
AcDbArc
 50
341.174939
 51
351.415167
  0
ARC
  5
39B
330
37F
100
AcDbEntity
  8
0
  6
Continuous
 62
     0
370
    30
100
AcDbCircle
 10
165.268037
 20
757.86948
 30
0.0
 40
5.602514587002778
100
AcDbArc
 50
359.14929
 51
7.164381
  0
ARC
  5
39C
330
37F
100
AcDbEntity
  8
0
  6
Continuous
 62
     0
370
     0
100
AcDbCircle
 10
161.792688
 20
757.925151
 30
0.0
 40
9.078307508853369
100
AcDbArc
 50
354.907101
 51
359.123626
  0
LWPOLYLINE
  5
39D
330
37F
100
AcDbEntity
  8
0
  6
Continuous
 62
     0
370
     0
100
AcDbPolyline
 90
        4
 70
     0
 43
0.0
 10
169.335159
 20
730.491943
 10
169.374481
 20
730.308838
 10
169.490372
 20
730.138184
 10
169.77449
 20
729.940308
  0
LWPOLYLINE
  5
39E
330
37F
100
AcDbEntity
  8
0
  6
Continuous
 62
     0
370
     0
100
AcDbPolyline
 90
        4
 70
     0
 43
0.0
 10
169.77449
 20
729.940308
 10
170.027008
 20
729.851013
 10
170.317337
 20
729.80304
 10
170.835159
 20
729.825012
  0
LWPOLYLINE
  5
39F
330
37F
100
AcDbEntity
  8
0
  6
Continuous
 62
     0
370
     0
100
AcDbPolyline
 90
        4
 70
     0
 43
0.0
 10
170.835159
 20
757.119263
 10
170.513412
 20
757.19696
 10
170.206497
 20
757.322632
 10
169.77449
 20
757.621094
  0
LWPOLYLINE
  5
3A0
330
37F
100
AcDbEntity
  8
0
  6
Continuous
 62
     0
370
     0
100
AcDbPolyline
 90
        4
 70
     0
 43
0.0
 10
169.77449
 20
757.621094
 10
169.561081
 20
757.866455
 10
169.414383
 20
758.141052
 10
169.335159
 20
758.559204
  0
LWPOLYLINE
  5
3A1
330
37F
100
AcDbEntity
  8
0
  6
Continuous
 62
     0
370
     0
100
AcDbPolyline
 90
        3
 70
     0
 43
0.0
 10
196.543488
 20
744.698181
 10
196.782791
 20
744.639221
 10
197.122116
 20
744.531921
  0
LWPOLYLINE
  5
3A2
330
37F
100
AcDbEntity
  8
0
  6
Continuous
 62
     0
370
     0
100
AcDbPolyline
 90
        3
 70
     0
 43
0.0
 10
197.122116
 20
744.531921
 10
197.257538
 20
744.464478
 10
197.335159
 20
744.364136
  0
LINE
  5
3A3
330
37F
100
AcDbEntity
  8
0
  6
Continuous
 62
     0
370
    30
100
AcDbLine
 10
197.335156
 20
772.567271
 30
0.0
 11
197.335156
 21
744.364145
 31
0.0
  0
LWPOLYLINE
  5
3A4
330
37F
100
AcDbEntity
  8
0
  6
Continuous
 62
     0
370
     0
100
AcDbPolyline
 90
        3
 70
     0
 43
0.0
 10
197.335159
 20
772.567261
 10
197.299591
 20
772.504028
 10
197.122116
 20
772.409973
  0
LWPOLYLINE
  5
3A5
330
37F
100
AcDbEntity
  8
0
  6
Continuous
 62
     0
370
     0
100
AcDbPolyline
 90
        3
 70
     0
 43
0.0
 10
197.122116
 20
772.409973
 10
196.950989
 20
772.353638
 10
196.543488
 20
772.25116
  0
ARC
  5
3A6
330
37F
100
AcDbEntity
  8
0
  6
Continuous
 62
     0
370
     0
100
AcDbCircle
 10
162.007116
 20
759.212457
 30
0.0
 40
8.863846753203095
100
AcDbArc
 50
0.873012
 51
5.151807
  0
ARC
  5
3A7
330
37F
100
AcDbEntity
  8
0
  6
Continuous
 62
     0
370
    30
100
AcDbCircle
 10
165.294469
 20
759.265195
 30
0.0
 40
5.576072408039542
100
AcDbArc
 50
352.819446
 51
0.845839
  0
ARC
  5
3A8
330
37F
100
AcDbEntity
  8
0
  6
Continuous
 62
     0
370
     0
100
AcDbCircle
 10
192.759044
 20
771.681399
 30
0.0
 40
3.827092978149739
100
AcDbArc
 50
8.561747
 51
18.891486
  0
ARC
  5
3A9
330
37F
100
AcDbEntity
  8
0
  6
Continuous
 62
     0
370
     0
100
AcDbCircle
 10
193.128985
 20
771.824375
 30
0.0
 40
3.430821872755303
100
AcDbArc
 50
18.632694
 51
28.690912
  0
LWPOLYLINE
  5
3AA
330
37F
100
AcDbEntity
  8
0
  6
Continuous
 62
     0
370
     0
100
AcDbPolyline
 90
        3
 70
     0
 43
0.0
 10
196.13858
 20
773.471436
 10
196.202637
 20
773.579773
 10
196.37999
 20
773.810791
  0
LWPOLYLINE
  5
3AB
330
37F
100
AcDbEntity
  8
0
  6
Continuous
 62
     0
370
     0
100
AcDbPolyline
 90
        3
 70
     0
 43
0.0
 10
196.37999
 20
773.810791
 10
196.436386
 20
773.859375
 10
196.543488
 20
773.887268
  0
LWPOLYLINE
  5
3AC
330
37F
100
AcDbEntity
  8
0
  6
Continuous
 62
     0
370
    30
100
AcDbPolyline
 90
        3
 70
     0
 43
0.0
 10
170.826813
 20
787.57019
 10
170.850571
 20
787.545776
 10
170.869934
 20
787.383789
  0
LWPOLYLINE
  5
3AD
330
37F
100
AcDbEntity
  8
0
  6
Continuous
 62
     0
370
     0
100
AcDbPolyline
 90
        3
 70
     0
 43
0.0
 10
170.869934
 20
787.383789
 10
170.865692
 20
787.295593
 10
170.835159
 20
786.934509
  0
LWPOLYLINE
  5
3AE
330
37F
100
AcDbEntity
  8
0
  6
Continuous
 62
     0
370
     0
100
AcDbPolyline
 90
        4
 70
     0
 43
0.0
 10
169.335159
 20
758.559204
 10
169.374466
 20
758.857788
 10
169.490341
 20
759.143677
 10
169.77449
 20
759.504944
  0
LWPOLYLINE
  5
3AF
330
37F
100
AcDbEntity
  8
0
  6
Continuous
 62
     0
370
     0
100
AcDbPolyline
 90
        4
 70
     0
 43
0.0
 10
169.77449
 20
759.504944
 10
170.027222
 20
759.702148
 10
170.317825
 20
759.857422
 10
170.835159
 20
760.008362
  0
LWPOLYLINE
  5
3B0
330
37F
100
AcDbEntity
  8
0
  6
Continuous
 62
     0
370
     0
100
AcDbPolyline
 90
        4
 70
     0
 43
0.0
 10
170.835159
 20
786.934509
 10
170.512466
 20
786.962158
 10
170.204727
 20
786.940979
 10
169.77449
 20
786.812439
  0
LWPOLYLINE
  5
3B1
330
37F
100
AcDbEntity
  8
0
  6
Continuous
 62
     0
370
     0
100
AcDbPolyline
 90
        4
 70
     0
 43
0.0
 10
169.77449
 20
786.812439
 10
169.561066
 20
786.676575
 10
169.414352
 20
786.511169
 10
169.335159
 20
786.248047
  0
ARC
  5
3B2
330
37F
100
AcDbEntity
  8
0
  6
Continuous
 62
     0
370
    30
100
AcDbCircle
 10
195.827697
 20
772.564084
 30
0.0
 40
1.507461776564303
100
AcDbArc
 50
0.121137
 51
30.832451
  0
LINE
  5
3B3
330
37F
100
AcDbEntity
  8
0
  6
Continuous
 62
     0
370
    30
100
AcDbLine
 10
170.828345
 20
787.569267
 30
0.0
 11
170.82681
 21
787.570206
 31
0.0
  0
LWPOLYLINE
  5
3B4
330
37F
100
AcDbEntity
  8
0
  6
Continuous
 62
     0
370
     0
100
AcDbPolyline
 90
        4
 70
     0
 43
0.0
 10
169.77449
 20
729.940308
 10
169.809525
 20
729.703613
 10
169.883713
 20
729.512512
 10
170.087585
 20
729.291382
  0
LWPOLYLINE
  5
3B5
330
37F
100
AcDbEntity
  8
0
  6
Continuous
 62
     0
370
     0
100
AcDbPolyline
 90
        4
 70
     0
 43
0.0
 10
170.869934
 20
729.36676
 10
170.614227
 20
729.241028
 10
170.35582
 20
729.208557
 10
170.087585
 20
729.291382
  0
LWPOLYLINE
  5
3B6
330
37F
100
AcDbEntity
  8
0
  6
Continuous
 62
     0
370
     0
100
AcDbPolyline
 90
        4
 70
     0
 43
0.0
 10
196.37999
 20
743.125305
 10
196.54808
 20
743.23822
 10
196.700302
 20
743.369141
 10
196.93396
 20
743.689758
  0
ARC
  5
3B7
330
37F
100
AcDbEntity
  8
0
  6
Continuous
 62
     0
370
     0
100
AcDbCircle
 10
199.942287
 20
749.243702
 30
0.0
 40
6.316344873774337
100
AcDbArc
 50
235.668397
 51
241.557486
  0
LWPOLYLINE
  5
3B8
330
37F
100
AcDbEntity
  8
0
  6
Continuous
 62
     0
370
     0
100
AcDbPolyline
 90
        3
 70
     0
 43
0.0
 10
197.122116
 20
744.531921
 10
197.088531
 20
744.15332
 10
196.93396
 20
743.689758
  0
LWPOLYLINE
  5
3B9
330
37F
100
AcDbEntity
  8
0
  6
Continuous
 62
     0
370
     0
100
AcDbPolyline
 90
        3
 70
     0
 43
0.0
 10
197.122116
 20
743.592529
 10
197.078857
 20
743.608276
 10
196.93396
 20
743.689758
  0
LWPOLYLINE
  5
3BA
330
37F
100
AcDbEntity
  8
0
  6
Continuous
 62
     0
370
     0
100
AcDbPolyline
 90
        3
 70
     0
 43
0.0
 10
169.77449
 20
757.621094
 10
169.863373
 20
758.061096
 10
170.087585
 20
758.567383
  0
LWPOLYLINE
  5
3BB
330
37F
100
AcDbEntity
  8
0
  6
Continuous
 62
     0
370
     0
100
AcDbPolyline
 90
        3
 70
     0
 43
0.0
 10
169.77449
 20
759.504944
 10
169.863739
 20
759.069031
 10
170.087585
 20
758.567383
  0
LWPOLYLINE
  5
3BC
330
37F
100
AcDbEntity
  8
0
  6
Continuous
 62
     0
370
     0
100
AcDbPolyline
 90
        4
 70
     0
 43
0.0
 10
170.869934
 20
759.347534
 10
170.645645
 20
759.1521
 10
170.416306
 20
758.947266
 10
170.087585
 20
758.567383
  0
LWPOLYLINE
  5
3BD
330
37F
100
AcDbEntity
  8
0
  6
Continuous
 62
     0
370
     0
100
AcDbPolyline
 90
        4
 70
     0
 43
0.0
 10
170.869934
 20
757.786316
 10
170.6465
 20
757.982544
 10
170.417984
 20
758.187073
 10
170.087585
 20
758.567383
  0
ARC
  5
3BE
330
37F
100
AcDbEntity
  8
0
  6
Continuous
 62
     0
370
     0
100
AcDbCircle
 10
199.496293
 20
768.324244
 30
0.0
 40
5.553122021491986
100
AcDbArc
 50
117.478923
 51
124.137532
  0
LWPOLYLINE
  5
3BF
330
37F
100
AcDbEntity
  8
0
  6
Continuous
 62
     0
370
     0
100
AcDbPolyline
 90
        4
 70
     0
 43
0.0
 10
196.37999
 20
773.810791
 10
196.548325
 20
773.699219
 10
196.700745
 20
773.569275
 10
196.93396
 20
773.250854
  0
LWPOLYLINE
  5
3C0
330
37F
100
AcDbEntity
  8
0
  6
Continuous
 62
     0
370
     0
100
AcDbPolyline
 90
        3
 70
     0
 43
0.0
 10
197.122116
 20
773.336731
 10
197.078873
 20
773.326721
 10
196.93396
 20
773.250854
  0
LWPOLYLINE
  5
3C1
330
37F
100
AcDbEntity
  8
0
  6
Continuous
 62
     0
370
     0
100
AcDbPolyline
 90
        3
 70
     0
 43
0.0
 10
197.122116
 20
772.409973
 10
197.088531
 20
772.788391
 10
196.93396
 20
773.250854
  0
LWPOLYLINE
  5
3C2
330
37F
100
AcDbEntity
  8
0
  6
Continuous
 62
     0
370
     0
100
AcDbPolyline
 90
        4
 70
     0
 43
0.0
 10
169.77449
 20
786.812439
 10
169.80957
 20
787.046021
 10
169.883835
 20
787.233704
 10
170.087585
 20
787.448547
  0
LWPOLYLINE
  5
3C3
330
37F
100
AcDbEntity
  8
0
  6
Continuous
 62
     0
370
     0
100
AcDbPolyline
 90
        4
 70
     0
 43
0.0
 10
170.869934
 20
787.383789
 10
170.613892
 20
787.506592
 10
170.355164
 20
787.535706
 10
170.087585
 20
787.448547
  0
LINE
  5
3C4
330
37F
100
AcDbEntity
  8
0
  6
Continuous
 62
     0
370
     0
100
AcDbLine
 10
197.835156
 20
758.415801
 30
0.0
 11
197.835156
 21
765.119978
 31
0.0
  0
LWPOLYLINE
  5
3C5
330
37F
100
AcDbEntity
  8
0
  6
Continuous
 62
     0
370
     0
100
AcDbPolyline
 90
       12
 70
     0
 43
0.0
 10
197.835159
 20
751.619995
 10
197.835159
 20
751.688293
 10
197.835159
 20
751.891785
 10
197.835159
 20
752.226257
 10
197.835159
 20
752.685059
 10
197.835159
 20
753.25885
 10
197.835159
 20
753.936096
 10
197.835159
 20
754.703186
 10
197.835159
 20
755.544067
 10
197.835159
 20
756.442261
 10
197.835159
 20
757.379578
 10
197.835159
 20
758.415771
  0
LINE
  5
3C6
330
37F
100
AcDbEntity
  8
0
  6
Continuous
 62
     0
370
    30
100
AcDbLine
 10
208.335155
 20
786.86998
 30
0.0
 11
200.335156
 21
786.86998
 31
0.0
  0
LINE
  5
3C7
330
37F
100
AcDbEntity
  8
0
  6
Continuous
 62
     0
370
    30
100
AcDbLine
 10
210.335155
 20
786.86998
 30
0.0
 11
208.335155
 21
786.86998
 31
0.0
  0
LINE
  5
3C8
330
37F
100
AcDbEntity
  8
0
  6
Continuous
 62
     0
370
    30
100
AcDbLine
 10
210.335155
 20
729.86998
 30
0.0
 11
208.335155
 21
729.86998
 31
0.0
  0
LINE
  5
3C9
330
37F
100
AcDbEntity
  8
0
  6
Continuous
 62
     0
370
    30
100
AcDbLine
 10
200.335156
 20
729.86998
 30
0.0
 11
208.335155
 21
729.86998
 31
0.0
  0
LINE
  5
3CA
330
37F
100
AcDbEntity
  8
0
  6
Continuous
 62
     0
370
    30
100
AcDbLine
 10
200.335155
 20
766.86998
 30
0.0
 11
208.335155
 21
786.86998
 31
0.0
  0
LINE
  5
3CB
330
37F
100
AcDbEntity
  8
0
  6
Continuous
 62
     0
370
    30
100
AcDbLine
 10
200.335155
 20
749.86998
 30
0.0
 11
200.335155
 21
766.86998
 31
0.0
  0
LINE
  5
3CC
330
37F
100
AcDbEntity
  8
0
  6
Continuous
 62
     0
370
    30
100
AcDbLine
 10
208.335155
 20
729.86998
 30
0.0
 11
200.335155
 21
749.86998
 31
0.0
  0
LINE
  5
3CD
330
37F
100
AcDbEntity
  8
0
  6
Continuous
 62
     0
370
    30
100
AcDbLine
 10
210.335155
 20
729.86998
 30
0.0
 11
210.335155
 21
786.86998
 31
0.0
  0
LINE
  5
3CE
330
37F
100
AcDbEntity
  8
0
  6
Continuous
 62
     0
370
    30
100
AcDbLine
 10
200.335156
 20
786.86998
 30
0.0
 11
200.335155
 21
766.86998
 31
0.0
  0
LINE
  5
3CF
330
37F
100
AcDbEntity
  8
0
  6
Continuous
 62
     0
370
    30
100
AcDbLine
 10
200.335155
 20
749.86998
 30
0.0
 11
200.335156
 21
729.86998
 31
0.0
  0
LINE
  5
3D0
330
37F
100
AcDbEntity
  8
0
  6
Continuous
 62
     0
370
    30
100
AcDbLine
 10
200.335156
 20
765.11998
 30
0.0
 11
197.835156
 21
765.11998
 31
0.0
  0
LINE
  5
3D1
330
37F
100
AcDbEntity
  8
0
  6
Continuous
 62
     0
370
    30
100
AcDbLine
 10
200.335156
 20
751.61998
 30
0.0
 11
197.835156
 21
751.61998
 31
0.0
  0
ARC
  5
3D2
330
37F
100
AcDbEntity
  8
0
  6
Continuous
 62
     0
370
    30
100
AcDbCircle
 10
197.835161
 20
751.119948
 30
0.0
 40
0.5000042130921507
100
AcDbArc
 50
90.000483
 51
179.992257
  0
ARC
  5
3D3
330
37F
100
AcDbEntity
  8
0
  6
Continuous
 62
     0
370
    30
100
AcDbCircle
 10
197.835162
 20
765.619978
 30
0.0
 40
0.5000058681778617
100
AcDbArc
 50
180.00015
 51
269.999328
  0
LINE
  5
3D4
330
37F
100
AcDbEntity
  8
0
  6
Continuous
 62
     0
370
    30
100
AcDbLine
 10
170.074631
 20
787.439967
 30
0.0
 11
170.097133
 21
787.454774
 31
0.0
  0
LINE
  5
3D5
330
37F
100
AcDbEntity
  8
0
  6
Continuous
 62
     0
370
    30
100
AcDbLine
 10
170.841187
 20
787.560242
 30
0.0
 11
170.846791
 21
787.552154
 31
0.0
  0
LINE
  5
3D6
330
37F
100
AcDbEntity
  8
0
  6
Continuous
 62
     0
370
    30
100
AcDbLine
 10
170.841418
 20
787.559926
 30
0.0
 11
170.846791
 21
787.552154
 31
0.0
  0
LINE
  5
3D7
330
37F
100
AcDbEntity
  8
0
  6
Continuous
 62
     0
370
    30
100
AcDbLine
 10
170.828414
 20
787.569375
 30
0.0
 11
170.830855
 21
787.568097
 31
0.0
  0
LINE
  5
3D8
330
37F
100
AcDbEntity
  8
0
  6
Continuous
 62
     0
370
    30
100
AcDbLine
 10
170.841418
 20
787.559926
 30
0.0
 11
170.846791
 21
787.552154
 31
0.0
  0
LWPOLYLINE
  5
3D9
330
37F
100
AcDbEntity
  8
0
  6
Continuous
 62
     0
370
    30
100
AcDbPolyline
 90
       22
 70
     0
 43
0.0
 10
170.096664
 20
787.454468
 10
170.128769
 20
787.473633
 10
170.161911
 20
787.491028
 10
170.195969
 20
787.506592
 10
170.230789
 20
787.520325
 10
170.266235
 20
787.532349
 10
170.3022
 20
787.542664
 10
170.338593
 20
787.551453
 10
170.375305
 20
787.558777
 10
170.412231
 20
787.564819
 10
170.449326
 20
787.569641
 10
170.486572
 20
787.573303
 10
170.523926
 20
787.575989
 10
170.561325
 20
787.57782
 10
170.59874
 20
787.578796
 10
170.636169
 20
787.579041
 10
170.673584
 20
787.57843
 10
170.710968
 20
787.577026
 10
170.748322
 20
787.574646
 10
170.785568
 20
787.571167
 10
170.822495
 20
787.566284
 10
170.838547
 20
787.56366
  0
LWPOLYLINE
  5
3DA
330
37F
100
AcDbEntity
  8
0
  6
Continuous
 62
     0
370
    30
100
AcDbPolyline
 90
        5
 70
     0
 43
0.0
 10
169.335159
 20
786.248047
 10
169.389175
 20
786.589111
 10
169.538284
 20
786.901367
 10
169.752457
 20
787.173462
 10
170.074615
 20
787.440002
  0
LWPOLYLINE
  5
3DB
330
37F
100
AcDbEntity
  8
0
  6
Continuous
 62
     0
370
    30
100
AcDbPolyline
 90
        4
 70
     0
 43
0.0
 10
196.542389
 20
773.887878
 10
196.732269
 20
773.767517
 10
196.902481
 20
773.619629
 10
197.121979
 20
773.336975
  0
ARC
  5
3DC
330
37F
100
AcDbEntity
  8
0
  6
Continuous
 62
     0
370
    30
100
AcDbCircle
 10
172.721467
 20
758.567802
 30
0.0
 40
1.883162045294697
100
AcDbArc
 50
175.906414
 51
185.442866
  0
LINE
  5
3DD
330
37F
100
AcDbEntity
  8
0
  6
Continuous
 62
     0
370
    30
100
AcDbLine
 10
170.828414
 20
729.170585
 30
0.0
 11
170.838111
 21
729.175848
 31
0.0
  0
LWPOLYLINE
  5
3DE
330
37F
100
AcDbEntity
  8
0
  6
Continuous
 62
     0
370
    30
100
AcDbPolyline
 90
        9
 70
     0
 43
0.0
 10
170.098679
 20
729.284241
 10
170.183609
 20
729.23877
 10
170.273941
 20
729.205261
 10
170.367615
 20
729.182556
 10
170.462997
 20
729.168823
 10
170.559189
 20
729.162231
 10
170.655579
 20
729.161133
 10
170.751862
 20
729.165588
 10
170.838425
 20
729.176453
  0
LWPOLYLINE
  5
3DF
330
37F
100
AcDbEntity
  8
0
  6
Continuous
 62
     0
370
    30
100
AcDbPolyline
 90
        5
 70
     0
 43
0.0
 10
169.335159
 20
730.491943
 10
169.389175
 20
730.150818
 10
169.538284
 20
729.838562
 10
169.752457
 20
729.566528
 10
170.074615
 20
729.299988
  0
LINE
  5
3E0
330
37F
100
AcDbEntity
  8
0
  6
Continuous
 62
     0
370
    30
100
AcDbLine
 10
196.54197
 20
773.888099
 30
0.0
 11
170.828343
 21
787.569428
 31
0.0
  0
LINE
  5
3E1
330
37F
100
AcDbEntity
  8
0
  6
Continuous
 62
     0
370
    30
100
AcDbLine
 10
128.199447
 20
563.406456
 30
0.0
 11
153.199447
 21
563.406456
 31
0.0
  0
LINE
  5
3E2
330
37F
100
AcDbEntity
  8
0
  6
Continuous
 62
     0
370
    30
100
AcDbLine
 10
153.199447
 20
574.406456
 30
0.0
 11
128.199447
 21
574.406456
 31
0.0
  0
LINE
  5
3E3
330
37F
100
AcDbEntity
  8
0
  6
Continuous
 62
     0
370
    30
100
AcDbLine
 10
128.199447
 20
563.406456
 30
0.0
 11
128.199447
 21
574.406456
 31
0.0
  0
LINE
  5
3E4
330
37F
100
AcDbEntity
  8
0
  6
Continuous
 62
     0
370
    30
100
AcDbLine
 10
153.199447
 20
574.406456
 30
0.0
 11
153.199447
 21
563.406456
 31
0.0
  0
LWPOLYLINE
  5
3E5
330
37F
100
AcDbEntity
  8
0
  6
Continuous
 62
     0
370
    30
100
AcDbPolyline
 90
       18
 70
     0
 43
0.0
 10
124.76622
 20
552.871033
 10
124.769653
 20
552.82373
 10
124.765976
 20
552.665039
 10
124.762741
 20
552.438477
 10
124.761932
 20
552.169678
 10
124.760231
 20
551.870422
 10
124.759132
 20
551.552185
 10
124.758568
 20
551.220276
 10
124.758156
 20
550.878418
 10
124.757812
 20
550.529114
 10
124.757622
 20
550.174072
 10
124.757637
 20
549.814697
 10
124.757858
 20
549.452148
 10
124.758209
 20
549.087036
 10
124.758652
 20
548.720032
 10
124.759224
 20
548.351624
 10
124.759933
 20
547.9823
 10
124.760811
 20
547.598755
  0
LWPOLYLINE
  5
3E6
330
37F
100
AcDbEntity
  8
0
  6
Continuous
 62
     0
370
    30
100
AcDbPolyline
 90
       15
 70
     0
 43
0.0
 10
124.760811
 20
547.598755
 10
124.761993
 20
547.148865
 10
124.763344
 20
546.699524
 10
124.764923
 20
546.251648
 10
124.766693
 20
545.80603
 10
124.768646
 20
545.36377
 10
124.770782
 20
544.92627
 10
124.773155
 20
544.495239
 10
124.775848
 20
544.073059
 10
124.778915
 20
543.664368
 10
124.782265
 20
543.275085
 10
124.785912
 20
542.915405
 10
124.790268
 20
542.605286
 10
124.794373
 20
542.377441
 10
124.798508
 20
542.281799
  0
LWPOLYLINE
  5
3E7
330
37F
100
AcDbEntity
  8
0
  6
Continuous
 62
     0
370
     0
100
AcDbPolyline
 90
        4
 70
     0
 43
0.0
 10
124.509705
 20
646.521301
 10
124.488899
 20
646.559509
 10
124.427467
 20
646.597595
 10
124.196892
 20
646.67218
  0
LINE
  5
3E8
330
37F
100
AcDbEntity
  8
0
  6
Continuous
 62
     0
370
    30
100
AcDbLine
 10
124.196895
 20
646.67221
 30
0.0
 11
123.330963
 21
646.67221
 31
0.0
  0
LINE
  5
3E9
330
37F
100
AcDbEntity
  8
0
  6
Continuous
 62
     0
370
     0
100
AcDbLine
 10
123.330963
 20
646.67221
 30
0.0
 11
123.351756
 21
526.676456
 31
0.0
  0
LINE
  5
3EA
330
37F
100
AcDbEntity
  8
0
  6
Continuous
 62
     0
370
    30
100
AcDbLine
 10
123.351756
 20
526.676456
 30
0.0
 11
124.523825
 21
526.676456
 31
0.0
  0
LINE
  5
3EB
330
37F
100
AcDbEntity
  8
0
  6
Continuous
 62
     0
370
    30
100
AcDbLine
 10
124.523825
 20
526.676456
 30
0.0
 11
124.509706
 21
646.521284
 31
0.0
  0
LWPOLYLINE
  5
3EC
330
37F
100
AcDbEntity
  8
0
  6
Continuous
 62
     0
370
     0
100
AcDbPolyline
 90
        2
 70
     0
 43
0.0
 10
83.415535
 20
618.556946
 10
82.737816
 20
618.044495
  0
LWPOLYLINE
  5
3ED
330
37F
100
AcDbEntity
  8
0
  6
Continuous
 62
     0
370
     0
100
AcDbPolyline
 90
        3
 70
     0
 43
0.0
 10
82.737816
 20
618.044495
 10
82.571388
 20
617.915283
 10
82.172188
 20
617.57019
  0
LINE
  5
3EE
330
37F
100
AcDbEntity
  8
0
  6
Continuous
 62
     0
370
     0
100
AcDbLine
 10
82.172189
 20
617.570185
 30
0.0
 11
100.296465
 21
526.676456
 31
0.0
  0
LINE
  5
3EF
330
37F
100
AcDbEntity
  8
0
  6
Continuous
 62
     0
370
    30
100
AcDbLine
 10
100.296465
 20
526.676456
 30
0.0
 11
101.711664
 21
526.676456
 31
0.0
  0
LINE
  5
3F0
330
37F
100
AcDbEntity
  8
0
  6
Continuous
 62
     0
370
     0
100
AcDbLine
 10
101.711664
 20
526.676456
 30
0.0
 11
83.415536
 21
618.556948
 31
0.0
  0
LWPOLYLINE
  5
3F1
330
37F
100
AcDbEntity
  8
0
  6
Continuous
 62
     0
370
    30
100
AcDbPolyline
 90
        4
 70
     0
 43
0.0
 10
68.206535
 20
526.676392
 10
68.247528
 20
526.676392
 10
68.368958
 20
526.676453
 10
68.652649
 20
526.676453
  0
ARC
  5
3F2
330
37F
100
AcDbEntity
  8
0
  6
Continuous
 62
     0
370
     0
100
AcDbCircle
 10
195912.105615
 20
42512.403601
 30
0.0
 40
200293.4331264494
100
AcDbArc
 50
192.079204
 51
192.100148
  0
LINE
  5
3F3
330
37F
100
AcDbEntity
  8
0
  6
Continuous
 62
     0
370
     0
100
AcDbLine
 10
53.318282
 20
598.267822
 30
0.0
 11
52.939516
 21
598.187856
 31
0.0
  0
LINE
  5
3F4
330
37F
100
AcDbEntity
  8
0
  6
Continuous
 62
     0
370
    30
100
AcDbLine
 10
52.939516
 20
598.187856
 30
0.0
 11
53.116012
 21
597.314647
 31
0.0
  0
LINE
  5
3F5
330
37F
100
AcDbEntity
  8
0
  6
Continuous
 62
     0
370
    30
100
AcDbLine
 10
67.090266
 20
646.681914
 30
0.0
 11
67.094959
 21
646.672435
 31
0.0
  0
LINE
  5
3F6
330
37F
100
AcDbEntity
  8
0
  6
Continuous
 62
     0
370
    30
100
AcDbLine
 10
46.207425
 20
638.956877
 30
0.0
 11
67.090266
 21
646.681914
 31
0.0
  0
ARC
  5
3F7
330
37F
100
AcDbEntity
  8
0
  6
Continuous
 62
     0
370
     0
100
AcDbCircle
 10
41.665756
 20
634.550712
 30
0.0
 40
6.327799720858101
100
AcDbArc
 50
41.394721
 51
44.132397
  0
LINE
  5
3F8
330
37F
100
AcDbEntity
  8
0
  6
Continuous
 62
     0
370
     0
100
AcDbLine
 10
67.835081
 20
646.67221
 30
0.0
 11
46.412694
 21
638.734923
 31
0.0
  0
LINE
  5
3F9
330
37F
100
AcDbEntity
  8
0
  6
Continuous
 62
     0
370
    30
100
AcDbLine
 10
67.094959
 20
646.672435
 30
0.0
 11
67.835081
 21
646.67221
 31
0.0
  0
LINE
  5
3FA
330
37F
100
AcDbEntity
  8
0
  6
Continuous
 62
     0
370
     0
100
AcDbLine
 10
124.51152
 20
646.67221
 30
0.0
 11
124.509958
 21
646.542251
 31
0.0
  0
LINE
  5
3FB
330
37F
100
AcDbEntity
  8
0
  6
Continuous
 62
     0
370
    30
100
AcDbLine
 10
124.523825
 20
526.676456
 30
0.0
 11
124.839307
 21
526.677558
 31
0.0
  0
LINE
  5
3FC
330
37F
100
AcDbEntity
  8
0
  6
Continuous
 62
     0
370
     0
100
AcDbLine
 10
82.172179
 20
617.570183
 30
0.0
 11
53.318282
 21
598.267822
 31
0.0
  0
LINE
  5
3FD
330
37F
100
AcDbEntity
  8
0
  6
Continuous
 62
     0
370
    30
100
AcDbLine
 10
68.652649
 20
526.676456
 30
0.0
 11
100.296467
 21
526.676456
 31
0.0
  0
LINE
  5
3FE
330
37F
100
AcDbEntity
  8
0
  6
Continuous
 62
     0
370
    30
100
AcDbLine
 10
123.330963
 20
646.67221
 30
0.0
 11
123.105081
 21
646.67221
 31
0.0
  0
LINE
  5
3FF
330
37F
100
AcDbEntity
  8
0
  6
Continuous
 62
     0
370
     0
100
AcDbLine
 10
123.105081
 20
646.67221
 30
0.0
 11
83.415536
 21
618.556948
 31
0.0
  0
LINE
  5
400
330
37F
100
AcDbEntity
  8
0
  6
Continuous
 62
     0
370
    30
100
AcDbLine
 10
101.711664
 20
526.676456
 30
0.0
 11
123.351756
 21
526.676456
 31
0.0
  0
LINE
  5
401
330
37F
100
AcDbEntity
  8
0
  6
Continuous
 62
     0
370
     0
100
AcDbLine
 10
52.929993
 20
598.959308
 30
0.0
 11
81.653331
 21
618.141487
 31
0.0
  0
LINE
  5
402
330
37F
100
AcDbEntity
  8
0
  6
Continuous
 62
     0
370
     0
100
AcDbLine
 10
81.653331
 20
618.141487
 30
0.0
 11
45.02394
 21
637.793623
 31
0.0
  0
LINE
  5
403
330
37F
100
AcDbEntity
  8
0
  6
Continuous
 62
     0
370
     0
100
AcDbLine
 10
45.02394
 20
637.793623
 30
0.0
 11
52.929993
 21
598.959308
 31
0.0
  0
LINE
  5
404
330
37F
100
AcDbEntity
  8
0
  6
Continuous
 62
     0
370
     0
100
AcDbLine
 10
46.412694
 20
638.7349
 30
0.0
 11
83.136793
 21
619.023225
 31
0.0
  0
LINE
  5
405
330
37F
100
AcDbEntity
  8
0
  6
Continuous
 62
     0
370
     0
100
AcDbLine
 10
83.136793
 20
619.023225
 30
0.0
 11
122.157993
 21
646.672225
 31
0.0
  0
LINE
  5
406
330
37F
100
AcDbEntity
  8
0
  6
Continuous
 62
     0
370
    30
100
AcDbLine
 10
122.157993
 20
646.672225
 30
0.0
 11
67.835081
 21
646.672193
 31
0.0
  0
ARC
  5
407
330
37F
100
AcDbEntity
  8
0
  6
Continuous
 62
     0
370
     0
100
AcDbCircle
 10
54.548513
 20
625.952059
 30
0.0
 40
15.15231678940576
100
AcDbArc
 50
122.475332
 51
125.89124
  0
LWPOLYLINE
  5
408
330
37F
100
AcDbEntity
  8
0
  6
Continuous
 62
     0
370
     0
100
AcDbPolyline
 90
        3
 70
     0
 43
0.0
 10
45.665489
 20
638.227417
 10
45.459606
 20
638.081909
 10
45.023937
 20
637.79364
  0
LWPOLYLINE
  5
409
330
37F
100
AcDbEntity
  8
0
  6
Continuous
 62
     0
370
     0
100
AcDbPolyline
 90
        3
 70
     0
 43
0.0
 10
81.653305
 20
618.141541
 10
81.837769
 20
618.240051
 10
82.342453
 20
618.54541
  0
ARC
  5
40A
330
37F
100
AcDbEntity
  8
0
  6
Continuous
 62
     0
370
     0
100
AcDbCircle
 10
91.424155
 20
604.344749
 30
0.0
 40
16.85634407617458
100
AcDbArc
 50
119.448856
 51
122.599994
  0
ARC
  5
40B
330
37F
100
AcDbEntity
  8
0
  6
Continuous
 62
     0
370
     0
100
AcDbCircle
 10
75.618369
 20
614.208013
 30
0.0
 40
8.928176363275288
100
AcDbArc
 50
30.905644
 51
32.637375
  0
ARC
  5
40C
330
37F
100
AcDbEntity
  8
0
  6
Continuous
 62
     0
370
     0
100
AcDbCircle
 10
76.017019
 20
614.445237
 30
0.0
 40
8.464284024859834
100
AcDbArc
 50
29.063054
 51
30.913871
  0
ARC
  5
40D
330
37F
100
AcDbEntity
  8
0
  6
Continuous
 62
     0
370
    30
100
AcDbCircle
 10
122.624618
 20
811.797993
 30
0.0
 40
165.1264821487389
100
AcDbArc
 50
269.838103
 51
270.16671
  0
ARC
  5
40E
330
37F
100
AcDbEntity
  8
0
  6
Continuous
 62
     0
370
    30
100
AcDbCircle
 10
123.010876
 20
646.521061
 30
0.0
 40
1.498830593479744
100
AcDbArc
 50
0.778795
 51
5.787815
  0
LINE
  5
40F
330
37F
100
AcDbEntity
  8
0
  6
Continuous
 62
     0
370
    30
100
AcDbLine
 10
124.509706
 20
646.521284
 30
0.0
 11
124.509697
 21
646.526321
 31
0.0
  0
ARC
  5
410
330
37F
100
AcDbEntity
  8
0
  6
Continuous
 62
     0
370
     0
100
AcDbCircle
 10
80.365221
 20
616.445942
 30
0.0
 40
2.128147733000669
100
AcDbArc
 50
31.888773
 51
42.195001
  0
ARC
  5
411
330
37F
100
AcDbEntity
  8
0
  6
Continuous
 62
     0
370
     0
100
AcDbCircle
 10
80.322857
 20
616.40957
 30
0.0
 40
2.183963900444593
100
AcDbArc
 50
42.15543
 51
52.468203
  0
ARC
  5
412
330
37F
100
AcDbEntity
  8
0
  6
Continuous
 62
     0
370
     0
100
AcDbCircle
 10
51.332886
 20
597.609866
 30
0.0
 40
2.09087281701311
100
AcDbArc
 50
29.331999
 51
40.19543
  0
ARC
  5
413
330
37F
100
AcDbEntity
  8
0
  6
Continuous
 62
     0
370
     0
100
AcDbCircle
 10
51.314655
 20
597.597739
 30
0.0
 40
2.112707964624356
100
AcDbArc
 50
18.491728
 51
29.376514
  0
ARC
  5
414
330
37F
100
AcDbEntity
  8
0
  6
Continuous
 62
     0
370
     0
100
AcDbCircle
 10
44.294109
 20
640.006488
 30
0.0
 40
2.330113033767953
100
AcDbArc
 50
284.671034
 51
288.253221
  0
LINE
  5
415
330
37F
100
AcDbEntity
  8
0
  6
Continuous
 62
     0
370
    30
100
AcDbLine
 10
44.884254
 20
637.752346
 30
0.0
 11
52.777
 21
598.98337
 31
0.0
  0
ARC
  5
416
330
37F
100
AcDbEntity
  8
0
  6
Continuous
 62
     0
370
     0
100
AcDbCircle
 10
53.119485
 20
600.662604
 30
0.0
 40
1.713803978173117
100
AcDbArc
 50
258.472453
 51
263.651748
  0
ARC
  5
417
330
37F
100
AcDbEntity
  8
0
  6
Continuous
 62
     0
370
     0
100
AcDbCircle
 10
47.3881
 20
642.649911
 30
0.0
 40
4.746130844769459
100
AcDbArc
 50
240.351752
 51
248.718511
  0
LINE
  5
418
330
37F
100
AcDbEntity
  8
0
  6
Continuous
 62
     0
370
    30
100
AcDbLine
 10
44.749737
 20
638.417664
 30
0.0
 11
45.040313
 21
638.52515
 31
0.0
  0
LINE
  5
419
330
37F
100
AcDbEntity
  8
0
  6
Continuous
 62
     0
370
    30
100
AcDbLine
 10
44.884252
 20
637.752344
 30
0.0
 11
44.749737
 21
638.417664
 31
0.0
  0
LINE
  5
41A
330
37F
100
AcDbEntity
  8
0
  6
Continuous
 62
     0
370
    30
100
AcDbLine
 10
45.040313
 20
638.52515
 30
0.0
 11
46.207426
 21
638.956873
 31
0.0
  0
LWPOLYLINE
  5
41B
330
37F
100
AcDbEntity
  8
0
  6
Continuous
 62
     0
370
     0
100
AcDbPolyline
 90
        3
 70
     0
 43
0.0
 10
82.571053
 20
618.312988
 10
82.610085
 20
618.256897
 10
82.737816
 20
618.044495
  0
ARC
  5
41C
330
37F
100
AcDbEntity
  8
0
  6
Continuous
 62
     0
370
     0
100
AcDbCircle
 10
108.276817
 20
580.6881
 30
0.0
 40
45.56773223716579
100
AcDbArc
 50
124.34135
 51
125.305035
  0
LWPOLYLINE
  5
41D
330
37F
100
AcDbEntity
  8
0
  6
Continuous
 62
     0
370
     0
100
AcDbPolyline
 90
        2
 70
     0
 43
0.0
 10
82.342476
 20
618.54541
 10
82.571053
 20
618.312988
  0
ARC
  5
41E
330
37F
100
AcDbEntity
  8
0
  6
Continuous
 62
     0
370
     0
100
AcDbCircle
 10
95.856547
 20
599.514701
 30
0.0
 40
23.01911821931168
100
AcDbArc
 50
123.120476
 51
125.250369
  0
LINE
  5
41F
330
37F
100
AcDbEntity
  8
0
  6
Continuous
 62
     0
370
    30
100
AcDbLine
 10
124.196897
 20
646.67221
 30
0.0
 11
124.502066
 21
646.67221
 31
0.0
  0
LINE
  5
420
330
37F
100
AcDbEntity
  8
0
  6
Continuous
 62
     0
370
    30
100
AcDbLine
 10
52.859951
 20
598.576454
 30
0.0
 11
52.777002
 21
598.983373
 31
0.0
  0
ARC
  5
421
330
37F
100
AcDbEntity
  8
0
  6
Continuous
 62
     0
370
     0
100
AcDbCircle
 10
52.194409
 20
602.776932
 30
0.0
 40
4.252877450921813
100
AcDbArc
 50
279.003354
 51
283.063632
  0
LINE
  5
422
330
37F
100
AcDbEntity
  8
0
  6
Continuous
 62
     0
370
    30
100
AcDbLine
 10
52.939485
 20
598.187849
 30
0.0
 11
52.859952
 21
598.576453
 31
0.0
  0
ELLIPSE
  5
423
330
37F
100
AcDbEntity
  8
0
  6
Continuous
 62
     0
370
    30
100
AcDbEllipse
 10
29.175176
 20
615.689181
 30
0.0
 11
-6.136815744899421
 21
11.34678335534589
 31
0.0
210
0.0
220
0.0
230
1.0
 40
0.002207
 41
6.283185286385004
 42
8.806667707476795
  0
ELLIPSE
  5
424
330
37F
100
AcDbEntity
  8
0
  6
Continuous
 62
     0
370
    30
100
AcDbEllipse
 10
29.175176
 20
615.689181
 30
0.0
 11
-6.136815744899421
 21
11.34678335534589
 31
0.0
210
0.0
220
0.0
230
1.0
 40
0.002207
 41
2.523482400297209
 42
3.141592632795212
  0
ELLIPSE
  5
425
330
37F
100
AcDbEntity
  8
0
  6
Continuous
 62
     0
370
    30
100
AcDbEllipse
 10
35.728147
 20
619.233303
 30
0.0
 11
6.136815744899421
 21
-11.34678335534589
 31
0.0
210
0.0
220
0.0
230
-1.0
 40
0.002207
 41
6.280978594323821
 42
8.096341621042898
  0
LINE
  5
426
330
37F
100
AcDbEntity
  8
0
  6
Continuous
 62
     0
370
    30
100
AcDbLine
 10
34.231038
 20
621.943319
 30
0.0
 11
31.592258
 21
620.516156
 31
0.0
  0
ELLIPSE
  5
427
330
37F
100
AcDbEntity
  8
0
  6
Continuous
 62
     0
370
    30
100
AcDbEllipse
 10
33.089367
 20
617.80614
 30
0.0
 11
6.136815744899421
 21
-11.34678335534589
 31
0.0
210
0.0
220
0.0
230
-1.0
 40
0.002207
 41
1.813156313863323
 42
2.564656846311906
  0
LINE
  5
428
330
37F
100
AcDbEntity
  8
0
  6
Continuous
 62
     0
370
    30
100
AcDbLine
 10
27.93221
 20
627.308923
 30
0.0
 11
30.570991
 21
628.736086
 31
0.0
  0
ELLIPSE
  5
429
330
37F
100
AcDbEntity
  8
0
  6
Continuous
 62
     0
370
    30
100
AcDbEllipse
 10
35.728147
 20
619.233303
 30
0.0
 11
6.136815744899421
 21
-11.34678335534589
 31
0.0
210
0.0
220
0.0
230
-1.0
 40
0.002207
 41
2.564656846312011
 42
3.143799409399792
  0
ELLIPSE
  5
42A
330
37F
100
AcDbEntity
  8
0
  6
Continuous
 62
     0
370
    30
100
AcDbEllipse
 10
37.179476
 20
620.018242
 30
0.0
 11
-5.351874196133215
 21
9.895450600592346
 31
0.0
210
0.0
220
0.0
230
1.0
 40
0.002207
 41
6.280978551369322
 42
8.806667707476384
  0
ELLIPSE
  5
42B
330
37F
100
AcDbEntity
  8
0
  6
Continuous
 62
     0
370
    30
100
AcDbEllipse
 10
37.179476
 20
620.018242
 30
0.0
 11
-5.351874196133215
 21
9.895450600592346
 31
0.0
210
0.0
220
0.0
230
1.0
 40
0.002207
 41
2.523482400296798
 42
3.143799366445562
  0
ELLIPSE
  5
42C
330
37F
100
AcDbEntity
  8
0
  6
Continuous
 62
     0
370
    30
100
AcDbEllipse
 10
45.007858
 20
624.252159
 30
0.0
 11
5.351874196133215
 21
-9.895450600592346
 31
0.0
210
0.0
220
0.0
230
-1.0
 40
0.002207
 41
5.317997878266187
 42
5.610222060268006
  0
ELLIPSE
  5
42D
330
37F
100
AcDbEntity
  8
0
  6
Continuous
 62
     0
370
    30
100
AcDbEllipse
 10
45.007858
 20
624.252159
 30
0.0
 11
5.351874196133215
 21
-9.895450600592346
 31
0.0
210
0.0
220
0.0
230
-1.0
 40
0.002207
 41
3.759702906882408
 42
4.342819558368301
  0
ELLIPSE
  5
42E
330
37F
100
AcDbEntity
  8
0
  6
Continuous
 62
     0
370
    30
100
AcDbEllipse
 10
45.007858
 20
624.252159
 30
0.0
 11
5.351874196133215
 21
-9.895450600592346
 31
0.0
210
0.0
220
0.0
230
-1.0
 40
0.002207
 41
0.6584363522118052
 42
3.759702906882467
  0
LWPOLYLINE
  5
42F
330
37F
100
AcDbEntity
  8
0
  6
Continuous
 62
     0
370
    30
100
AcDbPolyline
 90
        8
 70
     0
 43
0.0
 10
30.570993
 20
628.736084
 10
31.451925
 20
627.992615
 10
32.237919
 20
627.167053
 10
32.906918
 20
626.255859
 10
33.441692
 20
625.263855
 10
33.835388
 20
624.203735
 10
34.093361
 20
623.092529
 10
34.231037
 20
621.943298
  0
LINE
  5
430
330
37F
100
AcDbEntity
  8
0
  6
Continuous
 62
     0
370
    30
100
AcDbLine
 10
31.592258
 20
620.516156
 30
0.0
 11
29.762234
 21
623.91254
 31
0.0
  0
LINE
  5
431
330
37F
100
AcDbEntity
  8
0
  6
Continuous
 62
     0
370
    30
100
AcDbLine
 10
29.762234
 20
623.91254
 30
0.0
 11
27.93221
 21
627.308923
 31
0.0
  0
LWPOLYLINE
  5
432
330
37F
100
AcDbEntity
  8
0
  6
Continuous
 62
     0
370
    30
100
AcDbPolyline
 90
        8
 70
     0
 43
0.0
 10
44.543644
 20
625.092041
 10
44.195457
 20
625.737
 10
43.876236
 20
626.328979
 10
43.597767
 20
626.846252
 10
43.369869
 20
627.270447
 10
43.200935
 20
627.585999
 10
43.0966
 20
627.782349
 10
43.06105
 20
627.851807
  0
LWPOLYLINE
  5
433
330
37F
100
AcDbEntity
  8
0
  6
Continuous
 62
     0
370
    30
100
AcDbPolyline
 90
       10
 70
     0
 43
0.0
 10
48.051502
 20
618.624512
 10
48.014618
 20
618.688965
 10
47.913963
 20
618.871582
 10
47.752384
 20
619.167053
 10
47.524666
 20
619.585022
 10
47.235371
 20
620.117188
 10
46.895519
 20
620.743286
 10
46.521336
 20
621.433533
 10
46.13176
 20
622.152893
 10
45.731018
 20
622.893494
  0
LINE
  5
434
330
37F
100
AcDbEntity
  8
0
  6
Continuous
 62
     0
370
    30
100
AcDbLine
 10
45.731019
 20
622.893516
 30
0.0
 11
44.543642
 21
625.092026
 31
0.0
  0
LINE
  5
435
330
37F
100
AcDbEntity
  8
0
  6
Continuous
 62
     0
370
    30
100
AcDbLine
 10
20.709577
 20
622.695829
 30
0.0
 11
18.245211
 21
621.362996
 31
0.0
  0
ELLIPSE
  5
436
330
37F
100
AcDbEntity
  8
0
  6
Continuous
 62
     0
370
    30
100
AcDbEllipse
 10
25.569624
 20
613.739148
 30
0.0
 11
5.708643068655748
 21
-10.55510526071618
 31
0.0
210
0.0
220
0.0
230
-1.0
 40
0.002207
 41
1.762996288976398
 42
2.585253739712847
  0
LINE
  5
437
330
37F
100
AcDbEntity
  8
0
  6
Continuous
 62
     0
370
    30
100
AcDbLine
 10
21.991935
 20
614.410173
 30
0.0
 11
24.456302
 21
615.743006
 31
0.0
  0
ELLIPSE
  5
438
330
37F
100
AcDbEntity
  8
0
  6
Continuous
 62
     0
370
    30
100
AcDbEllipse
 10
23.105257
 20
612.406315
 30
0.0
 11
5.708643068655748
 21
-10.55510526071618
 31
0.0
210
0.0
220
0.0
230
-1.0
 40
0.002207
 41
0.0000000207939798
 42
1.762996288976463
  0
ELLIPSE
  5
439
330
37F
100
AcDbEntity
  8
0
  6
Continuous
 62
     0
370
    30
100
AcDbEllipse
 10
23.105257
 20
612.406315
 30
0.0
 11
5.708643068655748
 21
-10.55510526071618
 31
0.0
210
0.0
220
0.0
230
-1.0
 40
0.002207
 41
2.585253739712335
 42
3.14159267438488
  0
ELLIPSE
  5
43A
330
37F
100
AcDbEntity
  8
0
  6
Continuous
 62
     0
370
    30
100
AcDbEllipse
 10
22.665461
 20
612.168455
 30
0.0
 11
-5.470781993271618
 21
10.11530745624461
 31
0.0
210
0.0
220
0.0
230
1.0
 40
0.002207
 41
1.263416928172374
 42
3.139385896678905
  0
LINE
  5
43B
330
37F
100
AcDbEntity
  8
0
  6
Continuous
 62
     0
370
    30
100
AcDbLine
 10
18.368618
 20
620.079994
 30
0.0
 11
20.988935
 21
615.217454
 31
0.0
  0
ELLIPSE
  5
43C
330
37F
100
AcDbEntity
  8
0
  6
Continuous
 62
     0
370
    30
100
AcDbEllipse
 10
22.665461
 20
612.168455
 30
0.0
 11
-5.470781993271618
 21
10.11530745624461
 31
0.0
210
0.0
220
0.0
230
1.0
 40
0.002207
 41
0.0022067153219627
 42
0.6715183503187321
  0
LINE
  5
43D
330
37F
100
AcDbEntity
  8
0
  6
Continuous
 62
     0
370
    30
100
AcDbLine
 10
18.245211
 20
621.362996
 30
0.0
 11
18.368618
 21
620.079994
 31
0.0
  0
LINE
  5
43E
330
37F
100
AcDbEntity
  8
0
  6
Continuous
 62
     0
370
    30
100
AcDbLine
 10
20.988935
 20
615.217454
 30
0.0
 11
21.991935
 21
614.410173
 31
0.0
  0
ELLIPSE
  5
43F
330
37F
100
AcDbEntity
  8
0
  6
Continuous
 62
     0
370
    30
100
AcDbEllipse
 10
45.026035
 20
622.749602
 30
0.0
 11
0.9180146820013416
 21
-4.550247140939683
 31
0.0
210
0.0
220
0.0
230
-0.9999999999999999
 40
0.002416
 41
2.112046995860135
 42
3.143945373108908
  0
LINE
  5
440
330
37F
100
AcDbEntity
  8
0
  6
Continuous
 62
     0
370
    30
100
AcDbLine
 10
46.897638
 20
627.862656
 30
0.0
 11
44.10802
 21
627.299849
 31
0.0
  0
LINE
  5
441
330
37F
100
AcDbEntity
  8
0
  6
Continuous
 62
     0
370
    30
100
AcDbLine
 10
48.749695
 20
618.765395
 30
0.0
 11
48.051205
 21
618.624474
 31
0.0
  0
ARC
  5
442
330
37F
100
AcDbEntity
  8
0
  6
Continuous
 62
     0
370
    30
100
AcDbCircle
 10
40.565858
 20
621.849666
 30
0.0
 40
6.500117452124118
100
AcDbArc
 50
56.979266
 51
67.429513
  0
LINE
  5
443
330
37F
100
AcDbEntity
  8
0
  6
Continuous
 62
     0
370
    30
100
AcDbLine
 10
28.13618
 20
602.053145
 30
0.0
 11
28.813835
 21
601.851208
 31
0.0
  0
LINE
  5
444
330
37F
100
AcDbEntity
  8
0
  6
Continuous
 62
     0
370
    30
100
AcDbLine
 10
17.396577
 20
622.961367
 30
0.0
 11
17.194643
 21
622.283711
 31
0.0
  0
LINE
  5
445
330
37F
100
AcDbEntity
  8
0
  6
Continuous
 62
     0
370
    30
100
AcDbLine
 10
17.396614
 20
622.96142
 30
0.0
 11
23.457344
 21
626.239317
 31
0.0
  0
LINE
  5
446
330
37F
100
AcDbEntity
  8
0
  6
Continuous
 62
     0
370
    30
100
AcDbLine
 10
28.8139
 20
601.85121
 30
0.0
 11
34.87463
 21
605.129106
 31
0.0
  0
LINE
  5
447
330
37F
100
AcDbEntity
  8
0
  6
Continuous
 62
     0
370
    30
100
AcDbLine
 10
41.864996
 20
607.886587
 30
0.0
 11
42.531379
 21
610.122851
 31
0.0
  0
LINE
  5
448
330
37F
100
AcDbEntity
  8
0
  6
Continuous
 62
     0
370
    30
100
AcDbLine
 10
31.827668
 20
629.913689
 30
0.0
 11
29.591406
 21
630.580082
 31
0.0
  0
LINE
  5
449
330
37F
100
AcDbEntity
  8
0
  6
Continuous
 62
     0
370
    30
100
AcDbLine
 10
31.827602
 20
629.913693
 30
0.0
 11
39.655984
 21
634.14761
 31
0.0
  0
LINE
  5
44A
330
37F
100
AcDbEntity
  8
0
  6
Continuous
 62
     0
370
    30
100
AcDbLine
 10
42.531351
 20
610.122792
 30
0.0
 11
49.717903
 21
614.00958
 31
0.0
  0
LINE
  5
44B
330
37F
100
AcDbEntity
  8
0
  6
Continuous
 62
     0
370
    30
100
AcDbLine
 10
41.864963
 20
607.886519
 30
0.0
 11
35.311992
 21
604.342398
 31
0.0
  0
LINE
  5
44C
330
37F
100
AcDbEntity
  8
0
  6
Continuous
 62
     0
370
    30
100
AcDbLine
 10
29.591331
 20
630.580086
 30
0.0
 11
23.03836
 21
627.035965
 31
0.0
  0
LINE
  5
44D
330
37F
100
AcDbEntity
  8
0
  6
Continuous
 62
     0
370
    30
100
AcDbLine
 10
124.506057
 20
646.625612
 30
0.0
 11
124.507231
 21
646.607191
 31
0.0
  0
LINE
  5
44E
330
37F
100
AcDbEntity
  8
0
  6
Continuous
 62
     0
370
    30
100
AcDbLine
 10
124.509704
 20
646.523634
 30
0.0
 11
124.509557
 21
646.542256
 31
0.0
  0
LINE
  5
44F
330
37F
100
AcDbEntity
  8
0
  6
Continuous
 62
     0
370
    30
100
AcDbLine
 10
124.51406
 20
646.677584
 30
0.0
 11
124.769504
 21
552.856054
 31
0.0
  0
LINE
  5
450
330
37F
100
AcDbEntity
  8
0
  6
Continuous
 62
     0
370
    30
100
AcDbLine
 10
124.840779
 20
526.67761
 30
0.0
 11
124.798253
 21
542.296774
 31
0.0
  0
ARC
  5
451
330
37F
100
AcDbEntity
  8
0
  6
Continuous
 62
     0
370
    30
100
AcDbCircle
 10
263775.398075
 20
56900.941604
 30
0.0
 40
269665.6086495052
100
AcDbArc
 50
192.051484
 51
192.066831
  0
LINE
  5
452
330
37F
100
AcDbEntity
  8
0
  6
Continuous
 62
     0
370
    30
100
AcDbLine
 10
136.03107
 20
563.406834
 30
0.0
 11
124.798808
 21
542.282023
 31
0.0
  0
LINE
  5
453
330
37F
100
AcDbEntity
  8
0
  6
Continuous
 62
     0
370
    30
100
AcDbLine
 10
130.367808
 20
563.406059
 30
0.0
 11
124.765943
 21
552.870484
 31
0.0
  0
ENDBLK
  5
455
330
37F
100
AcDbEntity
  8
0
100
AcDbBlockEnd
  0
BLOCK
  5
5A5
330
457
100
AcDbEntity
  8
0
100
AcDbBlockBegin
  2
d
 70
     0
 10
376.476349
 20
27.35305
 30
0.0
  3
d
  1

  0
LINE
  5
458
330
457
100
AcDbEntity
  8
0
  6
Continuous
 62
     0
370
     0
100
AcDbLine
 10
831.181632
 20
289.671044
 30
0.0
 11
850.760561
 21
295.67322
 31
0.0
  0
LINE
  5
459
330
457
100
AcDbEntity
  8
0
  6
Continuous
 62
     0
370
     0
100
AcDbLine
 10
850.760561
 20
295.67322
 30
0.0
 11
830.913991
 21
329.285793
 31
0.0
  0
LINE
  5
45A
330
457
100
AcDbEntity
  8
0
  6
Continuous
 62
     0
370
     0
100
AcDbLine
 10
811.335062
 20
323.283617
 30
0.0
 11
830.913991
 21
329.285793
 31
0.0
  0
LINE
  5
45B
330
457
100
AcDbEntity
  8
0
  6
Continuous
 62
     0
370
     0
100
AcDbLine
 10
831.181632
 20
289.671044
 30
0.0
 11
811.335062
 21
323.283617
 31
0.0
  0
LINE
  5
45C
330
457
100
AcDbEntity
  8
0
  6
Continuous
 62
     0
370
     0
100
AcDbLine
 10
839.322335
 20
340.965226
 30
0.0
 11
811.910282
 21
325.395086
 31
0.0
  0
LINE
  5
45D
330
457
100
AcDbEntity
  8
0
  6
Continuous
 62
     0
370
     0
100
AcDbLine
 10
811.910282
 20
325.395086
 30
0.0
 11
830.949944
 21
331.231943
 31
0.0
  0
LINE
  5
45E
330
457
100
AcDbEntity
  8
0
  6
Continuous
 62
     0
370
     0
100
AcDbLine
 10
830.949944
 20
331.231943
 30
0.0
 11
839.322335
 21
340.965226
 31
0.0
  0
LINE
  5
45F
330
457
100
AcDbEntity
  8
0
  6
Continuous
 62
     0
370
     0
100
AcDbLine
 10
831.962403
 20
330.971037
 30
0.0
 11
840.471532
 21
340.863284
 31
0.0
  0
LINE
  5
460
330
457
100
AcDbEntity
  8
0
  6
Continuous
 62
     0
370
     0
100
AcDbLine
 10
831.962403
 20
330.971037
 30
0.0
 11
859.954409
 21
327.219069
 31
0.0
  0
LINE
  5
461
330
457
100
AcDbEntity
  8
0
  6
Continuous
 62
     0
370
     0
100
AcDbLine
 10
840.471532
 20
340.863284
 30
0.0
 11
859.954409
 21
327.219069
 31
0.0
  0
LINE
  5
462
330
457
100
AcDbEntity
  8
0
  6
Continuous
 62
     0
370
     0
100
AcDbLine
 10
852.292793
 20
297.114476
 30
0.0
 11
832.992862
 21
329.80125
 31
0.0
  0
LINE
  5
463
330
457
100
AcDbEntity
  8
0
  6
Continuous
 62
     0
370
     0
100
AcDbLine
 10
852.292793
 20
297.114476
 30
0.0
 11
860.53505
 21
326.109574
 31
0.0
  0
LINE
  5
464
330
457
100
AcDbEntity
  8
0
  6
Continuous
 62
     0
370
     0
100
AcDbLine
 10
832.992862
 20
329.80125
 30
0.0
 11
860.53505
 21
326.109574
 31
0.0
  0
LINE
  5
465
330
457
100
AcDbEntity
  8
0
  6
Continuous
 62
     0
370
     0
100
AcDbLine
 10
852.750249
 20
295.764299
 30
0.0
 11
861.127118
 21
325.232945
 31
0.0
  0
LINE
  5
466
330
457
100
AcDbEntity
  8
0
  6
Continuous
 62
     0
370
     0
100
AcDbLine
 10
852.750249
 20
295.764299
 30
0.0
 11
861.259377
 21
305.656546
 31
0.0
  0
LINE
  5
467
330
457
100
AcDbEntity
  8
0
  6
Continuous
 62
     0
370
     0
100
AcDbLine
 10
861.127118
 20
325.232945
 30
0.0
 11
861.259377
 21
305.656546
 31
0.0
  0
LWPOLYLINE
  5
468
330
457
100
AcDbEntity
  8
0
  6
Continuous
 62
     0
370
     0
100
AcDbPolyline
 90
        3
 70
     0
 43
0.0
 10
830.858521
 20
289.814392
 10
830.942261
 20
289.733429
 10
831.181641
 20
289.671051
  0
LWPOLYLINE
  5
469
330
457
100
AcDbEntity
  8
0
  6
Continuous
 62
     0
370
     0
100
AcDbPolyline
 90
        3
 70
     0
 43
0.0
 10
811.196167
 20
323.11496
 10
811.209106
 20
323.153931
 10
811.335083
 20
323.28363
  0
ARC
  5
46A
330
457
100
AcDbEntity
  8
0
  6
Continuous
 62
     0
370
     0
100
AcDbCircle
 10
860.298437
 20
305.672376
 30
0.0
 40
0.9542750917822777
100
AcDbArc
 50
319.25421
 51
326.013471
  0
ARC
  5
46B
330
457
100
AcDbEntity
  8
0
  6
Continuous
 62
     0
370
     0
100
AcDbCircle
 10
860.238259
 20
305.704678
 30
0.0
 40
1.022252074251568
100
AcDbArc
 50
326.3977
 51
357.301253
  0
ARC
  5
46C
330
457
100
AcDbEntity
  8
0
  6
Continuous
 62
     0
370
    30
100
AcDbCircle
 10
852.043545
 20
295.696947
 30
0.0
 40
0.7099057711198825
100
AcDbArc
 50
328.514322
 51
5.444114
  0
ARC
  5
46D
330
457
100
AcDbEntity
  8
0
  6
Continuous
 62
     0
370
     0
100
AcDbCircle
 10
852.12386
 20
295.659039
 30
0.0
 40
0.6216907415996527
100
AcDbArc
 50
319.263982
 51
327.627676
  0
LWPOLYLINE
  5
46E
330
457
100
AcDbEntity
  8
0
  6
Continuous
 62
     0
370
     0
100
AcDbPolyline
 90
        4
 70
     0
 43
0.0
 10
831.181641
 20
289.671051
 10
831.416748
 20
289.415314
 10
831.695984
 20
289.211304
 10
832.161011
 20
289.027802
  0
ARC
  5
46F
330
457
100
AcDbEntity
  8
0
  6
Continuous
 62
     0
370
     0
100
AcDbCircle
 10
832.48093
 20
290.449697
 30
0.0
 40
1.457450437991624
100
AcDbArc
 50
257.320617
 51
287.024291
  0
ARC
  5
470
330
457
100
AcDbEntity
  8
0
  6
Continuous
 62
     0
370
     0
100
AcDbCircle
 10
851.792256
 20
295.751079
 30
0.0
 40
0.8658482593677201
100
AcDbArc
 50
248.172481
 51
286.917624
  0
LWPOLYLINE
  5
471
330
457
100
AcDbEntity
  8
0
  6
Continuous
 62
     0
370
     0
100
AcDbPolyline
 90
        4
 70
     0
 43
0.0
 10
851.470337
 20
294.947296
 10
851.226379
 20
295.079865
 10
851.007874
 20
295.279541
 10
850.760559
 20
295.673218
  0
ARC
  5
472
330
457
100
AcDbEntity
  8
0
  6
Continuous
 62
     0
370
     0
100
AcDbCircle
 10
860.819546
 20
305.902701
 30
0.0
 40
0.5040273076355528
100
AcDbArc
 50
330.766119
 51
0.0735
  0
ARC
  5
473
330
457
100
AcDbEntity
  8
0
  6
Continuous
 62
     0
370
     0
100
AcDbCircle
 10
860.092677
 20
325.600508
 30
0.0
 40
1.097802436448287
100
AcDbArc
 50
340.438596
 51
0.799415
  0
ARC
  5
474
330
457
100
AcDbEntity
  8
0
  6
Continuous
 62
     0
370
     0
100
AcDbCircle
 10
849.709611
 20
295.359181
 30
0.0
 40
3.123122073393581
100
AcDbArc
 50
20.157527
 51
34.196463
  0
ARC
  5
475
330
457
100
AcDbEntity
  8
0
  6
Continuous
 62
     0
370
    30
100
AcDbCircle
 10
850.973452
 20
295.8206
 30
0.0
 40
1.777687899922467
100
AcDbArc
 50
358.185108
 51
20.233794
  0
LWPOLYLINE
  5
476
330
457
100
AcDbEntity
  8
0
  6
Continuous
 62
     0
370
     0
100
AcDbPolyline
 90
        3
 70
     0
 43
0.0
 10
861.127136
 20
325.232941
 10
861.106689
 20
325.346252
 10
860.950989
 20
325.667297
  0
ARC
  5
477
330
457
100
AcDbEntity
  8
0
  6
Continuous
 62
     0
370
     0
100
AcDbCircle
 10
859.066059
 20
324.311317
 30
0.0
 40
2.321994974374608
100
AcDbArc
 50
35.730107
 51
50.754719
  0
ARC
  5
478
330
457
100
AcDbEntity
  8
0
  6
Continuous
 62
     0
370
     0
100
AcDbCircle
 10
857.964289
 20
325.572875
 30
0.0
 40
2.62618649840497
100
AcDbArc
 50
11.792309
 51
26.581472
  0
LWPOLYLINE
  5
479
330
457
100
AcDbEntity
  8
0
  6
Continuous
 62
     0
370
     0
100
AcDbPolyline
 90
        3
 70
     0
 43
0.0
 10
860.312866
 20
326.748016
 10
860.236145
 20
326.883698
 10
859.954407
 20
327.219055
  0
ARC
  5
47A
330
457
100
AcDbEntity
  8
0
  6
Continuous
 62
     0
370
    30
100
AcDbCircle
 10
830.693094
 20
328.903471
 30
0.0
 40
2.426103239627464
100
AcDbArc
 50
40.212916
 51
58.45362
  0
ARC
  5
47B
330
457
100
AcDbEntity
  8
0
  6
Continuous
 62
     0
370
     0
100
AcDbCircle
 10
829.844914
 20
328.180031
 30
0.0
 40
3.540893510455269
100
AcDbArc
 50
27.24883
 51
40.291317
  0
LWPOLYLINE
  5
47C
330
457
100
AcDbEntity
  8
0
  6
Continuous
 62
     0
370
     0
100
AcDbPolyline
 90
        4
 70
     0
 43
0.0
 10
850.760559
 20
295.673218
 10
850.907471
 20
295.803436
 10
851.095276
 20
295.965546
 10
851.461304
 20
296.285797
  0
LWPOLYLINE
  5
47D
330
457
100
AcDbEntity
  8
0
  6
Continuous
 62
     0
370
     0
100
AcDbPolyline
 90
        3
 70
     0
 43
0.0
 10
851.461304
 20
296.285797
 10
851.825867
 20
296.623535
 10
852.292786
 20
297.114471
  0
ARC
  5
47E
330
457
100
AcDbEntity
  8
0
  6
Continuous
 62
     0
370
     0
100
AcDbCircle
 10
828.103285
 20
342.719266
 30
0.0
 40
13.81242640357824
100
AcDbArc
 50
285.90303
 51
290.732074
  0
LWPOLYLINE
  5
47F
330
457
100
AcDbEntity
  8
0
  6
Continuous
 62
     0
370
     0
100
AcDbPolyline
 90
        4
 70
     0
 43
0.0
 10
831.888
 20
329.435486
 10
831.581726
 20
329.359375
 10
831.298157
 20
329.306915
 10
830.914001
 20
329.285797
  0
LWPOLYLINE
  5
480
330
457
100
AcDbEntity
  8
0
  6
Continuous
 62
     0
370
     0
100
AcDbPolyline
 90
        3
 70
     0
 43
0.0
 10
859.954407
 20
327.219055
 10
860.190735
 20
327.190063
 10
860.48114
 20
327.03595
  0
LWPOLYLINE
  5
481
330
457
100
AcDbEntity
  8
0
  6
Continuous
 62
     0
370
     0
100
AcDbPolyline
 90
        3
 70
     0
 43
0.0
 10
840.739502
 20
340.866943
 10
840.674561
 20
340.89444
 10
840.471558
 20
340.863281
  0
ARC
  5
482
330
457
100
AcDbEntity
  8
0
  6
Continuous
 62
     0
370
     0
100
AcDbCircle
 10
831.214838
 20
330.390649
 30
0.0
 40
0.8820114856674472
100
AcDbArc
 50
75.085674
 51
107.477423
  0
ARC
  5
483
330
457
100
AcDbEntity
  8
0
  6
Continuous
 62
     0
370
    30
100
AcDbCircle
 10
831.105751
 20
329.965266
 30
0.0
 40
1.321146252261757
100
AcDbArc
 50
49.577743
 51
75.262205
  0
ARC
  5
484
330
457
100
AcDbEntity
  8
0
  6
Continuous
 62
     0
370
     0
100
AcDbCircle
 10
839.75061
 20
339.654321
 30
0.0
 40
1.407593544588204
100
AcDbArc
 50
59.191782
 51
84.619265
  0
ARC
  5
485
330
457
100
AcDbEntity
  8
0
  6
Continuous
 62
     0
370
     0
100
AcDbCircle
 10
839.777678
 20
339.925624
 30
0.0
 40
1.134948953089135
100
AcDbArc
 50
84.695336
 51
113.653281
  0
ARC
  5
486
330
457
100
AcDbEntity
  8
0
  6
Continuous
 62
     0
370
     0
100
AcDbCircle
 10
839.308912
 20
340.913806
 30
0.0
 40
0.0531428774016804
100
AcDbArc
 50
75.369612
 51
117.230131
  0
ARC
  5
487
330
457
100
AcDbEntity
  8
0
  6
Continuous
 62
     0
370
     0
100
AcDbCircle
 10
812.028218
 20
324.951433
 30
0.0
 40
0.4590604733579737
100
AcDbArc
 50
104.886555
 51
119.573474
  0
LWPOLYLINE
  5
488
330
457
100
AcDbEntity
  8
0
  6
Continuous
 62
     0
370
     0
100
AcDbPolyline
 90
        4
 70
     0
 43
0.0
 10
830.914001
 20
329.285797
 10
830.737244
 20
329.570984
 10
830.618042
 20
329.878082
 10
830.555908
 20
330.368378
  0
LWPOLYLINE
  5
489
330
457
100
AcDbEntity
  8
0
  6
Continuous
 62
     0
370
     0
100
AcDbPolyline
 90
        4
 70
     0
 43
0.0
 10
830.555908
 20
330.368378
 10
830.598999
 20
330.6716
 10
830.70459
 20
330.939087
 10
830.949951
 20
331.231934
  0
LWPOLYLINE
  5
48A
330
457
100
AcDbEntity
  8
0
  6
Continuous
 62
     0
370
     0
100
AcDbPolyline
 90
        4
 70
     0
 43
0.0
 10
811.246643
 20
324.448883
 10
811.368042
 20
324.775879
 10
811.55188
 20
325.06723
 10
811.910278
 20
325.395081
  0
ARC
  5
48B
330
457
100
AcDbEntity
  8
0
  6
Continuous
 62
     0
370
     0
100
AcDbCircle
 10
812.98769
 20
323.995032
 30
0.0
 40
1.799247470839634
100
AcDbArc
 50
165.389994
 51
203.290677
  0
LWPOLYLINE
  5
48C
330
457
100
AcDbEntity
  8
0
  6
Continuous
 62
     0
370
     0
100
AcDbPolyline
 90
        3
 70
     0
 43
0.0
 10
811.246643
 20
324.448883
 10
811.096375
 20
324.406799
 10
811.004822
 20
324.319183
  0
ARC
  5
48D
330
457
100
AcDbEntity
  8
0
  6
Continuous
 62
     0
370
     0
100
AcDbCircle
 10
832.020314
 20
289.351926
 30
0.0
 40
0.3533624929844519
100
AcDbArc
 50
256.227824
 51
293.466317
  0
LINE
  5
48E
330
457
100
AcDbEntity
  8
0
  6
Continuous
 62
     0
370
     0
100
AcDbLine
 10
861.089692
 20
305.138939
 30
0.0
 11
861.10937
 21
305.163428
 31
0.0
  0
LWPOLYLINE
  5
48F
330
457
100
AcDbEntity
  8
0
  6
Continuous
 62
     0
370
     0
100
AcDbPolyline
 90
        4
 70
     0
 43
0.0
 10
851.470337
 20
294.947296
 10
851.650879
 20
295.015472
 10
851.827026
 20
295.129913
 10
852.141541
 20
295.454926
  0
LWPOLYLINE
  5
490
330
457
100
AcDbEntity
  8
0
  6
Continuous
 62
     0
370
     0
100
AcDbPolyline
 90
        3
 70
     0
 43
0.0
 10
851.461304
 20
296.285797
 10
851.755188
 20
295.882721
 10
852.141541
 20
295.454926
  0
LWPOLYLINE
  5
491
330
457
100
AcDbEntity
  8
0
  6
Continuous
 62
     0
370
     0
100
AcDbPolyline
 90
        4
 70
     0
 43
0.0
 10
852.641418
 20
296.435425
 10
852.556641
 20
296.105743
 10
852.410095
 20
295.807495
 10
852.141541
 20
295.454926
  0
LWPOLYLINE
  5
492
330
457
100
AcDbEntity
  8
0
  6
Continuous
 62
     0
370
     0
100
AcDbPolyline
 90
        4
 70
     0
 43
0.0
 10
852.648926
 20
295.326172
 10
852.555359
 20
295.295563
 10
852.394226
 20
295.318695
 10
852.141541
 20
295.454926
  0
LWPOLYLINE
  5
493
330
457
100
AcDbEntity
  8
0
  6
Continuous
 62
     0
370
     0
100
AcDbPolyline
 90
        4
 70
     0
 43
0.0
 10
860.950989
 20
325.667297
 10
860.989502
 20
325.881653
 10
861.005005
 20
326.084564
 10
860.943604
 20
326.460083
  0
LWPOLYLINE
  5
494
330
457
100
AcDbEntity
  8
0
  6
Continuous
 62
     0
370
     0
100
AcDbPolyline
 90
        3
 70
     0
 43
0.0
 10
860.312866
 20
326.748016
 10
860.668579
 20
326.641998
 10
860.943604
 20
326.460083
  0
ARC
  5
495
330
457
100
AcDbEntity
  8
0
  6
Continuous
 62
     0
370
     0
100
AcDbCircle
 10
859.906575
 20
326.088708
 30
0.0
 40
1.10150900735056
100
AcDbArc
 50
19.703793
 51
48.162638
  0
ARC
  5
496
330
457
100
AcDbEntity
  8
0
  6
Continuous
 62
     0
370
     0
100
AcDbCircle
 10
860.436893
 20
325.969386
 30
0.0
 40
0.7053588985431309
100
AcDbArc
 50
18.371936
 51
44.081443
  0
ARC
  5
497
330
457
100
AcDbEntity
  8
0
  6
Continuous
 62
     0
370
     0
100
AcDbCircle
 10
838.088033
 20
332.639738
 30
0.0
 40
6.979059961948764
100
AcDbArc
 50
197.724883
 51
207.33058
  0
LWPOLYLINE
  5
498
330
457
100
AcDbEntity
  8
0
  6
Continuous
 62
     0
370
     0
100
AcDbPolyline
 90
        3
 70
     0
 43
0.0
 10
830.555908
 20
330.368378
 10
830.930176
 20
330.470581
 10
831.440247
 20
330.514984
  0
LWPOLYLINE
  5
499
330
457
100
AcDbEntity
  8
0
  6
Continuous
 62
     0
370
     0
100
AcDbPolyline
 90
        4
 70
     0
 43
0.0
 10
831.441833
 20
331.24295
 10
831.419739
 20
331.102692
 10
831.403137
 20
330.895416
 10
831.440247
 20
330.514984
  0
LWPOLYLINE
  5
49A
330
457
100
AcDbEntity
  8
0
  6
Continuous
 62
     0
370
     0
100
AcDbPolyline
 90
        4
 70
     0
 43
0.0
 10
832.545776
 20
330.469849
 10
832.236755
 20
330.537445
 10
831.917908
 20
330.552399
 10
831.440247
 20
330.514984
  0
LWPOLYLINE
  5
49B
330
457
100
AcDbEntity
  8
0
  6
Continuous
 62
     0
370
     0
100
AcDbPolyline
 90
        3
 70
     0
 43
0.0
 10
839.882629
 20
341.055725
 10
839.894165
 20
341.075592
 10
839.981689
 20
341.146332
  0
LINE
  5
49C
330
457
100
AcDbEntity
  8
0
  6
Continuous
 62
     0
370
    30
100
AcDbLine
 10
883.02016
 20
333.880962
 30
0.0
 11
741.598804
 21
433.880961
 31
0.0
  0
LINE
  5
49D
330
457
100
AcDbEntity
  8
0
  6
Continuous
 62
     0
370
    30
100
AcDbLine
 10
741.598804
 20
433.880961
 30
0.0
 11
740.18459
 21
432.880961
 31
0.0
  0
LINE
  5
49E
330
457
100
AcDbEntity
  8
0
  6
Continuous
 62
     0
370
    30
100
AcDbLine
 10
748.669872
 20
418.880961
 30
0.0
 11
740.18459
 21
432.880961
 31
0.0
  0
LINE
  5
49F
330
457
100
AcDbEntity
  8
0
  6
Continuous
 62
     0
370
    30
100
AcDbLine
 10
861.806956
 20
338.880962
 30
0.0
 11
748.669872
 21
418.880961
 31
0.0
  0
LINE
  5
4A0
330
457
100
AcDbEntity
  8
0
  6
Continuous
 62
     0
370
    30
100
AcDbLine
 10
881.605946
 20
332.880962
 30
0.0
 11
861.806956
 21
338.880962
 31
0.0
  0
LINE
  5
4A1
330
457
100
AcDbEntity
  8
0
  6
Continuous
 62
     0
370
    30
100
AcDbLine
 10
883.02016
 20
333.880962
 30
0.0
 11
881.605946
 21
332.880962
 31
0.0
  0
LINE
  5
4A2
330
457
100
AcDbEntity
  8
0
  6
Continuous
 62
     0
370
    30
100
AcDbLine
 10
734.527736
 20
414.738825
 30
0.0
 11
734.527736
 21
403.214864
 31
0.0
  0
LINE
  5
4A3
330
457
100
AcDbEntity
  8
0
  6
Continuous
 62
     0
370
    30
100
AcDbLine
 10
740.18459
 20
432.880961
 30
0.0
 11
734.527736
 21
414.738825
 31
0.0
  0
LINE
  5
4A4
330
457
100
AcDbEntity
  8
0
  6
Continuous
 62
     0
370
    30
100
AcDbLine
 10
883.02016
 20
293.575875
 30
0.0
 11
881.605946
 21
292.575875
 31
0.0
  0
LINE
  5
4A5
330
457
100
AcDbEntity
  8
0
  6
Continuous
 62
     0
370
    30
100
AcDbLine
 10
861.806956
 20
298.575875
 30
0.0
 11
881.605946
 21
292.575875
 31
0.0
  0
LINE
  5
4A6
330
457
100
AcDbEntity
  8
0
  6
Continuous
 62
     0
370
    30
100
AcDbLine
 10
857.85605
 20
301.369588
 30
0.0
 11
861.806956
 21
298.575875
 31
0.0
  0
LINE
  5
4A7
330
457
100
AcDbEntity
  8
0
  6
Continuous
 62
     0
370
    30
100
AcDbLine
 10
762.403932
 20
368.864427
 30
0.0
 11
818.53377
 21
329.174639
 31
0.0
  0
LINE
  5
4A8
330
457
100
AcDbEntity
  8
0
  6
Continuous
 62
     0
370
    30
100
AcDbLine
 10
875.949092
 20
314.738826
 30
0.0
 11
881.605946
 21
332.880962
 31
0.0
  0
LINE
  5
4A9
330
457
100
AcDbEntity
  8
0
  6
Continuous
 62
     0
370
    30
100
AcDbLine
 10
875.949092
 20
302.718011
 30
0.0
 11
875.949092
 21
314.738826
 31
0.0
  0
LINE
  5
4AA
330
457
100
AcDbEntity
  8
0
  6
Continuous
 62
     0
370
    30
100
AcDbLine
 10
881.605946
 20
292.575875
 30
0.0
 11
875.949092
 21
302.718011
 31
0.0
  0
LINE
  5
4AB
330
457
100
AcDbEntity
  8
0
  6
Continuous
 62
     0
370
    30
100
AcDbLine
 10
883.02016
 20
293.575875
 30
0.0
 11
883.02016
 21
333.880962
 31
0.0
  0
LINE
  5
4AC
330
457
100
AcDbEntity
  8
0
  6
Continuous
 62
     0
370
    30
100
AcDbLine
 10
861.806956
 20
338.880962
 30
0.0
 11
875.949092
 21
314.738826
 31
0.0
  0
LINE
  5
4AD
330
457
100
AcDbEntity
  8
0
  6
Continuous
 62
     0
370
    30
100
AcDbLine
 10
734.527736
 20
414.738825
 30
0.0
 11
748.669872
 21
418.880961
 31
0.0
  0
LINE
  5
4AE
330
457
100
AcDbEntity
  8
0
  6
Continuous
 62
     0
370
    30
100
AcDbLine
 10
875.949092
 20
302.718011
 30
0.0
 11
861.806956
 21
298.575875
 31
0.0
  0
LINE
  5
4AF
330
457
100
AcDbEntity
  8
0
  6
Continuous
 62
     0
370
     0
100
AcDbLine
 10
735.581035
 20
357.270421
 30
0.0
 11
755.301598
 21
363.031718
 31
0.0
  0
LINE
  5
4B0
330
457
100
AcDbEntity
  8
0
  6
Continuous
 62
     0
370
     0
100
AcDbLine
 10
755.301598
 20
363.031718
 30
0.0
 11
735.595757
 21
396.686415
 31
0.0
  0
LINE
  5
4B1
330
457
100
AcDbEntity
  8
0
  6
Continuous
 62
     0
370
     0
100
AcDbLine
 10
715.875194
 20
390.925118
 30
0.0
 11
735.595757
 21
396.686415
 31
0.0
  0
LINE
  5
4B2
330
457
100
AcDbEntity
  8
0
  6
Continuous
 62
     0
370
     0
100
AcDbLine
 10
735.581035
 20
357.270421
 30
0.0
 11
715.875194
 21
390.925118
 31
0.0
  0
LINE
  5
4B3
330
457
100
AcDbEntity
  8
0
  6
Continuous
 62
     0
370
     0
100
AcDbLine
 10
743.938638
 20
408.48789
 30
0.0
 11
716.457718
 21
393.034872
 31
0.0
  0
LINE
  5
4B4
330
457
100
AcDbEntity
  8
0
  6
Continuous
 62
     0
370
     0
100
AcDbLine
 10
716.457718
 20
393.034872
 30
0.0
 11
735.635113
 21
398.637485
 31
0.0
  0
LINE
  5
4B5
330
457
100
AcDbEntity
  8
0
  6
Continuous
 62
     0
370
     0
100
AcDbLine
 10
735.635113
 20
398.637485
 30
0.0
 11
743.938638
 21
408.48789
 31
0.0
  0
LINE
  5
4B6
330
457
100
AcDbEntity
  8
0
  6
Continuous
 62
     0
370
     0
100
AcDbLine
 10
736.650865
 20
398.366946
 30
0.0
 11
745.090002
 21
408.378228
 31
0.0
  0
LINE
  5
4B7
330
457
100
AcDbEntity
  8
0
  6
Continuous
 62
     0
370
     0
100
AcDbLine
 10
736.650865
 20
398.366946
 30
0.0
 11
764.573327
 21
394.594162
 31
0.0
  0
LINE
  5
4B8
330
457
100
AcDbEntity
  8
0
  6
Continuous
 62
     0
370
     0
100
AcDbLine
 10
745.090002
 20
408.378228
 30
0.0
 11
764.573327
 21
394.594162
 31
0.0
  0
LINE
  5
4B9
330
457
100
AcDbEntity
  8
0
  6
Continuous
 62
     0
370
     0
100
AcDbLine
 10
756.841157
 20
364.46439
 30
0.0
 11
737.678079
 21
397.192127
 31
0.0
  0
LINE
  5
4BA
330
457
100
AcDbEntity
  8
0
  6
Continuous
 62
     0
370
     0
100
AcDbLine
 10
756.841157
 20
364.46439
 30
0.0
 11
765.15184
 21
393.47997
 31
0.0
  0
LINE
  5
4BB
330
457
100
AcDbEntity
  8
0
  6
Continuous
 62
     0
370
     0
100
AcDbLine
 10
737.678079
 20
397.192127
 30
0.0
 11
765.15184
 21
393.47997
 31
0.0
  0
LINE
  5
4BC
330
457
100
AcDbEntity
  8
0
  6
Continuous
 62
     0
370
     0
100
AcDbLine
 10
757.291307
 20
363.116086
 30
0.0
 11
765.73772
 21
392.605548
 31
0.0
  0
LINE
  5
4BD
330
457
100
AcDbEntity
  8
0
  6
Continuous
 62
     0
370
     0
100
AcDbLine
 10
757.291307
 20
363.116086
 30
0.0
 11
765.730445
 21
373.127368
 31
0.0
  0
LINE
  5
4BE
330
457
100
AcDbEntity
  8
0
  6
Continuous
 62
     0
370
     0
100
AcDbLine
 10
765.73772
 20
392.605548
 30
0.0
 11
765.730445
 21
373.127368
 31
0.0
  0
LWPOLYLINE
  5
4BF
330
457
100
AcDbEntity
  8
0
  6
Continuous
 62
     0
370
     0
100
AcDbPolyline
 90
        3
 70
     0
 43
0.0
 10
735.255737
 20
357.418854
 10
735.340332
 20
357.335876
 10
735.581055
 20
357.270416
  0
LWPOLYLINE
  5
4C0
330
457
100
AcDbEntity
  8
0
  6
Continuous
 62
     0
370
     0
100
AcDbPolyline
 90
        3
 70
     0
 43
0.0
 10
715.732971
 20
390.760834
 10
715.747131
 20
390.798248
 10
715.875183
 20
390.92511
  0
ARC
  5
4C1
330
457
100
AcDbEntity
  8
0
  6
Continuous
 62
     0
370
     0
100
AcDbCircle
 10
764.772389
 20
373.151449
 30
0.0
 40
0.9521507034005587
100
AcDbArc
 50
319.83627
 51
325.530253
  0
ARC
  5
4C2
330
457
100
AcDbEntity
  8
0
  6
Continuous
 62
     0
370
     0
100
AcDbCircle
 10
764.716481
 20
373.181766
 30
0.0
 40
1.015422509189003
100
AcDbArc
 50
325.905415
 51
356.929107
  0
ARC
  5
4C3
330
457
100
AcDbEntity
  8
0
  6
Continuous
 62
     0
370
    30
100
AcDbCircle
 10
756.593695
 20
363.055216
 30
0.0
 40
0.7002625927750807
100
AcDbArc
 50
327.766489
 51
4.986708
  0
ARC
  5
4C4
330
457
100
AcDbEntity
  8
0
  6
Continuous
 62
     0
370
     0
100
AcDbCircle
 10
756.667947
 20
363.019451
 30
0.0
 40
0.6184493510042515
100
AcDbArc
 50
319.843541
 51
326.900166
  0
LWPOLYLINE
  5
4C5
330
457
100
AcDbEntity
  8
0
  6
Continuous
 62
     0
370
     0
100
AcDbPolyline
 90
        4
 70
     0
 43
0.0
 10
735.581055
 20
357.270416
 10
735.815369
 20
357.013733
 10
736.093872
 20
356.808868
 10
736.557617
 20
356.624359
  0
ARC
  5
4C6
330
457
100
AcDbEntity
  8
0
  6
Continuous
 62
     0
370
     0
100
AcDbCircle
 10
736.880128
 20
358.042972
 30
0.0
 40
1.454796117073505
100
AcDbArc
 50
257.191874
 51
286.140593
  0
ARC
  5
4C7
330
457
100
AcDbEntity
  8
0
  6
Continuous
 62
     0
370
     0
100
AcDbCircle
 10
756.326635
 20
363.105209
 30
0.0
 40
0.8606001435390817
100
AcDbArc
 50
248.168608
 51
286.246104
  0
LWPOLYLINE
  5
4C8
330
457
100
AcDbEntity
  8
0
  6
Continuous
 62
     0
370
     0
100
AcDbPolyline
 90
        4
 70
     0
 43
0.0
 10
756.006592
 20
362.306335
 10
755.763794
 20
362.438751
 10
755.54657
 20
362.638428
 10
755.301575
 20
363.031708
  0
ARC
  5
4C9
330
457
100
AcDbEntity
  8
0
  6
Continuous
 62
     0
370
     0
100
AcDbCircle
 10
765.284632
 20
373.374164
 30
0.0
 40
0.509566065994582
100
AcDbArc
 50
331.031642
 51
359.713147
  0
ARC
  5
4CA
330
457
100
AcDbEntity
  8
0
  6
Continuous
 62
     0
370
     0
100
AcDbCircle
 10
764.698263
 20
392.975288
 30
0.0
 40
1.103257883484558
100
AcDbArc
 50
340.419291
 51
0.413052
  0
ARC
  5
4CB
330
457
100
AcDbEntity
  8
0
  6
Continuous
 62
     0
370
     0
100
AcDbCircle
 10
754.265619
 20
362.727359
 30
0.0
 40
3.106553376494056
100
AcDbArc
 50
19.9123
 51
33.997069
  0
ARC
  5
4CC
330
457
100
AcDbEntity
  8
0
  6
Continuous
 62
     0
370
    30
100
AcDbCircle
 10
755.530478
 20
363.183084
 30
0.0
 40
1.762103290166086
100
AcDbArc
 50
357.821006
 51
19.987355
  0
LWPOLYLINE
  5
4CD
330
457
100
AcDbEntity
  8
0
  6
Continuous
 62
     0
370
     0
100
AcDbPolyline
 90
        3
 70
     0
 43
0.0
 10
765.737732
 20
392.60556
 10
765.718201
 20
392.718323
 10
765.565002
 20
393.037903
  0
ARC
  5
4CE
330
457
100
AcDbEntity
  8
0
  6
Continuous
 62
     0
370
     0
100
AcDbCircle
 10
763.685626
 20
391.695515
 30
0.0
 40
2.309558406162704
100
AcDbArc
 50
35.537543
 51
50.591456
  0
ARC
  5
4CF
330
457
100
AcDbEntity
  8
0
  6
Continuous
 62
     0
370
     0
100
AcDbCircle
 10
762.578477
 20
392.951632
 30
0.0
 40
2.627039584547811
100
AcDbArc
 50
11.602198
 51
26.407042
  0
ARC
  5
4D0
330
457
100
AcDbEntity
  8
0
  6
Continuous
 62
     0
370
     0
100
AcDbCircle
 10
763.534968
 20
393.437736
 30
0.0
 40
1.554190841069765
100
AcDbArc
 50
26.038819
 51
48.079215
  0
ARC
  5
4D1
330
457
100
AcDbEntity
  8
0
  6
Continuous
 62
     0
370
    30
100
AcDbCircle
 10
735.366161
 20
396.295294
 30
0.0
 40
2.437663850324171
100
AcDbArc
 50
40.008323
 51
58.195496
  0
ARC
  5
4D2
330
457
100
AcDbEntity
  8
0
  6
Continuous
 62
     0
370
     0
100
AcDbCircle
 10
734.523563
 20
395.581759
 30
0.0
 40
3.541787053540308
100
AcDbArc
 50
27.044138
 51
40.086423
  0
LWPOLYLINE
  5
4D3
330
457
100
AcDbEntity
  8
0
  6
Continuous
 62
     0
370
     0
100
AcDbPolyline
 90
        4
 70
     0
 43
0.0
 10
755.301575
 20
363.031708
 10
755.449951
 20
363.160034
 10
755.639099
 20
363.320374
 10
756.00708
 20
363.638123
  0
LWPOLYLINE
  5
4D4
330
457
100
AcDbEntity
  8
0
  6
Continuous
 62
     0
370
     0
100
AcDbPolyline
 90
        3
 70
     0
 43
0.0
 10
756.00708
 20
363.638123
 10
756.373962
 20
363.975037
 10
756.841187
 20
364.464386
  0
ARC
  5
4D5
330
457
100
AcDbEntity
  8
0
  6
Continuous
 62
     0
370
     0
100
AcDbCircle
 10
733.052003
 20
409.422485
 30
0.0
 40
13.0760170269599
100
AcDbArc
 50
285.619257
 51
290.71889
  0
LWPOLYLINE
  5
4D6
330
457
100
AcDbEntity
  8
0
  6
Continuous
 62
     0
370
     0
100
AcDbPolyline
 90
        4
 70
     0
 43
0.0
 10
736.572632
 20
396.829346
 10
736.265686
 20
396.754852
 10
735.981384
 20
396.704254
 10
735.595764
 20
396.686401
  0
LWPOLYLINE
  5
4D7
330
457
100
AcDbEntity
  8
0
  6
Continuous
 62
     0
370
     0
100
AcDbPolyline
 90
        3
 70
     0
 43
0.0
 10
764.573303
 20
394.594147
 10
764.808777
 20
394.565491
 10
765.09729
 20
394.41217
  0
LWPOLYLINE
  5
4D8
330
457
100
AcDbEntity
  8
0
  6
Continuous
 62
     0
370
     0
100
AcDbPolyline
 90
        3
 70
     0
 43
0.0
 10
745.356323
 20
408.383759
 10
745.291565
 20
408.410919
 10
745.090027
 20
408.378235
  0
ARC
  5
4D9
330
457
100
AcDbEntity
  8
0
  6
Continuous
 62
     0
370
     0
100
AcDbCircle
 10
735.89266
 20
397.782835
 30
0.0
 40
0.8926126682335179
100
AcDbArc
 50
74.624962
 51
106.770045
  0
ARC
  5
4DA
330
457
100
AcDbEntity
  8
0
  6
Continuous
 62
     0
370
    30
100
AcDbCircle
 10
735.779005
 20
397.352804
 30
0.0
 40
1.337394145176665
100
AcDbArc
 50
49.314303
 51
74.814741
  0
ARC
  5
4DB
330
457
100
AcDbEntity
  8
0
  6
Continuous
 62
     0
370
     0
100
AcDbCircle
 10
744.358793
 20
407.164462
 30
0.0
 40
1.417001734193554
100
AcDbArc
 50
58.933959
 51
84.254269
  0
ARC
  5
4DC
330
457
100
AcDbEntity
  8
0
  6
Continuous
 62
     0
370
     0
100
AcDbCircle
 10
744.387716
 20
407.43855
 30
0.0
 40
1.141395824641225
100
AcDbArc
 50
84.321395
 51
113.169109
  0
ARC
  5
4DD
330
457
100
AcDbEntity
  8
0
  6
Continuous
 62
     0
370
     0
100
AcDbCircle
 10
743.92335
 20
408.435393
 30
0.0
 40
0.0546779199112701
100
AcDbArc
 50
73.763413
 51
116.719872
  0
ARC
  5
4DE
330
457
100
AcDbEntity
  8
0
  6
Continuous
 62
     0
370
     0
100
AcDbCircle
 10
716.569656
 20
392.587107
 30
0.0
 40
0.4615453285621299
100
AcDbArc
 50
104.035832
 51
119.314316
  0
LWPOLYLINE
  5
4DF
330
457
100
AcDbEntity
  8
0
  6
Continuous
 62
     0
370
     0
100
AcDbPolyline
 90
        4
 70
     0
 43
0.0
 10
735.595764
 20
396.686401
 10
735.420044
 20
396.972137
 10
735.301697
 20
397.279724
 10
735.240479
 20
397.77179
  0
LWPOLYLINE
  5
4E0
330
457
100
AcDbEntity
  8
0
  6
Continuous
 62
     0
370
     0
100
AcDbPolyline
 90
        4
 70
     0
 43
0.0
 10
735.240479
 20
397.77179
 10
735.284058
 20
398.075623
 10
735.389832
 20
398.343689
 10
735.635132
 20
398.637482
  0
LWPOLYLINE
  5
4E1
330
457
100
AcDbEntity
  8
0
  6
Continuous
 62
     0
370
     0
100
AcDbPolyline
 90
        4
 70
     0
 43
0.0
 10
715.791504
 20
392.089844
 10
715.91394
 20
392.416473
 10
716.09845
 20
392.707428
 10
716.457703
 20
393.034882
  0
ARC
  5
4E2
330
457
100
AcDbEntity
  8
0
  6
Continuous
 62
     0
370
     0
100
AcDbCircle
 10
717.53161
 20
391.629493
 30
0.0
 40
1.799960705676396
100
AcDbArc
 50
165.181517
 51
203.037172
  0
LWPOLYLINE
  5
4E3
330
457
100
AcDbEntity
  8
0
  6
Continuous
 62
     0
370
     0
100
AcDbPolyline
 90
        3
 70
     0
 43
0.0
 10
715.791504
 20
392.089844
 10
715.637207
 20
392.048889
 10
715.545959
 20
391.963623
  0
ARC
  5
4E4
330
457
100
AcDbEntity
  8
0
  6
Continuous
 62
     0
370
     0
100
AcDbCircle
 10
736.420528
 20
356.955545
 30
0.0
 40
0.3584245535944775
100
AcDbArc
 50
255.982069
 51
292.48761
  0
LINE
  5
4E5
330
457
100
AcDbEntity
  8
0
  6
Continuous
 62
     0
370
     0
100
AcDbLine
 10
765.557366
 20
372.61256
 30
0.0
 11
765.574011
 21
372.633454
 31
0.0
  0
LWPOLYLINE
  5
4E6
330
457
100
AcDbEntity
  8
0
  6
Continuous
 62
     0
370
     0
100
AcDbPolyline
 90
        4
 70
     0
 43
0.0
 10
756.006592
 20
362.306335
 10
756.188477
 20
362.37262
 10
756.366028
 20
362.485443
 10
756.682556
 20
362.807343
  0
LWPOLYLINE
  5
4E7
330
457
100
AcDbEntity
  8
0
  6
Continuous
 62
     0
370
     0
100
AcDbPolyline
 90
        3
 70
     0
 43
0.0
 10
756.00708
 20
363.638123
 10
756.300537
 20
363.232788
 10
756.682556
 20
362.807343
  0
LWPOLYLINE
  5
4E8
330
457
100
AcDbEntity
  8
0
  6
Continuous
 62
     0
370
     0
100
AcDbPolyline
 90
        4
 70
     0
 43
0.0
 10
757.186462
 20
363.7854
 10
757.100525
 20
363.455688
 10
756.952759
 20
363.157898
 10
756.682556
 20
362.807343
  0
LWPOLYLINE
  5
4E9
330
457
100
AcDbEntity
  8
0
  6
Continuous
 62
     0
370
     0
100
AcDbPolyline
 90
        4
 70
     0
 43
0.0
 10
757.186035
 20
362.681702
 10
757.093506
 20
362.649658
 10
756.933411
 20
362.671906
 10
756.682556
 20
362.807343
  0
LWPOLYLINE
  5
4EA
330
457
100
AcDbEntity
  8
0
  6
Continuous
 62
     0
370
     0
100
AcDbPolyline
 90
        4
 70
     0
 43
0.0
 10
765.565002
 20
393.037903
 10
765.604065
 20
393.252594
 10
765.620056
 20
393.455933
 10
765.559265
 20
393.832367
  0
LWPOLYLINE
  5
4EB
330
457
100
AcDbEntity
  8
0
  6
Continuous
 62
     0
370
     0
100
AcDbPolyline
 90
        3
 70
     0
 43
0.0
 10
764.931396
 20
394.119995
 10
765.285767
 20
394.013855
 10
765.559265
 20
393.832367
  0
ARC
  5
4EC
330
457
100
AcDbEntity
  8
0
  6
Continuous
 62
     0
370
     0
100
AcDbCircle
 10
764.513338
 20
393.460801
 30
0.0
 40
1.109970436883177
100
AcDbArc
 50
19.558227
 51
48.074519
  0
ARC
  5
4ED
330
457
100
AcDbEntity
  8
0
  6
Continuous
 62
     0
370
     0
100
AcDbCircle
 10
765.057511
 20
393.349067
 30
0.0
 40
0.6966692880886645
100
AcDbArc
 50
18.25354
 51
43.927415
  0
ARC
  5
4EE
330
457
100
AcDbEntity
  8
0
  6
Continuous
 62
     0
370
     0
100
AcDbCircle
 10
742.830584
 20
400.032614
 30
0.0
 40
7.030141484110565
100
AcDbArc
 50
197.562235
 51
207.106697
  0
LWPOLYLINE
  5
4EF
330
457
100
AcDbEntity
  8
0
  6
Continuous
 62
     0
370
     0
100
AcDbPolyline
 90
        3
 70
     0
 43
0.0
 10
735.240479
 20
397.77179
 10
735.615906
 20
397.870239
 10
736.128113
 20
397.911316
  0
LWPOLYLINE
  5
4F0
330
457
100
AcDbEntity
  8
0
  6
Continuous
 62
     0
370
     0
100
AcDbPolyline
 90
        4
 70
     0
 43
0.0
 10
736.129333
 20
398.643494
 10
736.107849
 20
398.502014
 10
736.091431
 20
398.293976
 10
736.128113
 20
397.911316
  0
LWPOLYLINE
  5
4F1
330
457
100
AcDbEntity
  8
0
  6
Continuous
 62
     0
370
     0
100
AcDbPolyline
 90
        4
 70
     0
 43
0.0
 10
737.233276
 20
397.862457
 10
736.925171
 20
397.930634
 10
736.60675
 20
397.946594
 10
736.128113
 20
397.911316
  0
LWPOLYLINE
  5
4F2
330
457
100
AcDbEntity
  8
0
  6
Continuous
 62
     0
370
     0
100
AcDbPolyline
 90
        3
 70
     0
 43
0.0
 10
744.500671
 20
408.574341
 10
744.513489
 20
408.596832
 10
744.599548
 20
408.667206
  0
LWPOLYLINE
  5
4F3
330
457
100
AcDbEntity
  8
0
  6
Continuous
 62
     0
370
    30
100
AcDbPolyline
 90
        4
 70
     0
 43
0.0
 10
745.355652
 20
408.384247
 10
745.132385
 20
408.521637
 10
744.882751
 20
408.621521
 10
744.599548
 20
408.667175
  0
LWPOLYLINE
  5
4F4
330
457
100
AcDbEntity
  8
0
  6
Continuous
 62
     0
370
    30
100
AcDbPolyline
 90
        3
 70
     0
 43
0.0
 10
743.898682
 20
408.484344
 10
744.176697
 20
408.602814
 10
744.599426
 20
408.667175
  0
LINE
  5
4F5
330
457
100
AcDbEntity
  8
0
  6
Continuous
 62
     0
370
    30
100
AcDbLine
 10
736.567382
 20
398.432694
 30
0.0
 11
736.791438
 21
398.273856
 31
0.0
  0
ARC
  5
4F6
330
457
100
AcDbEntity
  8
0
  6
Continuous
 62
     0
370
    30
100
AcDbCircle
 10
763.8466
 20
393.004031
 30
0.0
 40
1.955403173603692
100
AcDbArc
 50
359.390911
 51
16.741123
  0
ARC
  5
4F7
330
457
100
AcDbEntity
  8
0
  6
Continuous
 62
     0
370
    30
100
AcDbCircle
 10
764.12735
 20
393.049603
 30
0.0
 40
1.673839378878627
100
AcDbArc
 50
18.029766
 51
47.163553
  0
ARC
  5
4F8
330
457
100
AcDbEntity
  8
0
  6
Continuous
 62
     0
370
    30
100
AcDbCircle
 10
763.806653
 20
392.690268
 30
0.0
 40
2.15545026227701
100
AcDbArc
 50
47.672697
 51
55.171683
  0
LWPOLYLINE
  5
4F9
330
457
100
AcDbEntity
  8
0
  6
Continuous
 62
     0
370
    30
100
AcDbPolyline
 90
        4
 70
     0
 43
0.0
 10
757.145325
 20
362.626251
 10
757.007996
 20
362.492706
 10
756.842346
 20
362.387787
 10
756.560669
 20
362.277008
  0
ARC
  5
4FA
330
457
100
AcDbEntity
  8
0
  6
Continuous
 62
     0
370
    30
100
AcDbCircle
 10
754.907683
 20
363.133967
 30
0.0
 40
2.387340314536976
100
AcDbArc
 50
357.007824
 51
2.211273
  0
LWPOLYLINE
  5
4FB
330
457
100
AcDbEntity
  8
0
  6
Continuous
 62
     0
370
    30
100
AcDbPolyline
 90
        3
 70
     0
 43
0.0
 10
765.794617
 20
373.371582
 10
765.751465
 20
373.014862
 10
765.574036
 20
372.633453
  0
ARC
  5
4FC
330
457
100
AcDbEntity
  8
0
  6
Continuous
 62
     0
370
    30
100
AcDbCircle
 10
764.437429
 20
373.431345
 30
0.0
 40
1.388668606617682
100
AcDbArc
 50
319.9244
 51
324.870026
  0
LWPOLYLINE
  5
4FD
330
457
100
AcDbEntity
  8
0
  6
Continuous
 62
     0
370
    30
100
AcDbPolyline
 90
        6
 70
     0
 43
0.0
 10
737.260986
 20
356.638824
 10
737.096069
 20
356.598846
 10
736.924072
 20
356.571228
 10
736.745361
 20
356.558838
 10
736.562927
 20
356.565735
 10
736.336426
 20
356.607025
  0
LWPOLYLINE
  5
4FE
330
457
100
AcDbEntity
  8
0
  6
Continuous
 62
     0
370
    30
100
AcDbPolyline
 90
        4
 70
     0
 43
0.0
 10
735.256104
 20
357.418243
 10
735.528503
 20
357.074707
 10
735.878601
 20
356.805115
 10
736.33606
 20
356.607147
  0
LWPOLYLINE
  5
4FF
330
457
100
AcDbEntity
  8
0
  6
Continuous
 62
     0
370
    30
100
AcDbPolyline
 90
        5
 70
     0
 43
0.0
 10
716.343628
 20
392.989624
 10
716.099365
 20
392.828918
 10
715.874634
 20
392.627014
 10
715.68689
 20
392.370605
 10
715.545959
 20
391.963776
  0
LWPOLYLINE
  5
500
330
457
100
AcDbEntity
  8
0
  6
Continuous
 62
     0
370
    30
100
AcDbPolyline
 90
        4
 70
     0
 43
0.0
 10
715.732971
 20
390.760864
 10
715.585815
 20
391.112976
 10
715.519897
 20
391.492218
 10
715.545959
 20
391.963623
  0
LINE
  5
501
330
457
100
AcDbEntity
  8
0
  6
Continuous
 62
     0
370
    30
100
AcDbLine
 10
743.898708
 20
408.484331
 30
0.0
 11
716.343645
 21
392.989621
 31
0.0
  0
LINE
  5
502
330
457
100
AcDbEntity
  8
0
  6
Continuous
 62
     0
370
    30
100
AcDbLine
 10
765.037218
 20
394.459939
 30
0.0
 11
745.356341
 21
408.38377
 31
0.0
  0
LINE
  5
503
330
457
100
AcDbEntity
  8
0
  6
Continuous
 62
     0
370
    30
100
AcDbLine
 10
765.794605
 20
373.371625
 30
0.0
 11
765.801926
 21
392.974757
 31
0.0
  0
LINE
  5
504
330
457
100
AcDbEntity
  8
0
  6
Continuous
 62
     0
370
    30
100
AcDbLine
 10
756.55704
 20
362.275921
 30
0.0
 11
737.284553
 21
356.645528
 31
0.0
  0
LINE
  5
505
330
457
100
AcDbEntity
  8
0
  6
Continuous
 62
     0
370
    30
100
AcDbLine
 10
765.500045
 20
372.537321
 30
0.0
 11
757.142375
 21
362.622684
 31
0.0
  0
LINE
  5
506
330
457
100
AcDbEntity
  8
0
  6
Continuous
 62
     0
370
    30
100
AcDbLine
 10
735.255712
 20
357.418855
 30
0.0
 11
715.73298
 21
390.760829
 31
0.0
  0
LWPOLYLINE
  5
507
330
457
100
AcDbEntity
  8
0
  6
Continuous
 62
     0
370
    30
100
AcDbPolyline
 90
        4
 70
     0
 43
0.0
 10
840.738525
 20
340.867676
 10
840.513672
 20
341.004333
 10
840.262451
 20
341.102966
 10
839.981689
 20
341.146332
  0
ARC
  5
508
330
457
100
AcDbEntity
  8
0
  6
Continuous
 62
     0
370
    30
100
AcDbCircle
 10
839.992159
 20
339.702036
 30
0.0
 40
1.444333066332704
100
AcDbArc
 50
90.420056
 51
119.335833
  0
LINE
  5
509
330
457
100
AcDbEntity
  8
0
  6
Continuous
 62
     0
370
    30
100
AcDbLine
 10
831.878991
 20
331.036055
 30
0.0
 11
832.10307
 21
330.878786
 31
0.0
  0
ARC
  5
50A
330
457
100
AcDbEntity
  8
0
  6
Continuous
 62
     0
370
    30
100
AcDbCircle
 10
859.232774
 20
325.622788
 30
0.0
 40
1.958001794650704
100
AcDbArc
 50
359.796361
 51
16.891468
  0
ARC
  5
50B
330
457
100
AcDbEntity
  8
0
  6
Continuous
 62
     0
370
    30
100
AcDbCircle
 10
859.515481
 20
325.670418
 30
0.0
 40
1.674052423711047
100
AcDbArc
 50
18.157672
 51
47.258622
  0
ARC
  5
50C
330
457
100
AcDbEntity
  8
0
  6
Continuous
 62
     0
370
    30
100
AcDbCircle
 10
859.201427
 20
325.316014
 30
0.0
 40
2.147548139930137
100
AcDbArc
 50
47.771584
 51
55.462024
  0
LWPOLYLINE
  5
50D
330
457
100
AcDbEntity
  8
0
  6
Continuous
 62
     0
370
    30
100
AcDbPolyline
 90
        3
 70
     0
 43
0.0
 10
852.598999
 20
295.258087
 10
852.363892
 20
295.06131
 10
852.03833
 20
294.920898
  0
ARC
  5
50E
330
457
100
AcDbEntity
  8
0
  6
Continuous
 62
     0
370
    30
100
AcDbCircle
 10
850.279593
 20
295.76453
 30
0.0
 40
2.474367422461762
100
AcDbArc
 50
357.505231
 51
2.552015
  0
LWPOLYLINE
  5
50F
330
457
100
AcDbEntity
  8
0
  6
Continuous
 62
     0
370
    30
100
AcDbPolyline
 90
        3
 70
     0
 43
0.0
 10
861.323975
 20
305.903351
 10
861.282349
 20
305.541168
 10
861.10907
 20
305.162964
  0
ARC
  5
510
330
457
100
AcDbEntity
  8
0
  6
Continuous
 62
     0
370
    30
100
AcDbCircle
 10
859.953856
 20
305.964228
 30
0.0
 40
1.405862640399023
100
AcDbArc
 50
319.401878
 51
325.20509
  0
LWPOLYLINE
  5
511
330
457
100
AcDbEntity
  8
0
  6
Continuous
 62
     0
370
    30
100
AcDbPolyline
 90
        6
 70
     0
 43
0.0
 10
832.884399
 20
289.049133
 10
832.712891
 20
289.005157
 10
832.532776
 20
288.974487
 10
832.345398
 20
288.960663
 10
832.15387
 20
288.968292
 10
831.938721
 20
289.008026
  0
LWPOLYLINE
  5
512
330
457
100
AcDbEntity
  8
0
  6
Continuous
 62
     0
370
    30
100
AcDbPolyline
 90
        4
 70
     0
 43
0.0
 10
830.858887
 20
289.813812
 10
831.131348
 20
289.472565
 10
831.480835
 20
289.204956
 10
831.938354
 20
289.008148
  0
LWPOLYLINE
  5
513
330
457
100
AcDbEntity
  8
0
  6
Continuous
 62
     0
370
    30
100
AcDbPolyline
 90
        5
 70
     0
 43
0.0
 10
811.801636
 20
325.350769
 10
811.55719
 20
325.188293
 10
811.332703
 20
324.984924
 10
811.145142
 20
324.727234
 10
811.004822
 20
324.319305
  0
LWPOLYLINE
  5
514
330
457
100
AcDbEntity
  8
0
  6
Continuous
 62
     0
370
    30
100
AcDbPolyline
 90
        4
 70
     0
 43
0.0
 10
811.196167
 20
323.11499
 10
811.047485
 20
323.467285
 10
810.980164
 20
323.847046
 10
811.004822
 20
324.319183
  0
LINE
  5
515
330
457
100
AcDbEntity
  8
0
  6
Continuous
 62
     0
370
    30
100
AcDbLine
 10
839.284544
 20
340.96115
 30
0.0
 11
811.801631
 21
325.350761
 31
0.0
  0
LINE
  5
516
330
457
100
AcDbEntity
  8
0
  6
Continuous
 62
     0
370
    30
100
AcDbLine
 10
860.418607
 20
327.085336
 30
0.0
 11
840.739207
 21
340.86718
 31
0.0
  0
LINE
  5
517
330
457
100
AcDbEntity
  8
0
  6
Continuous
 62
     0
370
    30
100
AcDbLine
 10
861.323979
 20
305.903394
 30
0.0
 11
861.190856
 21
325.607529
 31
0.0
  0
LINE
  5
518
330
457
100
AcDbEntity
  8
0
  6
Continuous
 62
     0
370
    30
100
AcDbLine
 10
852.035478
 20
294.920001
 30
0.0
 11
832.904505
 21
289.055151
 31
0.0
  0
LINE
  5
519
330
457
100
AcDbEntity
  8
0
  6
Continuous
 62
     0
370
    30
100
AcDbLine
 10
861.021436
 20
305.049492
 30
0.0
 11
852.596611
 21
295.255252
 31
0.0
  0
LINE
  5
51A
330
457
100
AcDbEntity
  8
0
  6
Continuous
 62
     0
370
    30
100
AcDbLine
 10
830.858526
 20
289.8144
 30
0.0
 11
811.19619
 21
323.114951
 31
0.0
  0
LINE
  5
51B
330
457
100
AcDbEntity
  8
0
  6
Continuous
 62
     0
370
    30
100
AcDbLine
 10
770.64352
 20
191.606178
 30
0.0
 11
775.302493
 21
194.900569
 31
0.0
  0
LINE
  5
51C
330
457
100
AcDbEntity
  8
0
  6
Continuous
 62
     0
370
    30
100
AcDbLine
 10
775.302493
 20
202.678743
 30
0.0
 11
770.642506
 21
199.383635
 31
0.0
  0
LINE
  5
51D
330
457
100
AcDbEntity
  8
0
  6
Continuous
 62
     0
370
    30
100
AcDbLine
 10
770.64167
 20
205.974443
 30
0.0
 11
775.302493
 21
202.678743
 31
0.0
  0
LINE
  5
51E
330
457
100
AcDbEntity
  8
0
  6
Continuous
 62
     0
370
    30
100
AcDbLine
 10
775.302493
 20
202.678743
 30
0.0
 11
775.302493
 21
194.900569
 31
0.0
  0
LWPOLYLINE
  5
51F
330
457
100
AcDbEntity
  8
0
  6
Continuous
 62
     0
370
    30
100
AcDbPolyline
 90
        4
 70
     0
 43
0.0
 10
770.62677
 20
228.082031
 10
770.636475
 20
227.885696
 10
770.594788
 20
227.69136
 10
770.402222
 20
227.374878
  0
ARC
  5
520
330
457
100
AcDbEntity
  8
0
  6
Continuous
 62
     0
370
     0
100
AcDbCircle
 10
889034.999433
 20
345.35161
 30
0.0
 40
888264.6050446779
100
AcDbArc
 50
180.00761
 51
180.013082
  0
LWPOLYLINE
  5
521
330
457
100
AcDbEntity
  8
0
  6
Continuous
 62
     0
370
    30
100
AcDbPolyline
 90
        3
 70
     0
 43
0.0
 10
770.417542
 20
142.535034
 10
770.572021
 20
142.764832
 10
770.65094
 20
143.103256
  0
ARC
  5
522
330
457
100
AcDbEntity
  8
0
  6
Continuous
 62
     0
370
     0
100
AcDbCircle
 10
746.463257
 20
184.078309
 30
0.0
 40
2.114154057700282
100
AcDbArc
 50
311.063609
 51
334.251304
  0
ARC
  5
523
330
457
100
AcDbEntity
  8
0
  6
Continuous
 62
     0
370
     0
100
AcDbCircle
 10
746.456076
 20
184.081419
 30
0.0
 40
2.121218632393534
100
AcDbArc
 50
289.169693
 51
311.154651
  0
LINE
  5
524
330
457
100
AcDbEntity
  8
0
  6
Continuous
 62
     0
370
     0
100
AcDbLine
 10
747.152615
 20
182.077822
 30
0.0
 11
757.259675
 21
128.783755
 31
0.0
  0
LWPOLYLINE
  5
525
330
457
100
AcDbEntity
  8
0
  6
Continuous
 62
     0
370
    30
100
AcDbPolyline
 90
        4
 70
     0
 43
0.0
 10
757.259705
 20
128.783752
 10
757.755676
 20
128.846237
 10
758.195862
 20
129.019485
 10
758.542236
 20
129.292068
  0
LINE
  5
526
330
457
100
AcDbEntity
  8
0
  6
Continuous
 62
     0
370
     0
100
AcDbLine
 10
758.542209
 20
129.292066
 30
0.0
 11
748.367492
 21
183.159868
 31
0.0
  0
LWPOLYLINE
  5
527
330
457
100
AcDbEntity
  8
0
  6
Continuous
 62
     0
370
    30
100
AcDbPolyline
 90
        6
 70
     0
 43
0.0
 10
711.400513
 20
129.388916
 10
711.520935
 20
129.122055
 10
711.736206
 20
128.887634
 10
712.031738
 20
128.70314
 10
712.388306
 20
128.580795
 10
712.87207
 20
128.526703
  0
ARC
  5
528
330
457
100
AcDbEntity
  8
0
  6
Continuous
 62
     0
370
     0
100
AcDbCircle
 10
78160.956567
 20
19743.943116
 30
0.0
 40
79893.49378737119
100
AcDbArc
 50
194.18075
 51
194.212541
  0
LWPOLYLINE
  5
529
330
457
100
AcDbEntity
  8
0
  6
Continuous
 62
     0
370
     0
100
AcDbPolyline
 90
        3
 70
     0
 43
0.0
 10
702.000183
 20
171.50267
 10
701.5672
 20
171.529037
 10
701.134338
 20
171.679626
  0
LWPOLYLINE
  5
52A
330
457
100
AcDbEntity
  8
0
  6
Continuous
 62
     0
370
    30
100
AcDbPolyline
 90
       19
 70
     0
 43
0.0
 10
701.134338
 20
171.679626
 10
701.141357
 20
171.624252
 10
701.14801
 20
171.569183
 10
701.153992
 20
171.514679
 10
701.159363
 20
171.460632
 10
701.164062
 20
171.407135
 10
701.166504
 20
171.355591
 10
701.16687
 20
171.305267
 10
701.164673
 20
171.255814
 10
701.137085
 20
171.234238
 10
701.086609
 20
171.30983
 10
701.054871
 20
171.383713
 10
701.027039
 20
171.453506
 10
701.001404
 20
171.521576
 10
700.977661
 20
171.588593
 10
700.95459
 20
171.655228
 10
700.932129
 20
171.721466
 10
700.910339
 20
171.787262
 10
700.888367
 20
171.85466
  0
ARC
  5
52B
330
457
100
AcDbEntity
  8
0
  6
Continuous
 62
     0
370
     0
100
AcDbCircle
 10
701.587856
 20
172.618001
 30
0.0
 40
1.03537543654416
100
AcDbArc
 50
211.291751
 51
227.499
  0
ARC
  5
52C
330
457
100
AcDbEntity
  8
0
  6
Continuous
 62
     0
370
    30
100
AcDbCircle
 10
731.979569
 20
253.265668
 30
0.0
 40
2.016220695342827
100
AcDbArc
 50
84.484528
 51
113.563677
  0
LINE
  5
52D
330
457
100
AcDbEntity
  8
0
  6
Continuous
 62
     0
370
    30
100
AcDbLine
 10
730.728292
 20
199.19475
 30
0.0
 11
730.73535
 21
199.187749
 31
0.0
  0
LINE
  5
52E
330
457
100
AcDbEntity
  8
0
  6
Continuous
 62
     0
370
    30
100
AcDbLine
 10
717.739215
 20
182.034148
 30
0.0
 11
730.728292
 21
199.19475
 31
0.0
  0
LINE
  5
52F
330
457
100
AcDbEntity
  8
0
  6
Continuous
 62
     0
370
     0
100
AcDbLine
 10
717.954975
 20
181.929907
 30
0.0
 11
717.739215
 21
182.034148
 31
0.0
  0
ARC
  5
530
330
457
100
AcDbEntity
  8
0
  6
Continuous
 62
     0
370
     0
100
AcDbCircle
 10
-84893.453886
 20
64931.976381
 30
0.0
 40
107340.0290924392
100
AcDbArc
 50
322.898873
 51
322.910662
  0
ARC
  5
531
330
457
100
AcDbEntity
  8
0
  6
Continuous
 62
     0
370
    30
100
AcDbCircle
 10
725.804398
 20
207.212495
 30
0.0
 40
9.41864291134858
100
AcDbArc
 50
301.569408
 51
305.512186
  0
LINE
  5
532
330
457
100
AcDbEntity
  8
0
  6
Continuous
 62
     0
370
    30
100
AcDbLine
 10
674.859098
 20
212.34864
 30
0.0
 11
691.31226
 21
227.054787
 31
0.0
  0
ARC
  5
533
330
457
100
AcDbEntity
  8
0
  6
Continuous
 62
     0
370
    30
100
AcDbCircle
 10
696.907404
 20
220.245299
 30
0.0
 40
8.812647067792007
100
AcDbArc
 50
125.169605
 51
129.414855
  0
LINE
  5
534
330
457
100
AcDbEntity
  8
0
  6
Continuous
 62
     0
370
    30
100
AcDbLine
 10
741.676002
 20
248.867942
 30
0.0
 11
761.573195
 21
234.798501
 31
0.0
  0
ARC
  5
535
330
457
100
AcDbEntity
  8
0
  6
Continuous
 62
     0
370
     0
100
AcDbCircle
 10
65088.127341
 20
-274634.830841
 30
0.0
 40
282248.2848700266
100
AcDbArc
 50
103.176926
 51
103.18634
  0
ARC
  5
536
330
457
100
AcDbEntity
  8
0
  6
Continuous
 62
     0
370
    30
100
AcDbCircle
 10
-317.117367
 20
181812.687896
 30
0.0
 40
181687.0807437925
100
AcDbArc
 50
270.324813
 51
270.338811
  0
LINE
  5
537
330
457
100
AcDbEntity
  8
0
  6
Continuous
 62
     0
370
    30
100
AcDbLine
 10
770.402223
 20
227.37488
 30
0.0
 11
770.277523
 21
227.237174
 31
0.0
  0
LINE
  5
538
330
457
100
AcDbEntity
  8
0
  6
Continuous
 62
     0
370
     0
100
AcDbLine
 10
770.277523
 20
227.237174
 30
0.0
 11
748.367492
 21
183.159868
 31
0.0
  0
LINE
  5
539
330
457
100
AcDbEntity
  8
0
  6
Continuous
 62
     0
370
    30
100
AcDbLine
 10
758.542209
 20
129.292066
 30
0.0
 11
770.417543
 21
142.535028
 31
0.0
  0
LINE
  5
53A
330
457
100
AcDbEntity
  8
0
  6
Continuous
 62
     0
370
    30
100
AcDbLine
 10
731.173549
 20
255.113768
 30
0.0
 11
730.978859
 21
255.02562
 31
0.0
  0
LINE
  5
53B
330
457
100
AcDbEntity
  8
0
  6
Continuous
 62
     0
370
    30
100
AcDbLine
 10
674.329925
 20
210.723627
 30
0.0
 11
674.514915
 21
210.453257
 31
0.0
  0
LINE
  5
53C
330
457
100
AcDbEntity
  8
0
  6
Continuous
 62
     0
370
     0
100
AcDbLine
 10
701.762481
 20
171.771419
 30
0.0
 11
746.705021
 21
182.279432
 31
0.0
  0
LINE
  5
53D
330
457
100
AcDbEntity
  8
0
  6
Continuous
 62
     0
370
     0
100
AcDbLine
 10
746.705021
 20
182.279432
 30
0.0
 11
716.597755
 21
180.835252
 31
0.0
  0
LINE
  5
53E
330
457
100
AcDbEntity
  8
0
  6
Continuous
 62
     0
370
     0
100
AcDbLine
 10
716.597755
 20
180.835252
 30
0.0
 11
701.762481
 21
171.771419
 31
0.0
  0
LINE
  5
53F
330
457
100
AcDbEntity
  8
0
  6
Continuous
 62
     0
370
     0
100
AcDbLine
 10
717.954921
 20
181.929928
 30
0.0
 11
748.142273
 21
183.370087
 31
0.0
  0
LINE
  5
540
330
457
100
AcDbEntity
  8
0
  6
Continuous
 62
     0
370
     0
100
AcDbLine
 10
748.142273
 20
183.370087
 30
0.0
 11
769.682093
 21
226.711129
 31
0.0
  0
LWPOLYLINE
  5
541
330
457
100
AcDbEntity
  8
0
  6
Continuous
 62
     0
370
    30
100
AcDbPolyline
 90
        5
 70
     0
 43
0.0
 10
769.682068
 20
226.711136
 10
760.534912
 20
220.242706
 10
751.388062
 20
213.774124
 10
742.24176
 20
207.305359
 10
731.275452
 20
199.545807
  0
LINE
  5
542
330
457
100
AcDbEntity
  8
0
  6
Continuous
 62
     0
370
    30
100
AcDbLine
 10
730.234786
 20
254.604498
 30
0.0
 11
691.831308
 21
227.449236
 31
0.0
  0
ARC
  5
543
330
457
100
AcDbEntity
  8
0
  6
Continuous
 62
     0
370
    30
100
AcDbCircle
 10
732.839679
 20
250.869877
 30
0.0
 40
4.553333649728941
100
AcDbArc
 50
114.121431
 51
124.89572
  0
ARC
  5
544
330
457
100
AcDbEntity
  8
0
  6
Continuous
 62
     0
370
     0
100
AcDbCircle
 10
715.838089
 20
183.07165
 30
0.0
 40
2.405155055215384
100
AcDbArc
 50
309.96635
 51
331.659182
  0
ARC
  5
545
330
457
100
AcDbEntity
  8
0
  6
Continuous
 62
     0
370
     0
100
AcDbCircle
 10
716.155083
 20
182.700626
 30
0.0
 40
1.917182694077738
100
AcDbArc
 50
283.349904
 51
309.828015
  0
ARC
  5
546
330
457
100
AcDbEntity
  8
0
  6
Continuous
 62
     0
370
     0
100
AcDbCircle
 10
746.242885
 20
184.311274
 30
0.0
 40
2.083879914180694
100
AcDbArc
 50
282.817089
 51
308.107954
  0
ARC
  5
547
330
457
100
AcDbEntity
  8
0
  6
Continuous
 62
     0
370
     0
100
AcDbCircle
 10
745.946502
 20
184.679057
 30
0.0
 40
2.556189008685437
100
AcDbArc
 50
308.247678
 51
329.198962
  0
ARC
  5
548
330
457
100
AcDbEntity
  8
0
  6
Continuous
 62
     0
370
     0
100
AcDbCircle
 10
746.596464
 20
181.439408
 30
0.0
 40
2.47321805175078
100
AcDbArc
 50
47.294047
 51
51.320923
  0
ARC
  5
549
330
457
100
AcDbEntity
  8
0
  6
Continuous
 62
     0
370
     0
100
AcDbCircle
 10
747.538285
 20
182.453282
 30
0.0
 40
1.089410713389852
100
AcDbArc
 50
40.43674
 51
47.527878
  0
ARC
  5
54A
330
457
100
AcDbEntity
  8
0
  6
Continuous
 62
     0
370
    30
100
AcDbCircle
 10
767.633199
 20
229.629955
 30
0.0
 40
3.566192789375731
100
AcDbArc
 50
305.06742
 51
317.858766
  0
ARC
  5
54B
330
457
100
AcDbEntity
  8
0
  6
Continuous
 62
     0
370
    30
100
AcDbCircle
 10
-4563.983844
 20
-7256.920355
 30
0.0
 40
9191.674731038363
100
AcDbArc
 50
54.744435
 51
54.810394
  0
ARC
  5
54C
330
457
100
AcDbEntity
  8
0
  6
Continuous
 62
     0
370
    30
100
AcDbCircle
 10
-4540.363399
 20
-7260.81612
 30
0.0
 40
9181.218338810035
100
AcDbArc
 50
54.660791
 51
54.726761
  0
ARC
  5
54D
330
457
100
AcDbEntity
  8
0
  6
Continuous
 62
     0
370
     0
100
AcDbCircle
 10
746.487422
 20
181.294147
 30
0.0
 40
1.027914396179164
100
AcDbArc
 50
49.674928
 51
64.815101
  0
ARC
  5
54E
330
457
100
AcDbEntity
  8
0
  6
Continuous
 62
     0
370
     0
100
AcDbCircle
 10
746.675973
 20
181.697366
 30
0.0
 40
0.5827902619928211
100
AcDbArc
 50
64.720862
 51
87.143027
  0
ARC
  5
54F
330
457
100
AcDbEntity
  8
0
  6
Continuous
 62
     0
370
     0
100
AcDbCircle
 10
701.659032
 20
171.512567
 30
0.0
 40
0.2787591886749825
100
AcDbArc
 50
38.483691
 51
68.216184
  0
ARC
  5
550
330
457
100
AcDbEntity
  8
0
  6
Continuous
 62
     0
370
     0
100
AcDbCircle
 10
701.130976
 20
171.052794
 30
0.0
 40
0.9787266177441152
100
AcDbArc
 50
27.365205
 51
40.316268
  0
ARC
  5
551
330
457
100
AcDbEntity
  8
0
  6
Continuous
 62
     0
370
     0
100
AcDbCircle
 10
716.224957
 20
182.680167
 30
0.0
 40
1.882204069920052
100
AcDbArc
 50
275.339682
 51
281.423814
  0
LINE
  5
552
330
457
100
AcDbEntity
  8
0
  6
Continuous
 62
     0
370
    30
100
AcDbLine
 10
716.400115
 20
180.806131
 30
0.0
 11
701.589802
 21
171.757542
 31
0.0
  0
ARC
  5
553
330
457
100
AcDbEntity
  8
0
  6
Continuous
 62
     0
370
     0
100
AcDbCircle
 10
701.562866
 20
173.174041
 30
0.0
 40
1.41675518123491
100
AcDbArc
 50
271.089376
 51
278.099402
  0
LINE
  5
554
330
457
100
AcDbEntity
  8
0
  6
Continuous
 62
     0
370
    30
100
AcDbLine
 10
699.668305
 20
173.532322
 30
0.0
 11
700.211645
 21
172.73498
 31
0.0
  0
LINE
  5
555
330
457
100
AcDbEntity
  8
0
  6
Continuous
 62
     0
370
    30
100
AcDbLine
 10
674.514915
 20
210.453257
 30
0.0
 11
686.426315
 21
192.96749
 31
0.0
  0
LWPOLYLINE
  5
556
330
457
100
AcDbEntity
  8
0
  6
Continuous
 62
     0
370
    30
100
AcDbPolyline
 90
        3
 70
     0
 43
0.0
 10
732.17334
 20
255.272552
 10
732.600342
 20
255.185181
 10
733.031799
 20
254.970856
  0
LWPOLYLINE
  5
557
330
457
100
AcDbEntity
  8
0
  6
Continuous
 62
     0
370
    30
100
AcDbPolyline
 90
        5
 70
     0
 43
0.0
 10
674.329895
 20
210.723663
 10
674.264648
 20
210.843399
 10
674.223145
 20
210.951004
 10
674.197693
 20
211.048401
 10
674.192505
 20
211.160431
  0
ARC
  5
558
330
457
100
AcDbEntity
  8
0
  6
Continuous
 62
     0
370
    30
100
AcDbCircle
 10
675.829212
 20
211.052548
 30
0.0
 40
1.640258823751488
100
AcDbArc
 50
169.908891
 51
176.228955
  0
LWPOLYLINE
  5
559
330
457
100
AcDbEntity
  8
0
  6
Continuous
 62
     0
370
    30
100
AcDbPolyline
 90
        5
 70
     0
 43
0.0
 10
674.214355
 20
211.339951
 10
674.288635
 20
211.587753
 10
674.412292
 20
211.825058
 10
674.572144
 20
212.047913
 10
674.859009
 20
212.34874
  0
LWPOLYLINE
  5
55A
330
457
100
AcDbEntity
  8
0
  6
Continuous
 62
     0
370
     0
100
AcDbPolyline
 90
        3
 70
     0
 43
0.0
 10
716.739075
 20
181.268951
 10
716.945435
 20
181.228699
 10
717.382996
 20
181.228287
  0
ARC
  5
55B
330
457
100
AcDbEntity
  8
0
  6
Continuous
 62
     0
370
    30
100
AcDbCircle
 10
715.983889
 20
183.565817
 30
0.0
 40
2.417830394214418
100
AcDbArc
 50
278.754841
 51
288.200654
  0
LWPOLYLINE
  5
55C
330
457
100
AcDbEntity
  8
0
  6
Continuous
 62
     0
370
    30
100
AcDbPolyline
 90
        5
 70
     0
 43
0.0
 10
716.400085
 20
180.806122
 10
716.426331
 20
180.857727
 10
716.427002
 20
180.932846
 10
716.410339
 20
181.0224
 10
716.351929
 20
181.176163
  0
LWPOLYLINE
  5
55D
330
457
100
AcDbEntity
  8
0
  6
Continuous
 62
     0
370
    30
100
AcDbPolyline
 90
        4
 70
     0
 43
0.0
 10
716.739075
 20
181.268951
 10
717.116516
 20
181.451675
 10
717.444336
 20
181.708389
 10
717.739197
 20
182.034149
  0
LWPOLYLINE
  5
55E
330
457
100
AcDbEntity
  8
0
  6
Continuous
 62
     0
370
     0
100
AcDbPolyline
 90
        3
 70
     0
 43
0.0
 10
747.650818
 20
182.649628
 10
747.72998
 20
182.587097
 10
747.852051
 20
182.484268
  0
LWPOLYLINE
  5
55F
330
457
100
AcDbEntity
  8
0
  6
Continuous
 62
     0
370
     0
100
AcDbPolyline
 90
        4
 70
     0
 43
0.0
 10
746.924866
 20
182.22435
 10
747.127319
 20
182.295746
 10
747.315125
 20
182.401947
 10
747.650818
 20
182.649628
  0
LWPOLYLINE
  5
560
330
457
100
AcDbEntity
  8
0
  6
Continuous
 62
     0
370
     0
100
AcDbPolyline
 90
        3
 70
     0
 43
0.0
 10
747.52887
 20
182.671661
 10
747.575806
 20
182.661804
 10
747.650818
 20
182.649628
  0
LWPOLYLINE
  5
561
330
457
100
AcDbEntity
  8
0
  6
Continuous
 62
     0
370
     0
100
AcDbPolyline
 90
        4
 70
     0
 43
0.0
 10
748.273865
 20
183.256836
 10
748.136047
 20
183.056412
 10
747.964111
 20
182.890045
 10
747.650818
 20
182.649628
  0
LWPOLYLINE
  5
562
330
457
100
AcDbEntity
  8
0
  6
Continuous
 62
     0
370
    30
100
AcDbPolyline
 90
        4
 70
     0
 43
0.0
 10
770.62677
 20
228.082031
 10
770.574829
 20
228.252151
 10
770.482788
 20
228.413605
 10
770.200134
 20
228.688889
  0
LWPOLYLINE
  5
563
330
457
100
AcDbEntity
  8
0
  6
Continuous
 62
     0
370
    30
100
AcDbPolyline
 90
        6
 70
     0
 43
0.0
 10
700.510803
 20
172.318878
 10
700.576416
 20
172.227921
 10
700.651123
 20
172.138535
 10
700.729309
 20
172.05127
 10
700.80719
 20
171.964523
 10
700.888306
 20
171.85463
  0
LWPOLYLINE
  5
564
330
457
100
AcDbEntity
  8
0
  6
Continuous
 62
     0
370
    30
100
AcDbPolyline
 90
        3
 70
     0
 43
0.0
 10
700.21167
 20
172.734985
 10
700.29071
 20
172.624008
 10
700.510803
 20
172.318878
  0
LWPOLYLINE
  5
565
330
457
100
AcDbEntity
  8
0
  6
Continuous
 62
     0
370
    30
100
AcDbPolyline
 90
        3
 70
     0
 43
0.0
 10
701.402893
 20
171.684952
 10
701.481628
 20
171.718048
 10
701.589783
 20
171.757553
  0
ARC
  5
566
330
457
100
AcDbEntity
  8
0
  6
Continuous
 62
     0
370
     0
100
AcDbCircle
 10
701.635863
 20
173.508531
 30
0.0
 40
1.838409223193749
100
AcDbArc
 50
262.71875
 51
277.54453
  0
LWPOLYLINE
  5
567
330
457
100
AcDbEntity
  8
0
  6
Continuous
 62
     0
370
    30
100
AcDbPolyline
 90
        7
 70
     0
 43
0.0
 10
701.134277
 20
171.679611
 10
701.165039
 20
171.697021
 10
701.214417
 20
171.689957
 10
701.266235
 20
171.679276
 10
701.316589
 20
171.670837
 10
701.362061
 20
171.669556
 10
701.402893
 20
171.684952
  0
LINE
  5
568
330
457
100
AcDbEntity
  8
0
  6
Continuous
 62
     0
370
    30
100
AcDbLine
 10
730.728008
 20
199.194822
 30
0.0
 11
730.689454
 21
199.189765
 31
0.0
  0
LINE
  5
569
330
457
100
AcDbEntity
  8
0
  6
Continuous
 62
     0
370
    30
100
AcDbLine
 10
691.313785
 20
227.032567
 30
0.0
 11
691.312261
 21
227.054787
 31
0.0
  0
LINE
  5
56A
330
457
100
AcDbEntity
  8
0
  6
Continuous
 62
     0
370
    30
100
AcDbLine
 10
691.313785
 20
227.032567
 30
0.0
 11
730.689454
 21
199.189765
 31
0.0
  0
LINE
  5
56B
330
457
100
AcDbEntity
  8
0
  6
Continuous
 62
     0
370
    30
100
AcDbLine
 10
716.351982
 20
181.176246
 30
0.0
 11
674.192504
 21
211.160429
 31
0.0
  0
LWPOLYLINE
  5
56C
330
457
100
AcDbEntity
  8
0
  6
Continuous
 62
     0
370
    30
100
AcDbPolyline
 90
       17
 70
     0
 43
0.0
 10
689.066589
 20
192.259567
 10
688.844727
 20
193.008606
 10
688.706421
 20
193.691833
 10
688.64917
 20
194.333313
 10
688.682373
 20
194.918365
 10
688.813782
 20
195.431335
 10
689.048279
 20
195.857391
 10
689.387573
 20
196.18364
 10
689.829346
 20
196.400055
 10
690.367554
 20
196.500336
 10
690.99231
 20
196.482376
 10
691.690796
 20
196.34845
 10
692.447815
 20
196.10495
 10
693.247009
 20
195.761749
 10
694.07196
 20
195.33139
 10
694.90686
 20
194.828064
 10
695.759705
 20
194.250885
  0
LWPOLYLINE
  5
56D
330
457
100
AcDbEntity
  8
0
  6
Continuous
 62
     0
370
    30
100
AcDbPolyline
 90
       26
 70
     0
 43
0.0
 10
695.759705
 20
194.250885
 10
696.603455
 20
193.621597
 10
697.485901
 20
192.904175
 10
698.395569
 20
192.101974
 10
699.318604
 20
191.221893
 10
700.239075
 20
190.274384
 10
701.139893
 20
189.27327
 10
702.00354
 20
188.235229
 10
702.813477
 20
187.178864
 10
703.554688
 20
186.123688
 10
704.215027
 20
185.088898
 10
704.785706
 20
184.092255
 10
705.261475
 20
183.149109
 10
705.640869
 20
182.271805
 10
705.925598
 20
181.469238
 10
706.1203
 20
180.746613
 10
706.235107
 20
180.076828
 10
706.266541
 20
179.452148
 10
706.205505
 20
178.888168
 10
706.045166
 20
178.400269
 10
705.781372
 20
178.002716
 10
705.413757
 20
177.707581
 10
704.945496
 20
177.523804
 10
704.383789
 20
177.456512
 10
703.739258
 20
177.506577
 10
703.002808
 20
177.677277
  0
ELLIPSE
  5
56E
330
457
100
AcDbEntity
  8
0
  6
Continuous
 62
     0
370
    30
100
AcDbEllipse
 10
684.20654
 20
172.260333
 30
0.0
 11
-10.05125901297648
 21
8.085925565701132
 31
0.0
210
0.0
220
0.0
230
-0.9999999999999998
 40
0.102308
 41
0.4257752000310364
 42
3.517353016831298
  0
ELLIPSE
  5
56F
330
457
100
AcDbEntity
  8
0
  6
Continuous
 62
     0
370
    30
100
AcDbEllipse
 10
684.20654
 20
172.260333
 30
0.0
 11
-10.05125901297648
 21
8.085925565701132
 31
0.0
210
0.0
220
0.0
230
-0.9999999999999998
 40
0.102308
 41
5.907424942632919
 42
6.708960507210623
  0
ELLIPSE
  5
570
330
457
100
AcDbEntity
  8
0
  6
Continuous
 62
     0
370
    30
100
AcDbEllipse
 10
688.851816
 20
178.034671
 30
0.0
 11
10.05125901297648
 21
-8.085925565701132
 31
0.0
210
0.0
220
0.0
230
0.9999999999999998
 40
0.102308
 41
2.715817453558769
 42
3.141592654242377
  0
ELLIPSE
  5
571
330
457
100
AcDbEntity
  8
0
  6
Continuous
 62
     0
370
    30
100
AcDbEllipse
 10
688.851816
 20
178.034671
 30
0.0
 11
10.05125901297648
 21
-8.085925565701132
 31
0.0
210
0.0
220
0.0
230
0.9999999999999998
 40
0.102308
 41
0.0000000006525722
 42
0.7692708605395087
  0
LINE
  5
572
330
457
100
AcDbEntity
  8
0
  6
Continuous
 62
     0
370
    30
100
AcDbLine
 10
696.648269
 20
172.940909
 30
0.0
 11
694.777688
 21
170.615673
 31
0.0
  0
ELLIPSE
  5
573
330
457
100
AcDbEntity
  8
0
  6
Continuous
 62
     0
370
    30
100
AcDbEllipse
 10
686.981235
 20
175.709434
 30
0.0
 11
10.05125901297648
 21
-8.085925565701132
 31
0.0
210
0.0
220
0.0
230
0.9999999999999998
 40
0.102308
 41
0.7692708605395175
 42
1.520771392988204
  0
LINE
  5
574
330
457
100
AcDbEntity
  8
0
  6
Continuous
 62
     0
370
    30
100
AcDbLine
 10
688.310057
 20
176.332141
 30
0.0
 11
690.180638
 21
178.657378
 31
0.0
  0
ELLIPSE
  5
575
330
457
100
AcDbEntity
  8
0
  6
Continuous
 62
     0
370
    30
100
AcDbEllipse
 10
688.851816
 20
178.034671
 30
0.0
 11
10.05125901297648
 21
-8.085925565701132
 31
0.0
210
0.0
220
0.0
230
0.9999999999999998
 40
0.102308
 41
1.520771392988207
 42
2.715817453558746
  0
ELLIPSE
  5
576
330
457
100
AcDbEntity
  8
0
  6
Continuous
 62
     0
370
    30
100
AcDbEllipse
 10
689.880635
 20
179.313551
 30
0.0
 11
-8.765632860153904
 21
7.051679272413778
 31
0.0
210
0.0
220
0.0
230
-1.0
 40
0.102308
 41
0.4257752000310354
 42
3.038563274928511
  0
ELLIPSE
  5
577
330
457
100
AcDbEntity
  8
0
  6
Continuous
 62
     0
370
    30
100
AcDbEllipse
 10
689.880635
 20
179.313551
 30
0.0
 11
-8.765632860153904
 21
7.051679272413778
 31
0.0
210
0.0
220
0.0
230
-1.0
 40
0.102308
 41
0.103029663755427
 42
0.4257752000310335
  0
ELLIPSE
  5
578
330
457
100
AcDbEntity
  8
0
  6
Continuous
 62
     0
370
    30
100
AcDbEllipse
 10
695.430024
 20
186.211754
 30
0.0
 11
8.765632860153904
 21
-7.051679272413778
 31
0.0
210
0.0
220
0.0
230
1.0
 40
0.102308
 41
2.715817453558748
 42
3.141592654242361
  0
ELLIPSE
  5
579
330
457
100
AcDbEntity
  8
0
  6
Continuous
 62
     0
370
    30
100
AcDbEllipse
 10
695.430024
 20
186.211754
 30
0.0
 11
8.765632860153904
 21
-7.051679272413778
 31
0.0
210
0.0
220
0.0
230
1.0
 40
0.102308
 41
0.0000000006525971
 42
2.715817453558746
  0
LWPOLYLINE
  5
57A
330
457
100
AcDbEntity
  8
0
  6
Continuous
 62
     0
370
    30
100
AcDbPolyline
 90
        8
 70
     0
 43
0.0
 10
690.180664
 20
178.657379
 10
691.343445
 20
178.190308
 10
692.452576
 20
177.608261
 10
693.488647
 20
176.900467
 10
694.433289
 20
176.06604
 10
695.274353
 20
175.115692
 10
696.009399
 20
174.068497
 10
696.648254
 20
172.940918
  0
ELLIPSE
  5
57B
330
457
100
AcDbEntity
  8
0
  6
Continuous
 62
     0
370
    30
100
AcDbEllipse
 10
684.20654
 20
172.260333
 30
0.0
 11
-9.349971138270217
 21
7.52176126074364
 31
0.0
210
0.0
220
0.0
230
-0.9999999999999999
 40
0.102308
 41
0.440556765774273
 42
3.141592652937218
  0
ELLIPSE
  5
57C
330
457
100
AcDbEntity
  8
0
  6
Continuous
 62
     0
370
    30
100
AcDbEllipse
 10
684.20654
 20
172.260333
 30
0.0
 11
-9.349971138270217
 21
7.52176126074364
 31
0.0
210
0.0
220
0.0
230
-0.9999999999999999
 40
0.102308
 41
6.283185306527011
 42
6.723742072953858
  0
LINE
  5
57D
330
457
100
AcDbEntity
  8
0
  6
Continuous
 62
     0
370
    30
100
AcDbLine
 10
682.694947
 20
169.81804
 30
0.0
 11
680.948005
 21
167.646494
 31
0.0
  0
ELLIPSE
  5
57E
330
457
100
AcDbEntity
  8
0
  6
Continuous
 62
     0
370
    30
100
AcDbEllipse
 10
681.650634
 20
169.083198
 30
0.0
 11
9.349971138270217
 21
-7.52176126074364
 31
0.0
210
0.0
220
0.0
230
0.9999999999999999
 40
0.102308
 41
0.7191108356525406
 42
1.541368286388733
  0
LINE
  5
57F
330
457
100
AcDbEntity
  8
0
  6
Continuous
 62
     0
370
    30
100
AcDbLine
 10
687.445438
 20
161.882452
 30
0.0
 11
689.19238
 21
164.053998
 31
0.0
  0
ELLIPSE
  5
580
330
457
100
AcDbEntity
  8
0
  6
Continuous
 62
     0
370
    30
100
AcDbEllipse
 10
679.903692
 20
166.911651
 30
0.0
 11
9.349971138270217
 21
-7.52176126074364
 31
0.0
210
0.0
220
0.0
230
0.9999999999999999
 40
0.102308
 41
6.180155637654748
 42
7.002296142832282
  0
ELLIPSE
  5
581
330
457
100
AcDbEntity
  8
0
  6
Continuous
 62
     0
370
    30
100
AcDbEllipse
 10
679.903692
 20
166.911651
 30
0.0
 11
9.349971138270217
 21
-7.52176126074364
 31
0.0
210
0.0
220
0.0
230
0.9999999999999999
 40
0.102308
 41
2.701035887815509
 42
3.244622324419765
  0
ELLIPSE
  5
582
330
457
100
AcDbEntity
  8
0
  6
Continuous
 62
     0
370
    30
100
AcDbEllipse
 10
679.903692
 20
166.911651
 30
0.0
 11
9.349971138270217
 21
-7.52176126074364
 31
0.0
210
0.0
220
0.0
230
0.9999999999999999
 40
0.102308
 41
1.541368286388733
 42
2.701035887815509
  0
ELLIPSE
  5
583
330
457
100
AcDbEntity
  8
0
  6
Continuous
 62
     0
370
    30
100
AcDbEllipse
 10
679.591928
 20
166.524112
 30
0.0
 11
-8.960387455595999
 21
7.208353293080236
 31
0.0
210
0.0
220
0.0
230
-1.0
 40
0.102308
 41
2.307302381496183
 42
4.856996457231929
  0
LINE
  5
584
330
457
100
AcDbEntity
  8
0
  6
Continuous
 62
     0
370
    30
100
AcDbLine
 10
681.61293
 20
166.392509
 30
0.0
 11
686.156986
 21
162.361358
 31
0.0
  0
ELLIPSE
  5
585
330
457
100
AcDbEntity
  8
0
  6
Continuous
 62
     0
370
    30
100
AcDbEllipse
 10
679.591928
 20
166.524112
 30
0.0
 11
-8.960387455595999
 21
7.208353293080236
 31
0.0
210
0.0
220
0.0
230
-1.0
 40
0.102308
 41
5.44889503508598
 42
7.998589110821728
  0
LINE
  5
586
330
457
100
AcDbEntity
  8
0
  6
Continuous
 62
     0
370
    30
100
AcDbLine
 10
677.570927
 20
166.655715
 30
0.0
 11
673.02687
 21
170.686866
 31
0.0
  0
ELLIPSE
  5
587
330
457
100
AcDbEntity
  8
0
  6
Continuous
 62
     0
370
    30
100
AcDbEllipse
 10
679.591928
 20
166.524112
 30
0.0
 11
8.181257336143643
 21
-6.581567320919525
 31
0.0
210
0.0
220
0.0
230
0.9999999999999998
 40
0.102308
 41
1.130239561020618
 42
4.271832214610431
  0
ELLIPSE
  5
588
330
457
100
AcDbEntity
  8
0
  6
Continuous
 62
     0
370
    30
100
AcDbEllipse
 10
679.591928
 20
166.524112
 30
0.0
 11
8.181257336143643
 21
-6.581567320919525
 31
0.0
210
0.0
220
0.0
230
0.9999999999999998
 40
0.102308
 41
4.271832214610422
 42
7.413424868200204
  0
LINE
  5
589
330
457
100
AcDbEntity
  8
0
  6
Continuous
 62
     0
370
    30
100
AcDbLine
 10
680.948005
 20
167.646494
 30
0.0
 11
681.61293
 21
166.392509
 31
0.0
  0
LINE
  5
58A
330
457
100
AcDbEntity
  8
0
  6
Continuous
 62
     0
370
    30
100
AcDbLine
 10
686.156986
 20
162.361358
 30
0.0
 11
687.445438
 21
161.882452
 31
0.0
  0
LINE
  5
58B
330
457
100
AcDbEntity
  8
0
  6
Continuous
 62
     0
370
    30
100
AcDbLine
 10
682.694947
 20
169.81804
 30
0.0
 11
689.19238
 21
164.053998
 31
0.0
  0
ELLIPSE
  5
58C
330
457
100
AcDbEntity
  8
0
  6
Continuous
 62
     0
370
    30
100
AcDbEllipse
 10
680.838982
 20
168.07427
 30
0.0
 11
8.181257336143643
 21
-6.581567320919525
 31
0.0
210
0.0
220
0.0
230
0.9999999999999998
 40
0.102308
 41
4.325302569126608
 42
5.099475392947932
  0
ELLIPSE
  5
58D
330
457
100
AcDbEntity
  8
0
  6
Continuous
 62
     0
370
     0
100
AcDbEllipse
 10
698.152676
 20
187.610597
 30
0.0
 11
3.114562321138962
 21
-3.441947348194202
 31
0.0
210
0.0
220
0.0
230
1.0
 40
0.349074
 41
0.5642306082625526
 42
3.141592656028352
  0
ELLIPSE
  5
58E
330
457
100
AcDbEntity
  8
0
  6
Continuous
 62
     0
370
     0
100
AcDbEllipse
 10
698.152676
 20
187.610597
 30
0.0
 11
3.114562321138962
 21
-3.441947348194202
 31
0.0
210
0.0
220
0.0
230
1.0
 40
0.349074
 41
0.0000000024385622
 42
0.5642306082625526
  0
ELLIPSE
  5
58F
330
457
100
AcDbEntity
  8
0
  6
Continuous
 62
     0
370
     0
100
AcDbEllipse
 10
698.5001
 20
187.924975
 30
0.0
 11
3.450043827966269
 21
-3.812692757574926
 31
0.0
210
0.0
220
0.0
230
1.0
 40
0.349074
 41
0.5642306082625588
 42
3.58624510062736
  0
ELLIPSE
  5
590
330
457
100
AcDbEntity
  8
0
  6
Continuous
 62
     0
370
     0
100
AcDbEllipse
 10
698.5001
 20
187.924975
 30
0.0
 11
3.450043827966269
 21
-3.812692757574926
 31
0.0
210
0.0
220
0.0
230
1.0
 40
0.349074
 41
5.838532865019133
 42
6.847415915442145
  0
ELLIPSE
  5
591
330
457
100
AcDbEntity
  8
0
  6
Continuous
 62
     0
370
    30
100
AcDbEllipse
 10
698.500099
 20
187.924974
 30
0.0
 11
8.219296901423492
 21
-9.083262544166066
 31
0.0
210
0.0
220
0.0
230
1.0
 40
0.349074
 41
5.72876965814739
 42
6.118077958636744
  0
ELLIPSE
  5
592
330
457
100
AcDbEntity
  8
0
  6
Continuous
 62
     0
370
    30
100
AcDbEllipse
 10
698.500099
 20
187.924974
 30
0.0
 11
8.219296901423492
 21
-9.083262544166066
 31
0.0
210
0.0
220
0.0
230
1.0
 40
0.349074
 41
3.306700007009765
 42
4.089074785299342
  0
LINE
  5
593
330
457
100
AcDbEntity
  8
0
  6
Continuous
 62
     0
370
    30
100
AcDbLine
 10
701.287933
 20
184.188349
 30
0.0
 11
701.295422
 21
184.193448
 31
0.0
  0
LINE
  5
594
330
457
100
AcDbEntity
  8
0
  6
Continuous
 62
     0
370
    30
100
AcDbLine
 10
695.065777
 20
191.077924
 30
0.0
 11
695.060624
 21
191.071866
 31
0.0
  0
LINE
  5
595
330
457
100
AcDbEntity
  8
0
  6
Continuous
 62
     0
370
    30
100
AcDbLine
 10
701.295422
 20
184.193448
 30
0.0
 11
701.271349
 21
184.172406
 31
0.0
  0
LINE
  5
596
330
457
100
AcDbEntity
  8
0
  6
Continuous
 62
     0
370
    30
100
AcDbLine
 10
695.050685
 20
191.063587
 30
0.0
 11
695.065777
 21
191.077924
 31
0.0
  0
LINE
  5
597
330
457
100
AcDbEntity
  8
0
  6
Continuous
 62
     0
370
    30
100
AcDbLine
 10
695.038114
 20
191.052545
 30
0.0
 11
693.205956
 21
189.394655
 31
0.0
  0
LINE
  5
598
330
457
100
AcDbEntity
  8
0
  6
Continuous
 62
     0
370
    30
100
AcDbLine
 10
701.267238
 20
184.16865
 30
0.0
 11
700.462248
 21
183.440228
 31
0.0
  0
LINE
  5
599
330
457
100
AcDbEntity
  8
0
  6
Continuous
 62
     0
370
    30
100
AcDbLine
 10
688.428953
 20
159.259701
 30
0.0
 11
689.124936
 21
159.331395
 31
0.0
  0
LINE
  5
59A
330
457
100
AcDbEntity
  8
0
  6
Continuous
 62
     0
370
    30
100
AcDbLine
 10
670.603209
 20
173.599958
 30
0.0
 11
670.524157
 21
174.295144
 31
0.0
  0
LINE
  5
59B
330
457
100
AcDbEntity
  8
0
  6
Continuous
 62
     0
370
    30
100
AcDbLine
 10
689.253663
 20
159.38989
 30
0.0
 11
693.556511
 21
164.738572
 31
0.0
  0
LINE
  5
59C
330
457
100
AcDbEntity
  8
0
  6
Continuous
 62
     0
370
    30
100
AcDbLine
 10
670.553721
 20
174.433412
 30
0.0
 11
674.856569
 21
179.782094
 31
0.0
  0
LINE
  5
59D
330
457
100
AcDbEntity
  8
0
  6
Continuous
 62
     0
370
    30
100
AcDbLine
 10
698.934816
 20
170.097504
 30
0.0
 11
698.673949
 21
172.391603
 31
0.0
  0
LINE
  5
59E
330
457
100
AcDbEntity
  8
0
  6
Continuous
 62
     0
370
    30
100
AcDbLine
 10
678.938923
 20
186.183476
 30
0.0
 11
681.235671
 21
186.420068
 31
0.0
  0
LINE
  5
59F
330
457
100
AcDbEntity
  8
0
  6
Continuous
 62
     0
370
    30
100
AcDbLine
 10
698.683446
 20
172.308086
 30
0.0
 11
704.195657
 21
179.160074
 31
0.0
  0
LINE
  5
5A0
330
457
100
AcDbEntity
  8
0
  6
Continuous
 62
     0
370
    30
100
AcDbLine
 10
681.1522
 20
186.411469
 30
0.0
 11
686.664392
 21
193.263433
 31
0.0
  0
LINE
  5
5A1
330
457
100
AcDbEntity
  8
0
  6
Continuous
 62
     0
370
    30
100
AcDbLine
 10
678.800557
 20
186.120597
 30
0.0
 11
674.155281
 21
180.346259
 31
0.0
  0
LINE
  5
5A2
330
457
100
AcDbEntity
  8
0
  6
Continuous
 62
     0
370
    30
100
AcDbLine
 10
698.903075
 20
169.948746
 30
0.0
 11
694.257799
 21
164.174408
 31
0.0
  0
ARC
  5
5A3
330
457
100
AcDbEntity
  8
0
  6
Continuous
 62
     0
370
    30
100
AcDbCircle
 10
117557.879063
 20
29556.702671
 30
0.0
 40
120495.0887424292
100
AcDbArc
 50
194.114776
 51
194.135744
  0
LINE
  5
5A4
330
457
100
AcDbEntity
  8
0
  6
Continuous
 62
     0
370
    30
100
AcDbLine
 10
770.638979
 20
227.94531
 30
0.0
 11
770.650697
 21
143.103257
 31
0.0
  0
ENDBLK
  5
5A6
330
457
100
AcDbEntity
  8
0
100
AcDbBlockEnd
  0
ENDSEC
  0
SECTION
  2
ENTITIES
  0
INSERT
  5
15E
330
1F
100
AcDbEntity
  8
0
  6
Continuous
 62
   250
370
     0
100
AcDbBlockReference
  2
a
 10
317.668915
 20
111.934883
 30
0.0
  0
INSERT
  5
28E
330
1F
100
AcDbEntity
  8
0
  6
Continuous
 62
   250
370
     0
100
AcDbBlockReference
  2
b
 10
317.66893
 20
159.621346
 30
0.0
  0
INSERT
  5
37E
330
1F
100
AcDbEntity
  8
0
  6
Continuous
 62
   250
370
     0
100
AcDbBlockReference
  2
c
 10
400.142548
 20
111.934883
 30
0.0
  0
INSERT
  5
456
330
1F
100
AcDbEntity
  8
0
  6
Continuous
 62
   250
370
     0
100
AcDbBlockReference
  2
e
 10
257.889374
 20
0.0
 30
0.0
  0
INSERT
  5
5A7
330
1F
100
AcDbEntity
  8
0
  6
Continuous
 62
   250
370
     0
100
AcDbBlockReference
  2
d
 10
376.476349
 20
27.35305
 30
0.0
  0
ENDSEC
  0
SECTION
  2
OBJECTS
  0
DICTIONARY
  5
C
330
0
100
AcDbDictionary
281
     1
  3
ACAD_GROUP
350
D
  3
ACAD_LAYOUT
350
1A
  3
ACAD_MLEADERSTYLE
350
5AA
  3
ACAD_MLINESTYLE
350
17
  3
ACAD_PLOTSETTINGS
350
19
  3
ACAD_PLOTSTYLENAME
350
E
  3
ACAD_VISUALSTYLE
350
2A
  3
AcDbVariableDictionary
350
5A8
  0
DICTIONARY
  5
D
102
{ACAD_REACTORS
330
C
102
}
330
C
100
AcDbDictionary
281
     1
  0
DICTIONARY
  5
1A
102
{ACAD_REACTORS
330
C
102
}
330
C
100
AcDbDictionary
281
     1
  3
Layout1
350
1E
  3
Layout2
350
26
  3
Model
350
22
  0
DICTIONARY
  5
5AA
102
{ACAD_REACTORS
330
C
102
}
330
C
100
AcDbDictionary
281
     1
  0
DICTIONARY
  5
17
102
{ACAD_REACTORS
330
C
102
}
330
C
100
AcDbDictionary
281
     1
  3
Standard
350
18
  0
DICTIONARY
  5
19
102
{ACAD_REACTORS
330
C
102
}
330
C
100
AcDbDictionary
281
     1
  0
ACDBDICTIONARYWDFLT
  5
E
102
{ACAD_REACTORS
330
C
102
}
330
C
100
AcDbDictionary
281
     1
  3
Normal
350
F
100
AcDbDictionaryWithDefault
340
F
  0
DICTIONARY
  5
2A
102
{ACAD_REACTORS
330
C
102
}
330
C
100
AcDbDictionary
281
     1
  3
2dWireframe
350
2F
  3
3D Hidden
350
31
  3
3dWireframe
350
30
  3
Basic
350
32
  3
Brighten
350
36
  3
ColorChange
350
3A
  3
Conceptual
350
34
  3
Dim
350
35
  3
Facepattern
350
39
  3
Flat
350
2B
  3
FlatWithEdges
350
2C
  3
Gouraud
350
2D
  3
GouraudWithEdges
350
2E
  3
Linepattern
350
38
  3
Realistic
350
33
  3
Thicken
350
37
  0
DICTIONARY
  5
5A8
102
{ACAD_REACTORS
330
C
102
}
330
C
100
AcDbDictionary
281
     1
  3
PSOLHEIGHT
350
5AC
  3
PSOLWIDTH
350
5AB
  0
LAYOUT
  5
1E
102
{ACAD_REACTORS
330
1A
102
}
330
1A
100
AcDbPlotSettings
  1

  2
none_device
  4

  6

 40
0.0
 41
0.0
 42
0.0
 43
0.0
 44
0.0
 45
0.0
 46
0.0
 47
0.0
 48
0.0
 49
0.0
140
0.0
141
0.0
142
1.0
143
1.0
 70
   688
 72
     0
 73
     0
 74
     5
  7

 75
    16
147
1.0
148
0.0
149
0.0
100
AcDbLayout
  1
Layout1
 70
     1
 71
     1
 10
0.0
 20
0.0
 11
420.0
 21
297.0
 12
0.0
 22
0.0
 32
0.0
 14
1.000000E+20
 24
1.000000E+20
 34
1.000000E+20
 15
-1.000000E+20
 25
-1.000000E+20
 35
-1.000000E+20
146
0.0
 13
0.0
 23
0.0
 33
0.0
 16
1.0
 26
0.0
 36
0.0
 17
0.0
 27
1.0
 37
0.0
 76
     0
330
1B
  0
LAYOUT
  5
26
102
{ACAD_REACTORS
330
1A
102
}
330
1A
100
AcDbPlotSettings
  1

  2
none_device
  4

  6

 40
0.0
 41
0.0
 42
0.0
 43
0.0
 44
0.0
 45
0.0
 46
0.0
 47
0.0
 48
0.0
 49
0.0
140
0.0
141
0.0
142
1.0
143
1.0
 70
   688
 72
     0
 73
     0
 74
     5
  7

 75
    16
147
1.0
148
0.0
149
0.0
100
AcDbLayout
  1
Layout2
 70
     1
 71
     2
 10
0.0
 20
0.0
 11
0.0
 21
0.0
 12
0.0
 22
0.0
 32
0.0
 14
0.0
 24
0.0
 34
0.0
 15
0.0
 25
0.0
 35
0.0
146
0.0
 13
0.0
 23
0.0
 33
0.0
 16
1.0
 26
0.0
 36
0.0
 17
0.0
 27
1.0
 37
0.0
 76
     0
330
23
  0
LAYOUT
  5
22
102
{ACAD_REACTORS
330
1A
102
}
330
1A
100
AcDbPlotSettings
  1

  2
none_device
  4

  6

 40
0.0
 41
0.0
 42
0.0
 43
0.0
 44
0.0
 45
0.0
 46
0.0
 47
0.0
 48
0.0
 49
0.0
140
0.0
141
0.0
142
1.0
143
1.0
 70
  1712
 72
     0
 73
     0
 74
     0
  7

 75
     0
147
1.0
148
0.0
149
0.0
100
AcDbLayout
  1
Model
 70
     1
 71
     0
 10
17.194643
 20
89.569817
 11
892.857422
 21
787.579712
 12
0.0
 22
0.0
 32
0.0
 14
17.194643
 24
89.569817
 34
0.0
 15
892.857422
 25
787.579712
 35
0.0
146
0.0
 13
0.0
 23
0.0
 33
0.0
 16
1.0
 26
0.0
 36
0.0
 17
0.0
 27
1.0
 37
0.0
 76
     0
330
1F
331
29
  0
MLINESTYLE
  5
18
102
{ACAD_REACTORS
330
17
102
}
330
17
100
AcDbMlineStyle
  2
Standard
 70
     0
  3

 62
   256
 51
90.0
 52
90.0
 71
     2
 49
0.5
 62
   256
  6
BYLAYER
 49
-0.5
 62
   256
  6
BYLAYER
  0
ACDBPLACEHOLDER
  5
F
102
{ACAD_REACTORS
330
E
102
}
330
E
  0
VISUALSTYLE
  5
2F
102
{ACAD_REACTORS
330
2A
102
}
330
2A
100
AcDbVisualStyle
  2
2dWireframe
 70
     4
 71
     0
 72
     2
 73
     0
 90
        0
 40
-0.6
 41
-30.0
 62
     5
 63
     7
 74
     1
 91
        4
 64
     7
 65
   257
 75
     1
175
     1
 42
1.0
 92
        0
 66
   257
 43
1.0
 76
     1
 77
     6
 78
     2
 67
     7
 79
     5
170
     0
171
     0
290
     0
174
     0
 93
        1
 44
0.0
173
     0
291
     0
 45
0.0
1001
ACAD
1000
AcDbSavedByObjectVersion
1070
     0
  0
VISUALSTYLE
  5
31
102
{ACAD_REACTORS
330
2A
102
}
330
2A
100
AcDbVisualStyle
  2
3D Hidden
 70
     6
 71
     1
 72
     2
 73
     2
 90
        0
 40
-0.6
 41
-30.0
 62
     5
 63
     7
 74
     2
 91
        2
 64
     7
 65
   257
 75
     2
175
     1
 42
40.0
 92
        0
 66
   257
 43
1.0
 76
     1
 77
     6
 78
     2
 67
     7
 79
     3
170
     0
171
     0
290
     0
174
     0
 93
        1
 44
0.0
173
     0
291
     0
 45
0.0
1001
ACAD
1000
AcDbSavedByObjectVersion
1070
     0
  0
VISUALSTYLE
  5
30
102
{ACAD_REACTORS
330
2A
102
}
330
2A
100
AcDbVisualStyle
  2
3dWireframe
 70
     5
 71
     0
 72
     2
 73
     0
 90
        0
 40
-0.6
 41
-30.0
 62
     5
 63
     7
 74
     1
 91
        4
 64
     7
 65
   257
 75
     1
175
     1
 42
1.0
 92
        0
 66
   257
 43
1.0
 76
     1
 77
     6
 78
     2
 67
     7
 79
     5
170
     0
171
     0
290
     0
174
     0
 93
        1
 44
0.0
173
     0
291
     0
 45
0.0
1001
ACAD
1000
AcDbSavedByObjectVersion
1070
     0
  0
VISUALSTYLE
  5
32
102
{ACAD_REACTORS
330
2A
102
}
330
2A
100
AcDbVisualStyle
  2
Basic
 70
     7
 71
     1
 72
     0
 73
     1
 90
        0
 40
-0.6
 41
-30.0
 62
     5
 63
     7
 74
     0
 91
        4
 64
     7
 65
   257
 75
     1
175
     1
 42
1.0
 92
        8
 66
     7
 43
1.0
 76
     1
 77
     6
 78
     2
 67
     7
 79
     5
170
     0
171
     0
290
     0
174
     0
 93
        1
 44
0.0
173
     0
291
     1
 45
0.0
1001
ACAD
1000
AcDbSavedByObjectVersion
1070
     0
  0
VISUALSTYLE
  5
36
102
{ACAD_REACTORS
330
2A
102
}
330
2A
100
AcDbVisualStyle
  2
Brighten
 70
    12
 71
     2
 72
     2
 73
     0
 90
        0
 40
-0.6
 41
-30.0
 62
     5
 63
     7
 74
     1
 91
        4
 64
     7
 65
   257
 75
     1
175
     1
 42
1.0
 92
        8
 66
     7
 43
1.0
 76
     1
 77
     6
 78
     2
 67
     7
 79
     5
170
     0
171
     0
290
     0
174
     0
 93
        1
 44
50.0
173
     0
291
     1
 45
0.0
1001
ACAD
1000
AcDbSavedByObjectVersion
1070
     0
  0
VISUALSTYLE
  5
3A
102
{ACAD_REACTORS
330
2A
102
}
330
2A
100
AcDbVisualStyle
  2
ColorChange
 70
    16
 71
     2
 72
     2
 73
     3
 90
        0
 40
-0.6
 41
-30.0
 62
     5
 63
     8
 74
     1
 91
        4
 64
     7
 65
   257
 75
     1
175
     1
 42
1.0
 92
        8
 66
     8
 43
1.0
 76
     1
 77
     6
 78
     2
 67
     7
 79
     5
170
     0
171
     0
290
     0
174
     0
 93
        1
 44
0.0
173
     0
291
     1
 45
0.0
1001
ACAD
1000
AcDbSavedByObjectVersion
1070
     0
  0
VISUALSTYLE
  5
34
102
{ACAD_REACTORS
330
2A
102
}
330
2A
100
AcDbVisualStyle
  2
Conceptual
 70
     9
 71
     3
 72
     2
 73
     0
 90
        0
 40
-0.6
 41
-30.0
 62
     5
 63
     7
 74
     2
 91
        2
 64
     7
 65
   257
 75
     1
175
     1
 42
40.0
 92
        8
 66
     7
 43
1.0
 76
     1
 77
     6
 78
     2
 67
     7
 79
     3
170
     0
171
     0
290
     0
174
     0
 93
        1
 44
0.0
173
     0
291
     0
 45
0.0
1001
ACAD
1000
AcDbSavedByObjectVersion
1070
     0
  0
VISUALSTYLE
  5
35
102
{ACAD_REACTORS
330
2A
102
}
330
2A
100
AcDbVisualStyle
  2
Dim
 70
    11
 71
     2
 72
     2
 73
     0
 90
        0
 40
-0.6
 41
-30.0
 62
     5
 63
     7
 74
     1
 91
        4
 64
     7
 65
   257
 75
     1
175
     1
 42
1.0
 92
        8
 66
     7
 43
1.0
 76
     1
 77
     6
 78
     2
 67
     7
 79
     5
170
     0
171
     0
290
     0
174
     0
 93
        1
 44
-50.0
173
     0
291
     1
 45
0.0
1001
ACAD
1000
AcDbSavedByObjectVersion
1070
     0
  0
VISUALSTYLE
  5
39
102
{ACAD_REACTORS
330
2A
102
}
330
2A
100
AcDbVisualStyle
  2
Facepattern
 70
    15
 71
     2
 72
     2
 73
     0
 90
        0
 40
-0.6
 41
-30.0
 62
     5
 63
     7
 74
     1
 91
        4
 64
     7
 65
   257
 75
     1
175
     1
 42
1.0
 92
        8
 66
     7
 43
1.0
 76
     1
 77
     6
 78
     2
 67
     7
 79
     5
170
     0
171
     0
290
     0
174
     0
 93
        1
 44
0.0
173
     0
291
     1
 45
0.0
1001
ACAD
1000
AcDbSavedByObjectVersion
1070
     0
  0
VISUALSTYLE
  5
2B
102
{ACAD_REACTORS
330
2A
102
}
330
2A
100
AcDbVisualStyle
  2
Flat
 70
     0
 71
     2
 72
     1
 73
     1
 90
        2
 40
-0.6
 41
30.0
 62
     5
 63
     7
 74
     0
 91
        4
 64
     7
 65
   257
 75
     1
175
     1
 42
1.0
 92
        8
 66
     7
 43
1.0
 76
     1
 77
     6
 78
     2
 67
     7
 79
     5
170
     0
171
     0
290
     0
174
     0
 93
       13
 44
0.0
173
     0
291
     1
 45
0.0
1001
ACAD
1000
AcDbSavedByObjectVersion
1070
     0
  0
VISUALSTYLE
  5
2C
102
{ACAD_REACTORS
330
2A
102
}
330
2A
100
AcDbVisualStyle
  2
FlatWithEdges
 70
     1
 71
     2
 72
     1
 73
     1
 90
        2
 40
-0.6
 41
30.0
 62
     5
 63
     7
 74
     1
 91
        4
 64
     7
 65
   257
 75
     1
175
     1
 42
1.0
 92
        0
 66
   257
 43
1.0
 76
     1
 77
     6
 78
     2
 67
     7
 79
     5
170
     0
171
     0
290
     0
174
     0
 93
       13
 44
0.0
173
     0
291
     1
 45
0.0
1001
ACAD
1000
AcDbSavedByObjectVersion
1070
     0
  0
VISUALSTYLE
  5
2D
102
{ACAD_REACTORS
330
2A
102
}
330
2A
100
AcDbVisualStyle
  2
Gouraud
 70
     2
 71
     2
 72
     2
 73
     1
 90
        2
 40
-0.6
 41
30.0
 62
     5
 63
     7
 74
     0
 91
        4
 64
     7
 65
   257
 75
     1
175
     1
 42
1.0
 92
        0
 66
     7
 43
1.0
 76
     1
 77
     6
 78
     2
 67
     7
 79
     5
170
     0
171
     0
290
     0
174
     0
 93
       13
 44
0.0
173
     0
291
     1
 45
0.0
1001
ACAD
1000
AcDbSavedByObjectVersion
1070
     0
  0
VISUALSTYLE
  5
2E
102
{ACAD_REACTORS
330
2A
102
}
330
2A
100
AcDbVisualStyle
  2
GouraudWithEdges
 70
     3
 71
     2
 72
     2
 73
     1
 90
        2
 40
-0.6
 41
30.0
 62
     5
 63
     7
 74
     1
 91
        4
 64
     7
 65
   257
 75
     1
175
     1
 42
1.0
 92
        0
 66
   257
 43
1.0
 76
     1
 77
     6
 78
     2
 67
     7
 79
     5
170
     0
171
     0
290
     0
174
     0
 93
       13
 44
0.0
173
     0
291
     1
 45
0.0
1001
ACAD
1000
AcDbSavedByObjectVersion
1070
     0
  0
VISUALSTYLE
  5
38
102
{ACAD_REACTORS
330
2A
102
}
330
2A
100
AcDbVisualStyle
  2
Linepattern
 70
    14
 71
     2
 72
     2
 73
     0
 90
        0
 40
-0.6
 41
-30.0
 62
     5
 63
     7
 74
     1
 91
        4
 64
     7
 65
   257
 75
     7
175
     7
 42
1.0
 92
        8
 66
     7
 43
1.0
 76
     1
 77
     6
 78
     2
 67
     7
 79
     5
170
     0
171
     0
290
     0
174
     0
 93
        1
 44
0.0
173
     0
291
     1
 45
0.0
1001
ACAD
1000
AcDbSavedByObjectVersion
1070
     0
  0
VISUALSTYLE
  5
33
102
{ACAD_REACTORS
330
2A
102
}
330
2A
100
AcDbVisualStyle
  2
Realistic
 70
     8
 71
     2
 72
     2
 73
     0
 90
        0
 40
-0.6
 41
-30.0
 62
     5
 63
     7
 74
     1
 91
        0
 64
     7
 65
   257
 75
     1
175
     1
 42
1.0
 92
        8
 66
     8
 43
1.0
 76
     1
 77
     6
 78
     2
 67
     7
 79
     5
170
     0
171
     0
290
     0
174
     0
 93
       13
 44
0.0
173
     0
291
     0
 45
0.0
1001
ACAD
1000
AcDbSavedByObjectVersion
1070
     0
  0
VISUALSTYLE
  5
37
102
{ACAD_REACTORS
330
2A
102
}
330
2A
100
AcDbVisualStyle
  2
Thicken
 70
    13
 71
     2
 72
     2
 73
     0
 90
        0
 40
-0.6
 41
-30.0
 62
     5
 63
     7
 74
     1
 91
        4
 64
     7
 65
   257
 75
     1
175
     1
 42
1.0
 92
       12
 66
     7
 43
1.0
 76
     1
 77
     6
 78
     2
 67
     7
 79
     5
170
     0
171
     0
290
     0
174
     0
 93
        1
 44
0.0
173
     0
291
     1
 45
0.0
1001
ACAD
1000
AcDbSavedByObjectVersion
1070
     0
  0
DICTIONARYVAR
  5
5AC
102
{ACAD_REACTORS
330
5A8
102
}
330
5A8
100
DictionaryVariables
280
     0
  1
80.000000
  0
DICTIONARYVAR
  5
5AB
102
{ACAD_REACTORS
330
5A8
102
}
330
5A8
100
DictionaryVariables
280
     0
  1
5.000000
  0
ENDSEC
  0
EOF
