  0
SECTION
  2
HEADER
  9
$ACADVER
  1
AC1015
  9
$ACADMAINTVER
 70
     6
  9
$DWGCODEPAGE
  3
ANSI_1252
  9
$INSBASE
 10
0.0
 20
0.0
 30
0.0
  9
$EXTMIN
 10
-558.704956
 20
120.322701
 30
0.0
  9
$EXTMAX
 10
777.483521
 20
2687.72168
 30
0.0
  9
$LIMMIN
 10
-558.704956
 20
120.322701
  9
$LIMMAX
 10
777.483521
 20
2687.72168
  9
$ORTHOMODE
 70
     0
  9
$REGENMODE
 70
     1
  9
$FILLMODE
 70
     1
  9
$QTEXTMODE
 70
     0
  9
$MIRRTEXT
 70
     1
  9
$LTSCALE
 40
1.0
  9
$ATTMODE
 70
     1
  9
$TEXTSIZE
 40
2.5
  9
$TRACEWID
 40
1.0
  9
$TEXTSTYLE
  7
Standard
  9
$CLAYER
  8
0
  9
$CELTYPE
  6
ByLayer
  9
$CECOLOR
 62
   256
  9
$CELTSCALE
 40
1.0
  9
$DISPSILH
 70
     0
  9
$DIMSCALE
 40
1.0
  9
$DIMASZ
 40
2.5
  9
$DIMEXO
 40
0.625
  9
$DIMDLI
 40
3.75
  9
$DIMRND
 40
0.0
  9
$DIMDLE
 40
0.0
  9
$DIMEXE
 40
1.25
  9
$DIMTP
 40
0.0
  9
$DIMTM
 40
0.0
  9
$DIMTXT
 40
2.5
  9
$DIMCEN
 40
2.5
  9
$DIMTSZ
 40
0.0
  9
$DIMTOL
 70
     0
  9
$DIMLIM
 70
     0
  9
$DIMTIH
 70
     0
  9
$DIMTOH
 70
     0
  9
$DIMSE1
 70
     0
  9
$DIMSE2
 70
     0
  9
$DIMTAD
 70
     1
  9
$DIMZIN
 70
     8
  9
$DIMBLK
  1

  9
$DIMASO
 70
     1
  9
$DIMSHO
 70
     1
  9
$DIMPOST
  1

  9
$DIMAPOST
  1

  9
$DIMALT
 70
     0
  9
$DIMALTD
 70
     3
  9
$DIMALTF
 40
0.03937
  9
$DIMLFAC
 40
1.0
  9
$DIMTOFL
 70
     1
  9
$DIMTVP
 40
0.0
  9
$DIMTIX
 70
     0
  9
$DIMSOXD
 70
     0
  9
$DIMSAH
 70
     0
  9
$DIMBLK1
  1

  9
$DIMBLK2
  1

  9
$DIMSTYLE
  2
ISO-25
  9
$DIMCLRD
 70
     0
  9
$DIMCLRE
 70
     0
  9
$DIMCLRT
 70
     0
  9
$DIMTFAC
 40
1.0
  9
$DIMGAP
 40
0.625
  9
$DIMJUST
 70
     0
  9
$DIMSD1
 70
     0
  9
$DIMSD2
 70
     0
  9
$DIMTOLJ
 70
     0
  9
$DIMTZIN
 70
     8
  9
$DIMALTZ
 70
     0
  9
$DIMALTTZ
 70
     0
  9
$DIMUPT
 70
     0
  9
$DIMDEC
 70
     2
  9
$DIMTDEC
 70
     2
  9
$DIMALTU
 70
     2
  9
$DIMALTTD
 70
     3
  9
$DIMTXSTY
  7
Standard
  9
$DIMAUNIT
 70
     0
  9
$DIMADEC
 70
     0
  9
$DIMALTRND
 40
0.0
  9
$DIMAZIN
 70
     0
  9
$DIMDSEP
 70
    44
  9
$DIMATFIT
 70
     3
  9
$DIMFRAC
 70
     0
  9
$DIMLDRBLK
  1

  9
$DIMLUNIT
 70
     2
  9
$DIMLWD
 70
    -2
  9
$DIMLWE
 70
    -2
  9
$DIMTMOVE
 70
     0
  9
$LUNITS
 70
     2
  9
$LUPREC
 70
     4
  9
$SKETCHINC
 40
1.0
  9
$FILLETRAD
 40
10.0
  9
$AUNITS
 70
     0
  9
$AUPREC
 70
     0
  9
$MENU
  1
.
  9
$ELEVATION
 40
0.0
  9
$PELEVATION
 40
0.0
  9
$THICKNESS
 40
0.0
  9
$LIMCHECK
 70
     0
  9
$CHAMFERA
 40
10.0
  9
$CHAMFERB
 40
10.0
  9
$CHAMFERC
 40
20.0
  9
$CHAMFERD
 40
0.0
  9
$SKPOLY
 70
     0
  9
$TDCREATE
 40
2455554.599775069
  9
$TDUCREATE
 40
2455554.558108403
  9
$TDUPDATE
 40
2455554.599775081
  9
$TDUUPDATE
 40
2455554.558108415
  9
$TDINDWG
 40
0.0000000116
  9
$TDUSRTIMER
 40
0.0000000116
  9
$USRTIMER
 70
     1
  9
$ANGBASE
 50
0.0
  9
$ANGDIR
 70
     0
  9
$PDMODE
 70
     0
  9
$PDSIZE
 40
0.0
  9
$PLINEWID
 40
0.0
  9
$SPLFRAME
 70
     0
  9
$SPLINETYPE
 70
     6
  9
$SPLINESEGS
 70
     8
  9
$HANDSEED
  5
D7
  9
$SURFTAB1
 70
     6
  9
$SURFTAB2
 70
     6
  9
$SURFTYPE
 70
     6
  9
$SURFU
 70
     6
  9
$SURFV
 70
     6
  9
$UCSBASE
  2

  9
$UCSNAME
  2

  9
$UCSORG
 10
0.0
 20
0.0
 30
0.0
  9
$UCSXDIR
 10
1.0
 20
0.0
 30
0.0
  9
$UCSYDIR
 10
0.0
 20
1.0
 30
0.0
  9
$UCSORTHOREF
  2

  9
$UCSORTHOVIEW
 70
     0
  9
$UCSORGTOP
 10
0.0
 20
0.0
 30
0.0
  9
$UCSORGBOTTOM
 10
0.0
 20
0.0
 30
0.0
  9
$UCSORGLEFT
 10
0.0
 20
0.0
 30
0.0
  9
$UCSORGRIGHT
 10
0.0
 20
0.0
 30
0.0
  9
$UCSORGFRONT
 10
0.0
 20
0.0
 30
0.0
  9
$UCSORGBACK
 10
0.0
 20
0.0
 30
0.0
  9
$PUCSBASE
  2

  9
$PUCSNAME
  2

  9
$PUCSORG
 10
0.0
 20
0.0
 30
0.0
  9
$PUCSXDIR
 10
1.0
 20
0.0
 30
0.0
  9
$PUCSYDIR
 10
0.0
 20
1.0
 30
0.0
  9
$PUCSORTHOREF
  2

  9
$PUCSORTHOVIEW
 70
     0
  9
$PUCSORGTOP
 10
0.0
 20
0.0
 30
0.0
  9
$PUCSORGBOTTOM
 10
0.0
 20
0.0
 30
0.0
  9
$PUCSORGLEFT
 10
0.0
 20
0.0
 30
0.0
  9
$PUCSORGRIGHT
 10
0.0
 20
0.0
 30
0.0
  9
$PUCSORGFRONT
 10
0.0
 20
0.0
 30
0.0
  9
$PUCSORGBACK
 10
0.0
 20
0.0
 30
0.0
  9
$USERI1
 70
     0
  9
$USERI2
 70
     0
  9
$USERI3
 70
     0
  9
$USERI4
 70
     0
  9
$USERI5
 70
     0
  9
$USERR1
 40
0.0
  9
$USERR2
 40
0.0
  9
$USERR3
 40
0.0
  9
$USERR4
 40
0.0
  9
$USERR5
 40
0.0
  9
$WORLDVIEW
 70
     1
  9
$SHADEDGE
 70
     3
  9
$SHADEDIF
 70
    70
  9
$TILEMODE
 70
     1
  9
$MAXACTVP
 70
    64
  9
$PINSBASE
 10
0.0
 20
0.0
 30
0.0
  9
$PLIMCHECK
 70
     0
  9
$PEXTMIN
 10
1.000000E+20
 20
1.000000E+20
 30
1.000000E+20
  9
$PEXTMAX
 10
-1.000000E+20
 20
-1.000000E+20
 30
-1.000000E+20
  9
$PLIMMIN
 10
0.0
 20
0.0
  9
$PLIMMAX
 10
420.0
 20
297.0
  9
$UNITMODE
 70
     0
  9
$VISRETAIN
 70
     1
  9
$PLINEGEN
 70
     0
  9
$PSLTSCALE
 70
     1
  9
$TREEDEPTH
 70
  3020
  9
$CMLSTYLE
  2
Standard
  9
$CMLJUST
 70
     0
  9
$CMLSCALE
 40
20.0
  9
$PROXYGRAPHICS
 70
     1
  9
$MEASUREMENT
 70
     1
  9
$CELWEIGHT
370
    -1
  9
$ENDCAPS
280
     0
  9
$JOINSTYLE
280
     0
  9
$LWDISPLAY
290
     0
  9
$INSUNITS
 70
     4
  9
$HYPERLINKBASE
  1

  9
$STYLESHEET
  1

  9
$XEDIT
290
     1
  9
$CEPSNTYPE
380
     0
  9
$PSTYLEMODE
290
     1
  9
$FINGERPRINTGUID
  2
{DF3BD979-1CC2-4AEC-A94A-DD7792EE461D}
  9
$VERSIONGUID
  2
{FAEB1C32-E019-11D5-929B-00C0DF256EC4}
  9
$EXTNAMES
290
     1
  9
$PSVPSCALE
 40
0.0
  9
$OLESTARTUP
290
     0
  0
ENDSEC
  0
SECTION
  2
CLASSES
  0
CLASS
  1
ACDBDICTIONARYWDFLT
  2
AcDbDictionaryWithDefault
  3
ObjectDBX Classes
 90
        0
280
     0
281
     0
  0
CLASS
  1
VISUALSTYLE
  2
AcDbVisualStyle
  3
ObjectDBX Classes
 90
     4095
280
     0
281
     0
  0
CLASS
  1
DICTIONARYVAR
  2
AcDbDictionaryVar
  3
ObjectDBX Classes
 90
        0
280
     0
281
     0
  0
CLASS
  1
ACDBPLACEHOLDER
  2
AcDbPlaceHolder
  3
ObjectDBX Classes
 90
        0
280
     0
281
     0
  0
CLASS
  1
LAYOUT
  2
AcDbLayout
  3
ObjectDBX Classes
 90
        0
280
     0
281
     0
  0
ENDSEC
  0
SECTION
  2
TABLES
  0
TABLE
  2
VPORT
  5
8
330
0
100
AcDbSymbolTable
 70
     1
  0
VPORT
  5
29
330
8
100
AcDbSymbolTableRecord
100
AcDbViewportTableRecord
  2
*Active
 70
     0
 10
0.0
 20
0.0
 11
1.0
 21
1.0
 12
344.186916
 22
148.5
 13
0.0
 23
0.0
 14
10.0
 24
10.0
 15
10.0
 25
10.0
 16
0.0
 26
0.0
 36
1.0
 17
0.0
 27
0.0
 37
0.0
 40
297.0
 41
1.972973
 42
50.0
 43
0.0
 44
0.0
 50
0.0
 51
0.0
 71
     0
 72
   100
 73
     1
 74
     3
 75
     0
 76
     0
 77
     0
 78
     0
281
     0
 65
     1
110
0.0
120
0.0
130
0.0
111
1.0
121
0.0
131
0.0
112
0.0
122
1.0
132
0.0
 79
     0
146
0.0
  0
ENDTAB
  0
TABLE
  2
LTYPE
  5
5
330
0
100
AcDbSymbolTable
 70
     1
  0
LTYPE
  5
14
330
5
100
AcDbSymbolTableRecord
100
AcDbLinetypeTableRecord
  2
ByBlock
 70
     0
  3

 72
    65
 73
     0
 40
0.0
  0
LTYPE
  5
15
330
5
100
AcDbSymbolTableRecord
100
AcDbLinetypeTableRecord
  2
ByLayer
 70
     0
  3

 72
    65
 73
     0
 40
0.0
  0
LTYPE
  5
16
330
5
100
AcDbSymbolTableRecord
100
AcDbLinetypeTableRecord
  2
Continuous
 70
     0
  3
Solid line
 72
    65
 73
     0
 40
0.0
  0
ENDTAB
  0
TABLE
  2
LAYER
  5
2
330
0
100
AcDbSymbolTable
 70
     1
  0
LAYER
  5
10
330
2
100
AcDbSymbolTableRecord
100
AcDbLayerTableRecord
  2
0
 70
     0
 62
   106
  6
Continuous
370
     0
390
F
  0
ENDTAB
  0
TABLE
  2
STYLE
  5
3
330
0
100
AcDbSymbolTable
 70
     4
  0
STYLE
  5
11
330
3
100
AcDbSymbolTableRecord
100
AcDbTextStyleTableRecord
  2
Standard
 70
     0
 40
0.0
 41
1.0
 50
0.0
 71
     0
 42
2.5
  3
txt
  4

  0
STYLE
  5
3B
330
3
100
AcDbSymbolTableRecord
100
AcDbTextStyleTableRecord
  2
Default
 70
     0
 40
0.0
 41
1.0
 50
0.0
 71
     0
 42
0.2
  3

  4

1001
ACAD
1000
txt
1071
        0
  0
STYLE
  5
3C
330
3
100
AcDbSymbolTableRecord
100
AcDbTextStyleTableRecord
  2
ISO
 70
     0
 40
0.0
 41
1.0
 50
0.0
 71
     0
 42
0.2
  3

  4

1001
ACAD
1000
txt
1071
        0
  0
STYLE
  5
3D
330
3
100
AcDbSymbolTableRecord
100
AcDbTextStyleTableRecord
  2
GIANLU
 70
     0
 40
0.0
 41
1.0
 50
0.0
 71
     0
 42
0.2
  3

  4

1001
ACAD
1000
Arial
1071
        0
  0
ENDTAB
  0
TABLE
  2
VIEW
  5
6
330
0
100
AcDbSymbolTable
 70
     0
  0
ENDTAB
  0
TABLE
  2
UCS
  5
7
330
0
100
AcDbSymbolTable
 70
     0
  0
ENDTAB
  0
TABLE
  2
APPID
  5
9
330
0
100
AcDbSymbolTable
 70
     1
  0
APPID
  5
12
330
9
100
AcDbSymbolTableRecord
100
AcDbRegAppTableRecord
  2
ACAD
 70
     0
  0
ENDTAB
  0
TABLE
  2
DIMSTYLE
  5
A
330
0
100
AcDbSymbolTable
 70
     4
100
AcDbDimStyleTable
  0
DIMSTYLE
105
27
330
A
100
AcDbSymbolTableRecord
100
AcDbDimStyleTableRecord
  2
ISO-25
 70
     0
 41
2.5
 42
0.625
 43
3.75
 44
1.25
 73
     0
 74
     0
 77
     1
 78
     8
140
2.5
141
2.5
143
0.03937
147
0.625
171
     3
172
     1
271
     2
272
     2
274
     3
278
    44
283
     0
284
     8
340
11
  0
DIMSTYLE
105
3E
330
A
100
AcDbSymbolTableRecord
100
AcDbDimStyleTableRecord
  2
Default
 70
     0
  3
<>
 41
4.375
 42
1.05
 44
2.1
 73
     0
 74
     0
 77
     1
 78
     8
140
3.5
146
0.4
147
1.75
178
     3
271
     2
272
     3
284
     8
340
3B
341
3F
342
3F
  0
DIMSTYLE
105
46
330
A
100
AcDbSymbolTableRecord
100
AcDbDimStyleTableRecord
  2
ISO
 70
     0
  3
<>
 41
4.375
 42
1.05
 44
2.1
 73
     0
 74
     0
 77
     1
 78
     8
140
3.5
146
0.4
147
1.75
178
     3
271
     2
272
     3
284
     8
340
3C
341
3F
342
3F
  0
DIMSTYLE
105
47
330
A
100
AcDbSymbolTableRecord
100
AcDbDimStyleTableRecord
  2
zucchetti_unico
 70
     0
  3
<>
 41
3.0
 42
0.9
 44
1.8
 73
     0
 74
     0
 77
     1
 78
     8
140
3.0
146
0.6
147
1.5
176
   104
177
     3
178
     3
271
     2
272
     2
284
     8
340
3D
  0
ENDTAB
  0
TABLE
  2
BLOCK_RECORD
  5
1
330
0
100
AcDbSymbolTable
 70
     7
  0
BLOCK_RECORD
  5
1F
330
1
100
AcDbSymbolTableRecord
100
AcDbBlockTableRecord
  2
*Model_Space
340
22
  0
BLOCK_RECORD
  5
1B
330
1
100
AcDbSymbolTableRecord
100
AcDbBlockTableRecord
  2
*Paper_Space
340
1E
  0
BLOCK_RECORD
  5
23
330
1
100
AcDbSymbolTableRecord
100
AcDbBlockTableRecord
  2
*Paper_Space0
340
26
  0
BLOCK_RECORD
  5
3F
330
1
100
AcDbSymbolTableRecord
100
AcDbBlockTableRecord
  2
_CLOSED
340
0
  0
BLOCK_RECORD
  5
48
330
1
100
AcDbSymbolTableRecord
100
AcDbBlockTableRecord
  2
a
340
0
102
{BLKREFS
331
66
102
}
  0
BLOCK_RECORD
  5
67
330
1
100
AcDbSymbolTableRecord
100
AcDbBlockTableRecord
  2
b
340
0
102
{BLKREFS
331
76
102
}
  0
BLOCK_RECORD
  5
77
330
1
100
AcDbSymbolTableRecord
100
AcDbBlockTableRecord
  2
c
340
0
102
{BLKREFS
331
93
102
}
  0
BLOCK_RECORD
  5
94
330
1
100
AcDbSymbolTableRecord
100
AcDbBlockTableRecord
  2
d
340
0
102
{BLKREFS
331
B4
102
}
  0
BLOCK_RECORD
  5
B5
330
1
100
AcDbSymbolTableRecord
100
AcDbBlockTableRecord
  2
e
340
0
102
{BLKREFS
331
D1
102
}
  0
ENDTAB
  0
ENDSEC
  0
SECTION
  2
BLOCKS
  0
BLOCK
  5
20
330
1F
100
AcDbEntity
  8
0
100
AcDbBlockBegin
  2
*Model_Space
 70
     0
 10
0.0
 20
0.0
 30
0.0
  3
*Model_Space
  1

  0
ENDBLK
  5
21
330
1F
100
AcDbEntity
  8
0
100
AcDbBlockEnd
  0
BLOCK
  5
1C
330
1B
100
AcDbEntity
 67
     1
  8
0
100
AcDbBlockBegin
  2
*Paper_Space
 70
     0
 10
0.0
 20
0.0
 30
0.0
  3
*Paper_Space
  1

  0
ENDBLK
  5
1D
330
1B
100
AcDbEntity
 67
     1
  8
0
100
AcDbBlockEnd
  0
BLOCK
  5
24
330
23
100
AcDbEntity
  8
0
100
AcDbBlockBegin
  2
*Paper_Space0
 70
     0
 10
0.0
 20
0.0
 30
0.0
  3
*Paper_Space0
  1

  0
ENDBLK
  5
25
330
23
100
AcDbEntity
  8
0
100
AcDbBlockEnd
  0
BLOCK
  5
40
330
3F
100
AcDbEntity
  8
0
100
AcDbBlockBegin
  2
_CLOSED
 70
     0
 10
0.0
 20
0.0
 30
0.0
  3
_CLOSED
  1

  0
LINE
  5
42
330
3F
100
AcDbEntity
  8
0
  6
ByBlock
 62
     0
370
    -2
100
AcDbLine
 10
-1.0
 20
0.166667
 30
0.0
 11
0.0
 21
0.0
 31
0.0
  0
LINE
  5
43
330
3F
100
AcDbEntity
  8
0
  6
ByBlock
 62
     0
370
    -2
100
AcDbLine
 10
0.0
 20
0.0
 30
0.0
 11
-1.0
 21
-0.166667
 31
0.0
  0
LINE
  5
44
330
3F
100
AcDbEntity
  8
0
  6
ByBlock
 62
     0
370
    -2
100
AcDbLine
 10
-1.0
 20
0.166667
 30
0.0
 11
-1.0
 21
-0.166667
 31
0.0
  0
LINE
  5
45
330
3F
100
AcDbEntity
  8
0
  6
ByBlock
 62
     0
370
    -2
100
AcDbLine
 10
0.0
 20
0.0
 30
0.0
 11
-1.0
 21
0.0
 31
0.0
  0
ENDBLK
  5
41
330
3F
100
AcDbEntity
  8
0
100
AcDbBlockEnd
  0
BLOCK
  5
64
330
48
100
AcDbEntity
  8
0
100
AcDbBlockBegin
  2
a
 70
     0
 10
65.583908
 20
181.720154
 30
0.0
  3
a
  1

  0
LINE
  5
49
330
48
100
AcDbEntity
  8
0
  6
Continuous
 62
     0
370
    30
100
AcDbLine
 10
128.564114
 20
2537.740703
 30
0.0
 11
128.564114
 21
1563.740703
 31
0.0
  0
LINE
  5
4A
330
48
100
AcDbEntity
  8
0
  6
Continuous
 62
     0
370
    30
100
AcDbLine
 10
128.564114
 20
2672.740703
 30
0.0
 11
128.564114
 21
2572.740703
 31
0.0
  0
LINE
  5
4B
330
48
100
AcDbEntity
  8
0
  6
Continuous
 62
     0
370
     0
100
AcDbLine
 10
128.564114
 20
2572.740703
 30
0.0
 11
158.564114
 21
2572.740703
 31
0.0
  0
LINE
  5
4C
330
48
100
AcDbEntity
  8
0
  6
Continuous
 62
     0
370
    30
100
AcDbLine
 10
128.564114
 20
2572.740703
 30
0.0
 11
128.564114
 21
2537.740703
 31
0.0
  0
LINE
  5
4D
330
48
100
AcDbEntity
  8
0
  6
Continuous
 62
     0
370
    30
100
AcDbLine
 10
158.564114
 20
2537.740703
 30
0.0
 11
128.564114
 21
2537.740703
 31
0.0
  0
LINE
  5
4E
330
48
100
AcDbEntity
  8
0
  6
Continuous
 62
     0
370
     0
100
AcDbLine
 10
143.564114
 20
1558.791738
 30
0.0
 11
93.564114
 21
1558.791738
 31
0.0
  0
LINE
  5
4F
330
48
100
AcDbEntity
  8
0
  6
Continuous
 62
     0
370
     0
100
AcDbLine
 10
193.564114
 20
1558.791738
 30
0.0
 11
143.564114
 21
1558.791738
 31
0.0
  0
LINE
  5
50
330
48
100
AcDbEntity
  8
0
  6
Continuous
 62
     0
370
    30
100
AcDbLine
 10
143.564114
 20
1546.740703
 30
0.0
 11
193.564114
 21
1546.740703
 31
0.0
  0
LINE
  5
51
330
48
100
AcDbEntity
  8
0
  6
Continuous
 62
     0
370
    30
100
AcDbLine
 10
93.564114
 20
1546.740703
 30
0.0
 11
143.564114
 21
1546.740703
 31
0.0
  0
LINE
  5
52
330
48
100
AcDbEntity
  8
0
  6
Continuous
 62
     0
370
     0
100
AcDbLine
 10
94.511778
 20
1559.790368
 30
0.0
 11
143.564114
 21
1559.790368
 31
0.0
  0
LINE
  5
53
330
48
100
AcDbEntity
  8
0
  6
Continuous
 62
     0
370
     0
100
AcDbLine
 10
143.564114
 20
1559.790368
 30
0.0
 11
192.61645
 21
1559.790368
 31
0.0
  0
LINE
  5
54
330
48
100
AcDbEntity
  8
0
  6
Continuous
 62
     0
370
     0
100
AcDbLine
 10
123.825793
 20
1561.32665
 30
0.0
 11
143.564114
 21
1561.32665
 31
0.0
  0
LINE
  5
55
330
48
100
AcDbEntity
  8
0
  6
Continuous
 62
     0
370
     0
100
AcDbLine
 10
143.564114
 20
1561.32665
 30
0.0
 11
163.302434
 21
1561.32665
 31
0.0
  0
LINE
  5
56
330
48
100
AcDbEntity
  8
0
  6
Continuous
 62
     0
370
    30
100
AcDbLine
 10
127.847601
 20
1563.740703
 30
0.0
 11
143.564114
 21
1563.740703
 31
0.0
  0
LINE
  5
57
330
48
100
AcDbEntity
  8
0
  6
Continuous
 62
     0
370
    30
100
AcDbLine
 10
143.564114
 20
1563.740703
 30
0.0
 11
159.280626
 21
1563.740703
 31
0.0
  0
ARC
  5
58
330
48
100
AcDbEntity
  8
0
  6
Continuous
 62
     0
370
    30
100
AcDbCircle
 10
123.56406
 20
1566.319887
 30
0.0
 40
5.000091862373998
100
AcDbArc
 50
273.000559
 51
328.947226
  0
ARC
  5
59
330
48
100
AcDbEntity
  8
0
  6
Continuous
 62
     0
370
    30
100
AcDbCircle
 10
163.564167
 20
1566.319887
 30
0.0
 40
5.000091862374029
100
AcDbArc
 50
211.052774
 51
266.999441
  0
LINE
  5
5A
330
48
100
AcDbEntity
  8
0
  6
Continuous
 62
     0
370
    30
100
AcDbLine
 10
192.61645
 20
1559.790368
 30
0.0
 11
163.302434
 21
1561.32665
 31
0.0
  0
LINE
  5
5B
330
48
100
AcDbEntity
  8
0
  6
Continuous
 62
     0
370
    30
100
AcDbLine
 10
123.825793
 20
1561.32665
 30
0.0
 11
94.511778
 21
1559.790368
 31
0.0
  0
ARC
  5
5C
330
48
100
AcDbEntity
  8
0
  6
Continuous
 62
     0
370
    30
100
AcDbCircle
 10
94.564129
 20
1558.791724
 30
0.0
 40
1.000015125788626
100
AcDbArc
 50
93.000822
 51
179.999178
  0
ARC
  5
5D
330
48
100
AcDbEntity
  8
0
  6
Continuous
 62
     0
370
    30
100
AcDbCircle
 10
192.564098
 20
1558.791724
 30
0.0
 40
1.000015125789177
100
AcDbArc
 50
0.000822
 51
86.999178
  0
LINE
  5
5E
330
48
100
AcDbEntity
  8
0
  6
Continuous
 62
     0
370
    30
100
AcDbLine
 10
93.564114
 20
1558.791738
 30
0.0
 11
93.564114
 21
1546.740703
 31
0.0
  0
LINE
  5
5F
330
48
100
AcDbEntity
  8
0
  6
Continuous
 62
     0
370
    30
100
AcDbLine
 10
193.564114
 20
1558.791738
 30
0.0
 11
193.564114
 21
1546.740703
 31
0.0
  0
LINE
  5
60
330
48
100
AcDbEntity
  8
0
  6
Continuous
 62
     0
370
    30
100
AcDbLine
 10
158.564114
 20
2537.740703
 30
0.0
 11
158.564114
 21
2572.740703
 31
0.0
  0
LINE
  5
61
330
48
100
AcDbEntity
  8
0
  6
Continuous
 62
     0
370
    30
100
AcDbLine
 10
158.564114
 20
2672.740635
 30
0.0
 11
158.564114
 21
2572.740703
 31
0.0
  0
ARC
  5
62
330
48
100
AcDbEntity
  8
0
  6
Continuous
 62
     0
370
    30
100
AcDbCircle
 10
143.564092
 20
2672.740713
 30
0.0
 40
14.99997800547899
100
AcDbArc
 50
359.999702
 51
179.967624
  0
LINE
  5
63
330
48
100
AcDbEntity
  8
0
  6
Continuous
 62
     0
370
    30
100
AcDbLine
 10
158.564114
 20
2537.740703
 30
0.0
 11
158.564114
 21
1563.740703
 31
0.0
  0
ENDBLK
  5
65
330
48
100
AcDbEntity
  8
0
100
AcDbBlockEnd
  0
BLOCK
  5
74
330
67
100
AcDbEntity
  8
0
100
AcDbBlockBegin
  2
b
 70
     0
 10
-20.21608
 20
181.720154
 30
0.0
  3
b
  1

  0
ARC
  5
68
330
67
100
AcDbEntity
  8
0
  6
Continuous
 62
     0
370
    30
100
AcDbCircle
 10
143.564114
 20
347.554779
 30
0.0
 40
15.0
100
AcDbArc
 50
360.0
 51
180.0
  0
LINE
  5
69
330
67
100
AcDbEntity
  8
0
  6
Continuous
 62
     0
370
    30
100
AcDbLine
 10
128.564114
 20
347.554779
 30
0.0
 11
128.564114
 21
147.554779
 31
0.0
  0
ARC
  5
6A
330
67
100
AcDbEntity
  8
0
  6
Continuous
 62
     0
370
    30
100
AcDbCircle
 10
143.564114
 20
147.554779
 30
0.0
 40
15.0
100
AcDbArc
 50
180.0
 51
360.0
  0
ARC
  5
6B
330
67
100
AcDbEntity
  8
0
  6
Continuous
 62
     0
370
    30
100
AcDbCircle
 10
143.564114
 20
347.554823
 30
0.0
 40
49.99999999999933
100
AcDbArc
 50
90.0
 51
252.542397
  0
ARC
  5
6C
330
67
100
AcDbEntity
  8
0
  6
Continuous
 62
     0
370
    30
100
AcDbCircle
 10
143.564114
 20
347.554823
 30
0.0
 40
49.99999999999933
100
AcDbArc
 50
287.457603
 51
90.0
  0
ARC
  5
6D
330
67
100
AcDbEntity
  8
0
  6
Continuous
 62
     0
370
     0
100
AcDbCircle
 10
143.564114
 20
347.554823
 30
0.0
 40
49.05233595624276
100
AcDbArc
 50
90.0
 51
252.19395
  0
ARC
  5
6E
330
67
100
AcDbEntity
  8
0
  6
Continuous
 62
     0
370
     0
100
AcDbCircle
 10
143.564114
 20
347.554823
 30
0.0
 40
49.05233595624274
100
AcDbArc
 50
287.80605
 51
90.0
  0
ARC
  5
6F
330
67
100
AcDbEntity
  8
0
  6
Continuous
 62
     0
370
     0
100
AcDbCircle
 10
143.564114
 20
347.554823
 30
0.0
 40
19.73832021878567
100
AcDbArc
 50
90.0
 51
220.540819
  0
ARC
  5
70
330
67
100
AcDbEntity
  8
0
  6
Continuous
 62
     0
370
     0
100
AcDbCircle
 10
143.564114
 20
347.554823
 30
0.0
 40
19.73832021878567
100
AcDbArc
 50
319.459181
 51
90.0
  0
ARC
  5
71
330
67
100
AcDbEntity
  8
0
  6
Continuous
 62
     0
370
    30
100
AcDbCircle
 10
143.564114
 20
347.554823
 30
0.0
 40
15.71651211961525
100
AcDbArc
 50
90.0
 51
197.367417
  0
ARC
  5
72
330
67
100
AcDbEntity
  8
0
  6
Continuous
 62
     0
370
    30
100
AcDbCircle
 10
143.564114
 20
347.554823
 30
0.0
 40
15.71651211961525
100
AcDbArc
 50
342.632583
 51
90.0
  0
LWPOLYLINE
  5
73
330
67
100
AcDbEntity
  8
0
  6
Continuous
 62
     0
370
    30
100
AcDbPolyline
 90
       80
 70
     0
 43
0.0
 10
158.564117
 20
347.554779
 10
158.564117
 20
347.474609
 10
158.564117
 20
347.236542
 10
158.564117
 20
346.840881
 10
158.564117
 20
346.288269
 10
158.564117
 20
345.579651
 10
158.564117
 20
344.716125
 10
158.564117
 20
343.698914
 10
158.564117
 20
342.529816
 10
158.564117
 20
341.210663
 10
158.564117
 20
339.743439
 10
158.564117
 20
338.130463
 10
158.564117
 20
336.374329
 10
158.564117
 20
334.477783
 10
158.564117
 20
332.443909
 10
158.564117
 20
330.275818
 10
158.564117
 20
327.97699
 10
158.564117
 20
325.551056
 10
158.564117
 20
323.001801
 10
158.564117
 20
320.333344
 10
158.564117
 20
317.549835
 10
158.564117
 20
314.655701
 10
158.564117
 20
311.655518
 10
158.564117
 20
308.554016
 10
158.564117
 20
305.356079
 10
158.564117
 20
302.066681
 10
158.564117
 20
298.691071
 10
158.564117
 20
295.234772
 10
158.564117
 20
291.703217
 10
158.564117
 20
288.101959
 10
158.564117
 20
284.436462
 10
158.564117
 20
280.712585
 10
158.564117
 20
276.93634
 10
158.564117
 20
273.113739
 10
158.564117
 20
269.250732
 10
158.564117
 20
265.353363
 10
158.564117
 20
261.427856
 10
158.564117
 20
257.480438
 10
158.564117
 20
253.517365
 10
158.564117
 20
249.544876
 10
158.564117
 20
245.569214
 10
158.564117
 20
241.59668
 10
158.564117
 20
237.633575
 10
158.564117
 20
233.686142
 10
158.564117
 20
229.760635
 10
158.564117
 20
225.863266
 10
158.564117
 20
222.000168
 10
158.564117
 20
218.177444
 10
158.564117
 20
214.401154
 10
158.564117
 20
210.677292
 10
158.564117
 20
207.011749
 10
158.564117
 20
203.410263
 10
158.564117
 20
199.878494
 10
158.564117
 20
196.422104
 10
158.564117
 20
193.046555
 10
158.564117
 20
189.757202
 10
158.564117
 20
186.559204
 10
158.564117
 20
183.45752
 10
158.564117
 20
180.457169
 10
158.564117
 20
177.562912
 10
158.564117
 20
174.779327
 10
158.564117
 20
172.110748
 10
158.564117
 20
169.56134
 10
158.564117
 20
167.135223
 10
158.564117
 20
164.836258
 10
158.564117
 20
162.668045
 10
158.564117
 20
160.633972
 10
158.564117
 20
158.737289
 10
158.564117
 20
156.981003
 10
158.564117
 20
155.367874
 10
158.564117
 20
153.900467
 10
158.564117
 20
152.58107
 10
158.564117
 20
151.411804
 10
158.564117
 20
150.394485
 10
158.564117
 20
149.530746
 10
158.564117
 20
148.821945
 10
158.564117
 20
148.269196
 10
158.564117
 20
147.873367
 10
158.564117
 20
147.635773
 10
158.564117
 20
147.554779
  0
ENDBLK
  5
75
330
67
100
AcDbEntity
  8
0
100
AcDbBlockEnd
  0
BLOCK
  5
91
330
77
100
AcDbEntity
  8
0
100
AcDbBlockBegin
  2
c
 70
     0
 10
65.583908
 20
176.474548
 30
0.0
  3
c
  1

  0
LINE
  5
78
330
77
100
AcDbEntity
  8
0
  6
Continuous
 62
     0
370
     0
100
AcDbLine
 10
547.483526
 20
2572.740825
 30
0.0
 11
562.483527
 21
2572.740825
 31
0.0
  0
LINE
  5
79
330
77
100
AcDbEntity
  8
0
  6
Continuous
 62
     0
370
     0
100
AcDbLine
 10
562.483527
 20
2572.740825
 30
0.0
 11
577.483526
 21
2572.740825
 31
0.0
  0
LINE
  5
7A
330
77
100
AcDbEntity
  8
0
  6
Continuous
 62
     0
370
     0
100
AcDbLine
 10
762.483527
 20
2572.740825
 30
0.0
 11
777.483526
 21
2572.740825
 31
0.0
  0
LINE
  5
7B
330
77
100
AcDbEntity
  8
0
  6
Continuous
 62
     0
370
     0
100
AcDbLine
 10
747.483526
 20
2572.740825
 30
0.0
 11
762.483527
 21
2572.740825
 31
0.0
  0
LINE
  5
7C
330
77
100
AcDbEntity
  8
0
  6
Continuous
 62
     0
370
    30
100
AcDbLine
 10
777.483526
 20
2537.740825
 30
0.0
 11
762.483527
 21
2537.740825
 31
0.0
  0
LINE
  5
7D
330
77
100
AcDbEntity
  8
0
  6
Continuous
 62
     0
370
    30
100
AcDbLine
 10
762.483527
 20
2537.740825
 30
0.0
 11
747.483526
 21
2537.740825
 31
0.0
  0
LINE
  5
7E
330
77
100
AcDbEntity
  8
0
  6
Continuous
 62
     0
370
    30
100
AcDbLine
 10
612.483526
 20
1546.740825
 30
0.0
 11
612.483526
 21
1558.79186
 31
0.0
  0
LINE
  5
7F
330
77
100
AcDbEntity
  8
0
  6
Continuous
 62
     0
370
     0
100
AcDbLine
 10
612.483526
 20
1558.79186
 30
0.0
 11
512.483526
 21
1558.79186
 31
0.0
  0
LINE
  5
80
330
77
100
AcDbEntity
  8
0
  6
Continuous
 62
     0
370
    30
100
AcDbLine
 10
512.483526
 20
1546.740825
 30
0.0
 11
612.483526
 21
1546.740825
 31
0.0
  0
ARC
  5
81
330
77
100
AcDbEntity
  8
0
  6
Continuous
 62
     0
370
    30
100
AcDbCircle
 10
611.483526
 20
1558.79186
 30
0.0
 40
1.000000000000209
100
AcDbArc
 50
0.0
 51
87.0
  0
LINE
  5
82
330
77
100
AcDbEntity
  8
0
  6
Continuous
 62
     0
370
     0
100
AcDbLine
 10
513.43119
 20
1559.79049
 30
0.0
 11
611.535862
 21
1559.79049
 31
0.0
  0
LINE
  5
83
330
77
100
AcDbEntity
  8
0
  6
Continuous
 62
     0
370
    30
100
AcDbLine
 10
611.535862
 20
1559.79049
 30
0.0
 11
582.221847
 21
1561.326772
 31
0.0
  0
LINE
  5
84
330
77
100
AcDbEntity
  8
0
  6
Continuous
 62
     0
370
     0
100
AcDbLine
 10
542.745206
 20
1561.326772
 30
0.0
 11
582.221847
 21
1561.326772
 31
0.0
  0
ARC
  5
85
330
77
100
AcDbEntity
  8
0
  6
Continuous
 62
     0
370
    30
100
AcDbCircle
 10
582.483526
 20
1566.31992
 30
0.0
 40
5.000000000000031
100
AcDbArc
 50
211.052215
 51
267.0
  0
LINE
  5
86
330
77
100
AcDbEntity
  8
0
  6
Continuous
 62
     0
370
    30
100
AcDbLine
 10
546.767014
 20
1563.740825
 30
0.0
 11
578.200038
 21
1563.740825
 31
0.0
  0
ARC
  5
87
330
77
100
AcDbEntity
  8
0
  6
Continuous
 62
     0
370
    30
100
AcDbCircle
 10
542.483473
 20
1566.320009
 30
0.0
 40
5.000091862373932
100
AcDbArc
 50
273.000559
 51
328.947226
  0
LINE
  5
88
330
77
100
AcDbEntity
  8
0
  6
Continuous
 62
     0
370
    30
100
AcDbLine
 10
513.43119
 20
1559.79049
 30
0.0
 11
542.745206
 21
1561.326772
 31
0.0
  0
ARC
  5
89
330
77
100
AcDbEntity
  8
0
  6
Continuous
 62
     0
370
    30
100
AcDbCircle
 10
513.483541
 20
1558.791846
 30
0.0
 40
1.000015125789289
100
AcDbArc
 50
93.000822
 51
179.999178
  0
LINE
  5
8A
330
77
100
AcDbEntity
  8
0
  6
Continuous
 62
     0
370
    30
100
AcDbLine
 10
512.483526
 20
1558.79186
 30
0.0
 11
512.483526
 21
1546.740825
 31
0.0
  0
LINE
  5
8B
330
77
100
AcDbEntity
  8
0
  6
Continuous
 62
     0
370
    30
100
AcDbLine
 10
777.483526
 20
2537.740825
 30
0.0
 11
777.483526
 21
2572.740825
 31
0.0
  0
LINE
  5
8C
330
77
100
AcDbEntity
  8
0
  6
Continuous
 62
     0
370
    30
100
AcDbLine
 10
747.483526
 20
2537.740825
 30
0.0
 11
747.483526
 21
2572.740825
 31
0.0
  0
ARC
  5
8D
330
77
100
AcDbEntity
  8
0
  6
Continuous
 62
     0
370
    30
100
AcDbCircle
 10
662.483526
 20
2572.740766
 30
0.0
 40
84.9999999996173
100
AcDbArc
 50
0.00004
 51
179.99996
  0
ARC
  5
8E
330
77
100
AcDbEntity
  8
0
  6
Continuous
 62
     0
370
    30
100
AcDbCircle
 10
662.483526
 20
2572.740747
 30
0.0
 40
114.9999999996234
100
AcDbArc
 50
0.000039
 51
179.999961
  0
LINE
  5
8F
330
77
100
AcDbEntity
  8
0
  6
Continuous
 62
     0
370
    30
100
AcDbLine
 10
547.483526
 20
2572.740825
 30
0.0
 11
547.483526
 21
1563.740825
 31
0.0
  0
LINE
  5
90
330
77
100
AcDbEntity
  8
0
  6
Continuous
 62
     0
370
    30
100
AcDbLine
 10
577.483526
 20
2572.740825
 30
0.0
 11
577.483526
 21
1563.740825
 31
0.0
  0
ENDBLK
  5
92
330
77
100
AcDbEntity
  8
0
100
AcDbBlockEnd
  0
BLOCK
  5
B2
330
94
100
AcDbEntity
  8
0
100
AcDbBlockBegin
  2
d
 70
     0
 10
65.583908
 20
181.720154
 30
0.0
  3
d
  1

  0
ELLIPSE
  5
95
330
94
100
AcDbEntity
  8
0
  6
Continuous
 62
     0
370
    30
100
AcDbEllipse
 10
674.485842
 20
268.334103
 30
0.0
 11
15.0
 21
0.0
 31
0.0
210
0.0
220
0.0
230
-1.0
 40
0.707107
 41
0.7853981633974483
 42
3.141592674491448
  0
ELLIPSE
  5
96
330
94
100
AcDbEntity
  8
0
  6
Continuous
 62
     0
370
    30
100
AcDbEllipse
 10
674.485842
 20
268.334103
 30
0.0
 11
15.0
 21
0.0
 31
0.0
210
0.0
220
0.0
230
-1.0
 40
0.707107
 41
0.0000000209016758
 42
0.7853981633974483
  0
ELLIPSE
  5
97
330
94
100
AcDbEntity
  8
0
  6
Continuous
 62
     0
370
     0
100
AcDbEllipse
 10
674.485842
 20
981.804821
 30
0.0
 11
-15.0
 21
0.0
 31
0.0
210
0.0
220
0.0
230
1.0
 40
0.707107
 41
2.356194490192343
 42
3.141592632688119
  0
ELLIPSE
  5
98
330
94
100
AcDbEntity
  8
0
  6
Continuous
 62
     0
370
     0
100
AcDbEllipse
 10
674.485842
 20
981.804821
 30
0.0
 11
-15.0
 21
0.0
 31
0.0
210
0.0
220
0.0
230
1.0
 40
0.707107
 41
6.283184792689139
 42
8.63937979737193
  0
ELLIPSE
  5
99
330
94
100
AcDbEntity
  8
0
  6
Continuous
 62
     0
370
     0
100
AcDbEllipse
 10
533.064486
 20
881.804817
 30
0.0
 11
-15.0
 21
0.0
 31
0.0
210
0.0
220
0.0
230
1.0
 40
0.707107
 41
6.283184431464591
 42
8.63937979737193
  0
ELLIPSE
  5
9A
330
94
100
AcDbEntity
  8
0
  6
Continuous
 62
     0
370
     0
100
AcDbEllipse
 10
533.064486
 20
881.804817
 30
0.0
 11
-15.0
 21
0.0
 31
0.0
210
0.0
220
0.0
230
1.0
 40
0.707107
 41
2.356194490192343
 42
3.141592632688123
  0
ELLIPSE
  5
9B
330
94
100
AcDbEntity
  8
0
  6
Continuous
 62
     0
370
    30
100
AcDbEllipse
 10
533.064486
 20
857.056081
 30
0.0
 11
15.0
 21
0.0
 31
0.0
210
0.0
220
0.0
230
-1.0
 40
0.707107
 41
0.7853981633974504
 42
3.141592674491467
  0
ELLIPSE
  5
9C
330
94
100
AcDbEntity
  8
0
  6
Continuous
 62
     0
370
    30
100
AcDbEllipse
 10
533.064486
 20
857.056081
 30
0.0
 11
15.0
 21
0.0
 31
0.0
210
0.0
220
0.0
230
-1.0
 40
0.707107
 41
0.000000020901669
 42
0.7853981633974504
  0
ELLIPSE
  5
9D
330
94
100
AcDbEntity
  8
0
  6
Continuous
 62
     0
370
     0
100
AcDbEllipse
 10
674.485842
 20
264.834656
 30
0.0
 11
49.99999999999933
 21
0.0
 31
0.0
210
0.0
220
0.0
230
-1.0
 40
0.707107
 41
2.356194490192345
 42
3.141592674491458
  0
ELLIPSE
  5
9E
330
94
100
AcDbEntity
  8
0
  6
Continuous
 62
     0
370
     0
100
AcDbEllipse
 10
674.485842
 20
264.834656
 30
0.0
 11
49.99999999999933
 21
0.0
 31
0.0
210
0.0
220
0.0
230
-1.0
 40
0.707107
 41
0.0000000208922885
 42
2.356194490192344
  0
ELLIPSE
  5
9F
330
94
100
AcDbEntity
  8
0
  6
Continuous
 62
     0
370
    30
100
AcDbEllipse
 10
674.485842
 20
256.313288
 30
0.0
 11
-49.99999999999933
 21
0.0
 31
0.0
210
0.0
220
0.0
230
1.0
 40
0.707107
 41
0.7853981633974483
 42
3.141592632688128
  0
ELLIPSE
  5
A0
330
94
100
AcDbEntity
  8
0
  6
Continuous
 62
     0
370
    30
100
AcDbEllipse
 10
674.485842
 20
256.313288
 30
0.0
 11
-49.99999999999933
 21
0.0
 31
0.0
210
0.0
220
0.0
230
1.0
 40
0.707107
 41
6.28318528627792
 42
7.068583470577035
  0
LWPOLYLINE
  5
A1
330
94
100
AcDbEntity
  8
0
  6
Continuous
 62
     0
370
     0
100
AcDbPolyline
 90
       40
 70
     0
 43
0.0
 10
659.48584
 20
298.564514
 10
656.983398
 20
297.942932
 10
654.556091
 20
297.234161
 10
652.212219
 20
296.444
 10
649.958923
 20
295.578796
 10
647.802368
 20
294.645142
 10
645.747559
 20
293.649872
 10
643.798157
 20
292.599976
 10
641.957031
 20
291.50238
 10
640.225769
 20
290.363953
 10
638.587769
 20
289.178284
 10
637.004822
 20
287.916046
 10
635.484314
 20
286.576599
 10
634.036011
 20
285.161469
 10
632.6698
 20
283.672974
 10
631.395508
 20
282.114197
 10
630.222595
 20
280.489014
 10
629.160278
 20
278.802124
 10
628.217163
 20
277.059052
 10
627.401123
 20
275.265991
 10
626.719177
 20
273.429871
 10
626.177368
 20
271.558289
 10
625.780518
 20
269.659241
 10
625.532288
 20
267.741272
 10
625.434998
 20
265.81311
 10
625.489502
 20
263.883667
 10
625.695312
 20
261.961914
 10
626.050537
 20
260.056671
 10
626.55188
 20
258.176483
 10
627.194824
 20
256.32959
 10
627.973755
 20
254.523651
 10
628.881775
 20
252.765808
 10
629.911316
 20
251.062485
 10
631.053894
 20
249.419373
 10
632.300598
 20
247.841431
 10
633.641846
 20
246.332748
 10
635.067932
 20
244.896652
 10
636.569092
 20
243.535675
 10
638.135437
 20
242.251541
 10
639.800598
 20
241.014618
  0
LWPOLYLINE
  5
A2
330
94
100
AcDbEntity
  8
0
  6
Continuous
 62
     0
370
     0
100
AcDbPolyline
 90
        9
 70
     0
 43
0.0
 10
709.171082
 20
290.066956
 10
707.191406
 20
291.391113
 10
705.064575
 20
292.66156
 10
702.793213
 20
293.867676
 10
700.381714
 20
294.998688
 10
697.836548
 20
296.043884
 10
695.166077
 20
296.992798
 10
692.38092
 20
297.83551
 10
689.48584
 20
298.564514
  0
LWPOLYLINE
  5
A3
330
94
100
AcDbEntity
  8
0
  6
Continuous
 62
     0
370
     0
100
AcDbPolyline
 90
       60
 70
     0
 43
0.0
 10
639.800598
 20
241.014618
 10
641.519226
 20
239.856827
 10
643.349915
 20
238.738876
 10
645.29126
 20
237.667786
 10
647.340759
 20
236.650696
 10
649.494629
 20
235.694748
 10
651.748169
 20
234.807022
 10
654.095276
 20
233.994339
 10
656.528809
 20
233.263275
 10
659.040466
 20
232.619888
 10
661.620728
 20
232.069748
 10
664.259399
 20
231.617706
 10
666.945068
 20
231.267853
 10
669.665833
 20
231.023407
 10
672.409302
 20
230.886642
 10
675.162537
 20
230.858856
 10
677.912598
 20
230.940292
 10
680.646484
 20
231.130203
 10
683.351562
 20
231.426788
 10
686.015564
 20
231.827316
 10
688.626892
 20
232.328125
 10
691.174683
 20
232.924728
 10
693.649048
 20
233.611938
 10
696.041077
 20
234.383896
 10
698.343018
 20
235.234299
 10
700.548279
 20
236.156433
 10
702.651367
 20
237.143311
 10
704.648132
 20
238.187836
 10
706.535339
 20
239.282837
 10
708.311096
 20
240.421234
 10
709.982117
 20
241.601868
 10
711.593079
 20
242.85614
 10
713.142761
 20
244.18927
 10
714.621216
 20
245.599869
 10
716.018372
 20
247.085724
 10
717.324097
 20
248.64386
 10
718.528625
 20
250.270447
 10
719.622314
 20
251.960815
 10
720.596313
 20
253.709503
 10
721.442261
 20
255.510239
 10
722.152893
 20
257.356018
 10
722.721802
 20
259.239166
 10
723.14386
 20
261.15152
 10
723.415039
 20
263.084412
 10
723.532837
 20
265.02887
 10
723.496155
 20
266.975739
 10
723.30542
 20
268.915833
 10
722.96228
 20
270.840088
 10
722.470032
 20
272.739655
 10
721.833191
 20
274.606079
 10
721.057495
 20
276.431396
 10
720.149841
 20
278.208282
 10
719.118042
 20
279.930054
 10
717.970642
 20
281.59079
 10
716.716919
 20
283.185455
 10
715.366577
 20
284.709747
 10
713.929626
 20
286.160217
 10
712.416077
 20
287.534302
 10
710.836121
 20
288.83017
 10
709.171082
 20
290.066956
  0
LWPOLYLINE
  5
A4
330
94
100
AcDbEntity
  8
0
  6
Continuous
 62
     0
370
     0
100
AcDbPolyline
 90
       19
 70
     0
 43
0.0
 10
659.48584
 20
275.699066
 10
658.537415
 20
274.850525
 10
657.664001
 20
273.928711
 10
656.880554
 20
272.938049
 10
656.201538
 20
271.884796
 10
655.640259
 20
270.777191
 10
655.208252
 20
269.625153
 10
654.914795
 20
268.440155
 10
654.766235
 20
267.234924
 10
654.766052
 20
266.022858
 10
654.914124
 20
264.817566
 10
655.207214
 20
263.632538
 10
655.638794
 20
262.480377
 10
656.199707
 20
261.372589
 10
656.878418
 20
260.319183
 10
657.66156
 20
259.328308
 10
658.534729
 20
258.406311
 10
659.482971
 20
257.557526
 10
660.528748
 20
256.757935
  0
LWPOLYLINE
  5
A5
330
94
100
AcDbEntity
  8
0
  6
Continuous
 62
     0
370
     0
100
AcDbPolyline
 90
       37
 70
     0
 43
0.0
 10
660.528748
 20
256.757935
 10
661.652954
 20
256.02243
 10
662.890991
 20
255.331955
 10
664.238892
 20
254.69812
 10
665.689758
 20
254.132507
 10
667.233582
 20
253.64624
 10
668.857422
 20
253.249466
 10
670.545532
 20
252.950943
 10
672.279724
 20
252.757462
 10
674.040222
 20
252.673569
 10
675.80603
 20
252.701263
 10
677.55603
 20
252.83989
 10
679.269775
 20
253.086151
 10
680.928162
 20
253.434341
 10
682.514099
 20
253.876663
 10
684.013306
 20
254.403595
 10
685.414185
 20
255.004456
 10
686.708313
 20
255.667816
 10
687.890259
 20
256.38205
 10
688.965454
 20
257.141785
 10
689.976074
 20
257.976868
 10
690.914917
 20
258.891266
 10
691.765503
 20
259.881195
 10
692.511658
 20
260.940704
 10
693.138306
 20
262.061676
 10
693.631958
 20
263.233917
 10
693.981506
 20
264.445435
 10
694.178955
 20
265.682739
 10
694.219482
 20
266.931305
 10
694.102234
 20
268.176239
 10
693.829895
 20
269.40274
 10
693.408997
 20
270.596741
 10
692.84906
 20
271.745422
 10
692.162415
 20
272.837616
 10
691.363403
 20
273.864105
 10
690.467834
 20
274.817902
 10
689.48584
 20
275.699066
  0
LWPOLYLINE
  5
A6
330
94
100
AcDbEntity
  8
0
  6
Continuous
 62
     0
370
    30
100
AcDbPolyline
 90
       13
 70
     0
 43
0.0
 10
659.48584
 20
271.651398
 10
659.117126
 20
270.659149
 10
658.877747
 20
269.637024
 10
658.773743
 20
268.59787
 10
658.807983
 20
267.555267
 10
658.979492
 20
266.522888
 10
659.283752
 20
265.513977
 10
659.713196
 20
264.540863
 10
660.257141
 20
263.614319
 10
660.902954
 20
262.743347
 10
661.636414
 20
261.934875
 10
662.442566
 20
261.193787
 10
663.37262
 20
260.475861
  0
LWPOLYLINE
  5
A7
330
94
100
AcDbEntity
  8
0
  6
Continuous
 62
     0
370
    30
100
AcDbPolyline
 90
       29
 70
     0
 43
0.0
 10
663.37262
 20
260.475861
 10
664.374268
 20
259.826324
 10
665.487732
 20
259.222473
 10
666.708191
 20
258.677063
 10
668.0271
 20
258.202637
 10
669.432129
 20
257.811066
 10
670.907593
 20
257.512726
 10
672.434509
 20
257.315918
 10
673.991455
 20
257.226349
 10
675.555786
 20
257.246643
 10
677.104309
 20
257.37616
 10
678.614624
 20
257.611176
 10
680.066162
 20
257.944977
 10
681.441162
 20
258.368347
 10
682.725037
 20
258.870361
 10
683.90686
 20
259.438782
 10
684.979553
 20
260.060944
 10
685.943848
 20
260.727417
 10
686.840698
 20
261.465088
 10
687.666321
 20
262.280853
 10
688.40271
 20
263.170319
 10
689.032349
 20
264.126495
 10
689.539124
 20
265.139771
 10
689.909363
 20
266.198151
 10
690.132507
 20
267.287476
 10
690.202148
 20
268.392273
 10
690.116211
 20
269.496185
 10
689.877197
 20
270.582977
 10
689.48584
 20
271.651398
  0
LWPOLYLINE
  5
A8
330
94
100
AcDbEntity
  8
0
  6
Continuous
 62
     0
370
    30
100
AcDbPolyline
 90
       24
 70
     0
 43
0.0
 10
689.48584
 20
298.844482
 10
692.074951
 20
298.209229
 10
694.611511
 20
297.474091
 10
697.08783
 20
296.6409
 10
699.496521
 20
295.712158
 10
701.830627
 20
294.690704
 10
704.08313
 20
293.579498
 10
706.24707
 20
292.3815
 10
708.316101
 20
291.100189
 10
710.28418
 20
289.73938
 10
712.145264
 20
288.302887
 10
713.893555
 20
286.794647
 10
715.523865
 20
285.219116
 10
717.031372
 20
283.580872
 10
718.411316
 20
281.884583
 10
719.658936
 20
280.134949
 10
720.770569
 20
278.33725
 10
721.742554
 20
276.496796
 10
722.571411
 20
274.61911
 10
723.254272
 20
272.709991
 10
723.788757
 20
270.775421
 10
724.173157
 20
268.821442
 10
724.405823
 20
266.854187
 10
724.48584
 20
264.834656
  0
LWPOLYLINE
  5
A9
330
94
100
AcDbEntity
  8
0
  6
Continuous
 62
     0
370
    30
100
AcDbPolyline
 90
       24
 70
     0
 43
0.0
 10
624.48584
 20
264.834656
 10
624.562256
 20
266.808197
 10
624.791382
 20
268.775696
 10
625.172241
 20
270.730072
 10
625.703308
 20
272.665161
 10
626.38269
 20
274.574951
 10
627.208191
 20
276.45343
 10
628.176819
 20
278.2948
 10
629.285217
 20
280.093567
 10
630.529785
 20
281.84433
 10
631.906677
 20
283.541931
 10
633.411255
 20
285.18161
 10
635.038696
 20
286.758698
 10
636.784302
 20
288.268524
 10
638.642822
 20
289.706787
 10
640.608398
 20
291.069427
 10
642.675171
 20
292.3526
 10
644.837036
 20
293.552582
 10
647.087585
 20
294.665833
 10
649.419922
 20
295.689362
 10
651.826965
 20
296.6203
 10
654.301758
 20
297.45578
 10
656.836975
 20
298.193237
 10
659.48584
 20
298.844421
  0
LINE
  5
AA
330
94
100
AcDbEntity
  8
0
  6
Continuous
 62
     0
370
    30
100
AcDbLine
 10
624.485842
 20
264.834657
 30
0.0
 11
624.485842
 21
256.313288
 31
0.0
  0
LINE
  5
AB
330
94
100
AcDbEntity
  8
0
  6
Continuous
 62
     0
370
    30
100
AcDbLine
 10
724.485842
 20
264.834656
 30
0.0
 11
724.485842
 21
256.313287
 31
0.0
  0
LINE
  5
AC
330
94
100
AcDbEntity
  8
0
  6
Continuous
 62
     0
370
    30
100
AcDbLine
 10
518.064486
 20
857.056081
 30
0.0
 11
518.064486
 21
881.804818
 31
0.0
  0
LINE
  5
AD
330
94
100
AcDbEntity
  8
0
  6
Continuous
 62
     0
370
    30
100
AcDbLine
 10
548.064486
 20
857.056081
 30
0.0
 11
548.064486
 21
881.804817
 31
0.0
  0
LWPOLYLINE
  5
AE
330
94
100
AcDbEntity
  8
0
  6
Continuous
 62
     0
370
    30
100
AcDbPolyline
 90
       78
 70
     0
 43
0.0
 10
659.48584
 20
981.80481
 10
659.439514
 20
984.035034
 10
659.303406
 20
986.142395
 10
659.083191
 20
988.119751
 10
658.785217
 20
989.960632
 10
658.417297
 20
991.659729
 10
657.988159
 20
993.213013
 10
657.507568
 20
994.618774
 10
656.985474
 20
995.878235
 10
656.431885
 20
996.99469
 10
655.855347
 20
997.975647
 10
655.262573
 20
998.831543
 10
654.65686
 20
999.575806
 10
654.037231
 20
1000.22345
 10
653.39856
 20
1000.790283
 10
652.730835
 20
1001.290466
 10
652.019775
 20
1001.734985
 10
651.250122
 20
1002.132324
 10
650.404602
 20
1002.484985
 10
649.466919
 20
1002.791626
 10
648.424316
 20
1003.046204
 10
647.265869
 20
1003.240356
 10
645.985474
 20
1003.36438
 10
644.580994
 20
1003.407349
 10
643.052185
 20
1003.358704
 10
641.403076
 20
1003.20929
 10
639.63916
 20
1002.950867
 10
637.767334
 20
1002.577087
 10
635.795715
 20
1002.083313
 10
633.732666
 20
1001.465393
 10
631.586609
 20
1000.721313
 10
629.36615
 20
999.850281
 10
627.079895
 20
998.851624
 10
624.735901
 20
997.725891
 10
622.342102
 20
996.474426
 10
619.906067
 20
995.09906
 10
617.434937
 20
993.602051
 10
614.935791
 20
991.985962
 10
612.415222
 20
990.253723
 10
609.879639
 20
988.408691
 10
607.335144
 20
986.454285
 10
604.787781
 20
984.394226
 10
602.243164
 20
982.232422
 10
599.706909
 20
979.972961
 10
597.184265
 20
977.619995
 10
594.680481
 20
975.177979
 10
592.200623
 20
972.651367
 10
589.74939
 20
970.0448
 10
587.331726
 20
967.363098
 10
584.952026
 20
964.611023
 10
582.61499
 20
961.793579
 10
580.32489
 20
958.915771
 10
578.085815
 20
955.98291
 10
575.901733
 20
953.000305
 10
573.776672
 20
949.973328
 10
571.714661
 20
946.907227
 10
569.719421
 20
943.807556
 10
567.794312
 20
940.680115
 10
565.942688
 20
937.530579
 10
564.167908
 20
934.364807
 10
562.473328
 20
931.188599
 10
560.861816
 20
928.007935
 10
559.336182
 20
924.828857
 10
557.89917
 20
921.657654
 10
556.553284
 20
918.500549
 10
555.300842
 20
915.363953
 10
554.143982
 20
912.254272
 10
553.084595
 20
909.178223
 10
552.12439
 20
906.142456
 10
551.264832
 20
903.15387
 10
550.507019
 20
900.219482
 10
549.851746
 20
897.346436
 10
549.299377
 20
894.542114
 10
548.850098
 20
891.814026
 10
548.503479
 20
889.169678
 10
548.258179
 20
886.616943
 10
548.112671
 20
884.163452
 10
548.064514
 20
881.80481
  0
LWPOLYLINE
  5
AF
330
94
100
AcDbEntity
  8
0
  6
Continuous
 62
     0
370
    30
100
AcDbPolyline
 90
       95
 70
     0
 43
0.0
 10
689.48584
 20
981.80481
 10
689.437805
 20
984.646606
 10
689.292542
 20
987.446289
 10
689.04834
 20
990.202087
 10
688.703308
 20
992.912292
 10
688.255371
 20
995.574707
 10
687.702393
 20
998.186768
 10
687.042053
 20
1000.745972
 10
686.272217
 20
1003.249451
 10
685.390686
 20
1005.693359
 10
684.395325
 20
1008.073486
 10
683.284363
 20
1010.38501
 10
682.056641
 20
1012.622314
 10
680.711853
 20
1014.778931
 10
679.249817
 20
1016.848389
 10
677.671997
 20
1018.823425
 10
675.981323
 20
1020.69635
 10
674.180664
 20
1022.459717
 10
672.275085
 20
1024.106445
 10
670.271118
 20
1025.630371
 10
668.175293
 20
1027.025024
 10
665.995178
 20
1028.285767
 10
663.739319
 20
1029.40918
 10
661.415955
 20
1030.392822
 10
659.033447
 20
1031.23584
 10
656.599731
 20
1031.937988
 10
654.121948
 20
1032.500732
 10
651.606812
 20
1032.925903
 10
649.060059
 20
1033.21582
 10
646.486633
 20
1033.373657
 10
643.890686
 20
1033.40271
 10
641.275452
 20
1033.306152
 10
638.64386
 20
1033.087402
 10
635.998047
 20
1032.749512
 10
633.339844
 20
1032.295654
 10
630.670776
 20
1031.728638
 10
627.992004
 20
1031.050903
 10
625.304749
 20
1030.265137
 10
622.610168
 20
1029.373413
 10
619.909241
 20
1028.37793
 10
617.203003
 20
1027.280762
 10
614.492798
 20
1026.083618
 10
611.779968
 20
1024.78833
 10
609.065857
 20
1023.396606
 10
606.351929
 20
1021.9104
 10
603.639587
 20
1020.331421
 10
600.930725
 20
1018.661438
 10
598.227173
 20
1016.902344
 10
595.530884
 20
1015.055969
 10
592.84375
 20
1013.124207
 10
590.167908
 20
1011.10907
 10
587.505615
 20
1009.012756
 10
584.859131
 20
1006.837463
 10
582.230774
 20
1004.585327
 10
579.622803
 20
1002.258667
 10
577.03772
 20
999.859985
 10
574.477905
 20
997.391724
 10
571.945923
 20
994.856567
 10
569.444153
 20
992.257141
 10
566.975159
 20
989.596191
 10
564.541382
 20
986.876587
 10
562.145325
 20
984.101196
 10
559.78949
 20
981.27301
 10
557.476318
 20
978.39502
 10
555.208191
 20
975.470337
 10
552.987549
 20
972.502075
 10
550.816772
 20
969.49353
 10
548.698181
 20
966.447754
 10
546.633972
 20
963.368164
 10
544.626465
 20
960.257935
 10
542.677795
 20
957.120422
 10
540.789978
 20
953.958923
 10
538.96521
 20
950.776733
 10
537.205322
 20
947.577271
 10
535.51239
 20
944.36377
 10
533.888123
 20
941.139587
 10
532.334351
 20
937.907898
 10
530.852783
 20
934.671997
 10
529.445007
 20
931.43512
 10
528.112671
 20
928.200378
 10
526.857178
 20
924.970825
 10
525.679993
 20
921.749451
 10
524.582458
 20
918.539307
 10
523.565857
 20
915.343262
 10
522.631531
 20
912.16394
 10
521.780579
 20
909.004089
 10
521.01416
 20
905.866211
 10
520.333496
 20
902.75293
 10
519.739685
 20
899.666443
 10
519.233765
 20
896.60907
 10
518.816895
 20
893.582886
 10
518.490356
 20
890.589783
 10
518.255188
 20
887.631653
 10
518.112793
 20
884.710327
 10
518.064514
 20
881.80481
  0
LINE
  5
B0
330
94
100
AcDbEntity
  8
0
  6
Continuous
 62
     0
370
    30
100
AcDbLine
 10
689.485842
 20
981.804821
 30
0.0
 11
689.485842
 21
268.334102
 31
0.0
  0
LINE
  5
B1
330
94
100
AcDbEntity
  8
0
  6
Continuous
 62
     0
370
    30
100
AcDbLine
 10
659.485842
 20
981.804821
 30
0.0
 11
659.485842
 21
268.334103
 31
0.0
  0
ENDBLK
  5
B3
330
94
100
AcDbEntity
  8
0
100
AcDbBlockEnd
  0
BLOCK
  5
CF
330
B5
100
AcDbEntity
  8
0
100
AcDbBlockBegin
  2
e
 70
     0
 10
-201.368469
 20
0.0
 30
0.0
  3
e
  1

  0
LINE
  5
B6
330
B5
100
AcDbEntity
  8
0
  6
Continuous
 62
     0
370
     0
100
AcDbLine
 10
-343.704943
 20
2572.740764
 30
0.0
 11
-328.704943
 21
2572.740764
 31
0.0
  0
LINE
  5
B7
330
B5
100
AcDbEntity
  8
0
  6
Continuous
 62
     0
370
     0
100
AcDbLine
 10
-358.704943
 20
2572.740764
 30
0.0
 11
-343.704943
 21
2572.740764
 31
0.0
  0
LINE
  5
B8
330
B5
100
AcDbEntity
  8
0
  6
Continuous
 62
     0
370
     0
100
AcDbLine
 10
-558.704943
 20
2572.740764
 30
0.0
 11
-543.704943
 21
2572.740764
 31
0.0
  0
LINE
  5
B9
330
B5
100
AcDbEntity
  8
0
  6
Continuous
 62
     0
370
     0
100
AcDbLine
 10
-543.704943
 20
2572.740764
 30
0.0
 11
-528.704943
 21
2572.740764
 31
0.0
  0
LINE
  5
BA
330
B5
100
AcDbEntity
  8
0
  6
Continuous
 62
     0
370
    30
100
AcDbLine
 10
-543.704943
 20
2537.740764
 30
0.0
 11
-558.704943
 21
2537.740764
 31
0.0
  0
LINE
  5
BB
330
B5
100
AcDbEntity
  8
0
  6
Continuous
 62
     0
370
    30
100
AcDbLine
 10
-528.704943
 20
2537.740764
 30
0.0
 11
-543.704943
 21
2537.740764
 31
0.0
  0
LINE
  5
BC
330
B5
100
AcDbEntity
  8
0
  6
Continuous
 62
     0
370
    30
100
AcDbLine
 10
-393.704943
 20
1546.740764
 30
0.0
 11
-393.704943
 21
1558.791799
 31
0.0
  0
LINE
  5
BD
330
B5
100
AcDbEntity
  8
0
  6
Continuous
 62
     0
370
     0
100
AcDbLine
 10
-293.704943
 20
1558.791799
 30
0.0
 11
-393.704943
 21
1558.791799
 31
0.0
  0
LINE
  5
BE
330
B5
100
AcDbEntity
  8
0
  6
Continuous
 62
     0
370
    30
100
AcDbLine
 10
-393.704943
 20
1546.740764
 30
0.0
 11
-293.704943
 21
1546.740764
 31
0.0
  0
ARC
  5
BF
330
B5
100
AcDbEntity
  8
0
  6
Continuous
 62
     0
370
    30
100
AcDbCircle
 10
-392.704943
 20
1558.791799
 30
0.0
 40
1.000000000000209
100
AcDbArc
 50
93.0
 51
180.0
  0
LWPOLYLINE
  5
C0
330
B5
100
AcDbEntity
  8
0
  6
Continuous
 62
     0
370
     0
100
AcDbPolyline
 90
       57
 70
     0
 43
0.0
 10
-392.757294
 20
1559.790405
 10
-392.69342
 20
1559.790405
 10
-392.496918
 20
1559.790405
 10
-392.160828
 20
1559.790405
 10
-391.678986
 20
1559.790405
 10
-391.046295
 20
1559.790405
 10
-390.258759
 20
1559.790405
 10
-389.31369
 20
1559.790405
 10
-388.20993
 20
1559.790405
 10
-386.947784
 20
1559.790405
 10
-385.529327
 20
1559.790405
 10
-383.958282
 20
1559.790405
 10
-382.240082
 20
1559.790405
 10
-380.381775
 20
1559.790405
 10
-378.392029
 20
1559.790405
 10
-376.280975
 20
1559.790405
 10
-374.059906
 20
1559.790405
 10
-371.741333
 20
1559.790405
 10
-369.33847
 20
1559.790405
 10
-366.865204
 20
1559.790405
 10
-364.335724
 20
1559.790405
 10
-361.764374
 20
1559.790405
 10
-359.165222
 20
1559.790405
 10
-356.552063
 20
1559.790405
 10
-353.938141
 20
1559.790405
 10
-351.335815
 20
1559.790405
 10
-348.756744
 20
1559.790405
 10
-346.211426
 20
1559.790405
 10
-343.709412
 20
1559.790405
 10
-341.207611
 20
1559.790405
 10
-338.662445
 20
1559.790405
 10
-336.083435
 20
1559.790405
 10
-333.481201
 20
1559.790405
 10
-330.867279
 20
1559.790405
 10
-328.25412
 20
1559.790405
 10
-325.654877
 20
1559.790405
 10
-323.083374
 20
1559.790405
 10
-320.553741
 20
1559.790405
 10
-318.080231
 20
1559.790405
 10
-315.677094
 20
1559.790405
 10
-313.358185
 20
1559.790405
 10
-311.13678
 20
1559.790405
 10
-309.025269
 20
1559.790405
 10
-307.035065
 20
1559.790405
 10
-305.17627
 20
1559.790405
 10
-303.45755
 20
1559.790405
 10
-301.885956
 20
1559.790405
 10
-300.466949
 20
1559.790405
 10
-299.204254
 20
1559.790405
 10
-298.099884
 20
1559.790405
 10
-297.154266
 20
1559.790405
 10
-296.36615
 20
1559.790405
 10
-295.73291
 20
1559.790405
 10
-295.250519
 20
1559.790405
 10
-294.91391
 20
1559.790405
 10
-294.716919
 20
1559.790405
 10
-294.652618
 20
1559.790405
  0
LINE
  5
C1
330
B5
100
AcDbEntity
  8
0
  6
Continuous
 62
     0
370
    30
100
AcDbLine
 10
-392.757279
 20
1559.790429
 30
0.0
 11
-363.443263
 21
1561.326711
 31
0.0
  0
LWPOLYLINE
  5
C2
330
B5
100
AcDbEntity
  8
0
  6
Continuous
 62
     0
370
     0
100
AcDbPolyline
 90
       37
 70
     0
 43
0.0
 10
-363.443268
 20
1561.32666
 10
-363.380463
 20
1561.32666
 10
-363.184875
 20
1561.32666
 10
-362.847015
 20
1561.32666
 10
-362.359833
 20
1561.32666
 10
-361.719177
 20
1561.32666
 10
-360.924438
 20
1561.32666
 10
-359.978821
 20
1561.32666
 10
-358.889557
 20
1561.32666
 10
-357.667664
 20
1561.32666
 10
-356.32782
 20
1561.32666
 10
-354.887634
 20
1561.32666
 10
-353.366882
 20
1561.32666
 10
-351.786743
 20
1561.32666
 10
-350.168762
 20
1561.32666
 10
-348.534058
 20
1561.32666
 10
-346.902496
 20
1561.32666
 10
-345.292053
 20
1561.32666
 10
-343.718506
 20
1561.32666
 10
-342.145752
 20
1561.32666
 10
-340.535828
 20
1561.32666
 10
-338.90448
 20
1561.32666
 10
-337.269653
 20
1561.32666
 10
-335.651215
 20
1561.32666
 10
-334.070221
 20
1561.32666
 10
-332.548279
 20
1561.32666
 10
-331.106476
 20
1561.32666
 10
-329.764709
 20
1561.32666
 10
-328.540649
 20
1561.32666
 10
-327.448914
 20
1561.32666
 10
-326.500732
 20
1561.32666
 10
-325.703308
 20
1561.32666
 10
-325.059967
 20
1561.32666
 10
-324.570099
 20
1561.32666
 10
-324.229675
 20
1561.32666
 10
-324.031677
 20
1561.32666
 10
-323.966614
 20
1561.32666
  0
ARC
  5
C3
330
B5
100
AcDbEntity
  8
0
  6
Continuous
 62
     0
370
    30
100
AcDbCircle
 10
-363.704943
 20
1566.319859
 30
0.0
 40
5.000000000000031
100
AcDbArc
 50
273.0
 51
328.947785
  0
LWPOLYLINE
  5
C4
330
B5
100
AcDbEntity
  8
0
  6
Continuous
 62
     0
370
    30
100
AcDbPolyline
 90
       33
 70
     0
 43
0.0
 10
-359.421448
 20
1563.740723
 10
-359.357941
 20
1563.740723
 10
-359.159302
 20
1563.740723
 10
-358.815308
 20
1563.740723
 10
-358.318939
 20
1563.740723
 10
-357.667206
 20
1563.740723
 10
-356.861816
 20
1563.740723
 10
-355.909546
 20
1563.740723
 10
-354.822083
 20
1563.740723
 10
-353.615814
 20
1563.740723
 10
-352.310883
 20
1563.740723
 10
-350.930023
 20
1563.740723
 10
-349.497467
 20
1563.740723
 10
-348.037537
 20
1563.740723
 10
-346.573395
 20
1563.740723
 10
-345.126221
 20
1563.740723
 10
-343.714325
 20
1563.740723
 10
-342.30304
 20
1563.740723
 10
-340.856232
 20
1563.740723
 10
-339.392181
 20
1563.740723
 10
-337.932037
 20
1563.740723
 10
-336.498962
 20
1563.740723
 10
-335.117249
 20
1563.740723
 10
-333.811096
 20
1563.740723
 10
-332.603363
 20
1563.740723
 10
-331.514191
 20
1563.740723
 10
-330.559998
 20
1563.740723
 10
-329.752563
 20
1563.740723
 10
-329.098724
 20
1563.740723
 10
-328.60025
 20
1563.740723
 10
-328.254242
 20
1563.740723
 10
-328.053711
 20
1563.740723
 10
-327.988434
 20
1563.740723
  0
ARC
  5
C5
330
B5
100
AcDbEntity
  8
0
  6
Continuous
 62
     0
370
    30
100
AcDbCircle
 10
-323.704889
 20
1566.319948
 30
0.0
 40
5.000091862373932
100
AcDbArc
 50
211.052774
 51
266.999441
  0
LINE
  5
C6
330
B5
100
AcDbEntity
  8
0
  6
Continuous
 62
     0
370
    30
100
AcDbLine
 10
-294.652607
 20
1559.790429
 30
0.0
 11
-323.966623
 21
1561.326711
 31
0.0
  0
ARC
  5
C7
330
B5
100
AcDbEntity
  8
0
  6
Continuous
 62
     0
370
    30
100
AcDbCircle
 10
-294.704958
 20
1558.791785
 30
0.0
 40
1.000015125789289
100
AcDbArc
 50
0.000822
 51
86.999178
  0
LINE
  5
C8
330
B5
100
AcDbEntity
  8
0
  6
Continuous
 62
     0
370
    30
100
AcDbLine
 10
-293.704943
 20
1558.791799
 30
0.0
 11
-293.704943
 21
1546.740764
 31
0.0
  0
LINE
  5
C9
330
B5
100
AcDbEntity
  8
0
  6
Continuous
 62
     0
370
    30
100
AcDbLine
 10
-558.704943
 20
2537.740764
 30
0.0
 11
-558.704943
 21
2572.740764
 31
0.0
  0
LINE
  5
CA
330
B5
100
AcDbEntity
  8
0
  6
Continuous
 62
     0
370
    30
100
AcDbLine
 10
-528.704943
 20
2537.740764
 30
0.0
 11
-528.704943
 21
2572.740764
 31
0.0
  0
ARC
  5
CB
330
B5
100
AcDbEntity
  8
0
  6
Continuous
 62
     0
370
    30
100
AcDbCircle
 10
-443.704943
 20
2572.740281
 30
0.0
 40
85.00000000097057
100
AcDbArc
 50
0.000326
 51
179.999674
  0
ARC
  5
CC
330
B5
100
AcDbEntity
  8
0
  6
Continuous
 62
     0
370
    30
100
AcDbCircle
 10
-443.704943
 20
2572.740766
 30
0.0
 40
114.9999999995971
100
AcDbArc
 50
359.999999
 51
180.000001
  0
LINE
  5
CD
330
B5
100
AcDbEntity
  8
0
  6
Continuous
 62
     0
370
    30
100
AcDbLine
 10
-328.704943
 20
2572.740764
 30
0.0
 11
-328.704943
 21
1563.740764
 31
0.0
  0
LINE
  5
CE
330
B5
100
AcDbEntity
  8
0
  6
Continuous
 62
     0
370
    30
100
AcDbLine
 10
-358.704943
 20
2572.740764
 30
0.0
 11
-358.704943
 21
1563.740764
 31
0.0
  0
ENDBLK
  5
D0
330
B5
100
AcDbEntity
  8
0
100
AcDbBlockEnd
  0
ENDSEC
  0
SECTION
  2
ENTITIES
  0
INSERT
  5
66
330
1F
100
AcDbEntity
  8
0
  6
Continuous
 62
   250
370
     0
100
AcDbBlockReference
  2
a
 10
65.583908
 20
181.720154
 30
0.0
  0
INSERT
  5
76
330
1F
100
AcDbEntity
  8
0
  6
Continuous
 62
   250
370
     0
100
AcDbBlockReference
  2
b
 10
-20.21608
 20
181.720154
 30
0.0
  0
INSERT
  5
93
330
1F
100
AcDbEntity
  8
0
  6
Continuous
 62
   250
370
     0
100
AcDbBlockReference
  2
c
 10
65.583908
 20
176.474548
 30
0.0
  0
INSERT
  5
B4
330
1F
100
AcDbEntity
  8
0
  6
Continuous
 62
   250
370
     0
100
AcDbBlockReference
  2
d
 10
65.583908
 20
181.720154
 30
0.0
  0
INSERT
  5
D1
330
1F
100
AcDbEntity
  8
0
  6
Continuous
 62
   250
370
     0
100
AcDbBlockReference
  2
e
 10
-201.368469
 20
0.0
 30
0.0
  0
ENDSEC
  0
SECTION
  2
OBJECTS
  0
DICTIONARY
  5
C
330
0
100
AcDbDictionary
281
     1
  3
ACAD_GROUP
350
D
  3
ACAD_LAYOUT
350
1A
  3
ACAD_MLEADERSTYLE
350
D4
  3
ACAD_MLINESTYLE
350
17
  3
ACAD_PLOTSETTINGS
350
19
  3
ACAD_PLOTSTYLENAME
350
E
  3
ACAD_VISUALSTYLE
350
2A
  3
AcDbVariableDictionary
350
D2
  0
DICTIONARY
  5
D
102
{ACAD_REACTORS
330
C
102
}
330
C
100
AcDbDictionary
281
     1
  0
DICTIONARY
  5
1A
102
{ACAD_REACTORS
330
C
102
}
330
C
100
AcDbDictionary
281
     1
  3
Layout1
350
1E
  3
Layout2
350
26
  3
Model
350
22
  0
DICTIONARY
  5
D4
102
{ACAD_REACTORS
330
C
102
}
330
C
100
AcDbDictionary
281
     1
  0
DICTIONARY
  5
17
102
{ACAD_REACTORS
330
C
102
}
330
C
100
AcDbDictionary
281
     1
  3
Standard
350
18
  0
DICTIONARY
  5
19
102
{ACAD_REACTORS
330
C
102
}
330
C
100
AcDbDictionary
281
     1
  0
ACDBDICTIONARYWDFLT
  5
E
102
{ACAD_REACTORS
330
C
102
}
330
C
100
AcDbDictionary
281
     1
  3
Normal
350
F
100
AcDbDictionaryWithDefault
340
F
  0
DICTIONARY
  5
2A
102
{ACAD_REACTORS
330
C
102
}
330
C
100
AcDbDictionary
281
     1
  3
2dWireframe
350
2F
  3
3D Hidden
350
31
  3
3dWireframe
350
30
  3
Basic
350
32
  3
Brighten
350
36
  3
ColorChange
350
3A
  3
Conceptual
350
34
  3
Dim
350
35
  3
Facepattern
350
39
  3
Flat
350
2B
  3
FlatWithEdges
350
2C
  3
Gouraud
350
2D
  3
GouraudWithEdges
350
2E
  3
Linepattern
350
38
  3
Realistic
350
33
  3
Thicken
350
37
  0
DICTIONARY
  5
D2
102
{ACAD_REACTORS
330
C
102
}
330
C
100
AcDbDictionary
281
     1
  3
PSOLHEIGHT
350
D6
  3
PSOLWIDTH
350
D5
  0
LAYOUT
  5
1E
102
{ACAD_REACTORS
330
1A
102
}
330
1A
100
AcDbPlotSettings
  1

  2
none_device
  4

  6

 40
0.0
 41
0.0
 42
0.0
 43
0.0
 44
0.0
 45
0.0
 46
0.0
 47
0.0
 48
0.0
 49
0.0
140
0.0
141
0.0
142
1.0
143
1.0
 70
   688
 72
     0
 73
     0
 74
     5
  7

 75
    16
147
1.0
148
0.0
149
0.0
100
AcDbLayout
  1
Layout1
 70
     1
 71
     1
 10
0.0
 20
0.0
 11
420.0
 21
297.0
 12
0.0
 22
0.0
 32
0.0
 14
1.000000E+20
 24
1.000000E+20
 34
1.000000E+20
 15
-1.000000E+20
 25
-1.000000E+20
 35
-1.000000E+20
146
0.0
 13
0.0
 23
0.0
 33
0.0
 16
1.0
 26
0.0
 36
0.0
 17
0.0
 27
1.0
 37
0.0
 76
     0
330
1B
  0
LAYOUT
  5
26
102
{ACAD_REACTORS
330
1A
102
}
330
1A
100
AcDbPlotSettings
  1

  2
none_device
  4

  6

 40
0.0
 41
0.0
 42
0.0
 43
0.0
 44
0.0
 45
0.0
 46
0.0
 47
0.0
 48
0.0
 49
0.0
140
0.0
141
0.0
142
1.0
143
1.0
 70
   688
 72
     0
 73
     0
 74
     5
  7

 75
    16
147
1.0
148
0.0
149
0.0
100
AcDbLayout
  1
Layout2
 70
     1
 71
     2
 10
0.0
 20
0.0
 11
0.0
 21
0.0
 12
0.0
 22
0.0
 32
0.0
 14
0.0
 24
0.0
 34
0.0
 15
0.0
 25
0.0
 35
0.0
146
0.0
 13
0.0
 23
0.0
 33
0.0
 16
1.0
 26
0.0
 36
0.0
 17
0.0
 27
1.0
 37
0.0
 76
     0
330
23
  0
LAYOUT
  5
22
102
{ACAD_REACTORS
330
1A
102
}
330
1A
100
AcDbPlotSettings
  1

  2
none_device
  4

  6

 40
0.0
 41
0.0
 42
0.0
 43
0.0
 44
0.0
 45
0.0
 46
0.0
 47
0.0
 48
0.0
 49
0.0
140
0.0
141
0.0
142
1.0
143
1.0
 70
  1712
 72
     0
 73
     0
 74
     0
  7

 75
     0
147
1.0
148
0.0
149
0.0
100
AcDbLayout
  1
Model
 70
     1
 71
     0
 10
-558.704956
 20
120.322701
 11
777.483521
 21
2687.72168
 12
0.0
 22
0.0
 32
0.0
 14
-558.704956
 24
120.322701
 34
0.0
 15
777.483521
 25
2687.72168
 35
0.0
146
0.0
 13
0.0
 23
0.0
 33
0.0
 16
1.0
 26
0.0
 36
0.0
 17
0.0
 27
1.0
 37
0.0
 76
     0
330
1F
331
29
  0
MLINESTYLE
  5
18
102
{ACAD_REACTORS
330
17
102
}
330
17
100
AcDbMlineStyle
  2
Standard
 70
     0
  3

 62
   256
 51
90.0
 52
90.0
 71
     2
 49
0.5
 62
   256
  6
BYLAYER
 49
-0.5
 62
   256
  6
BYLAYER
  0
ACDBPLACEHOLDER
  5
F
102
{ACAD_REACTORS
330
E
102
}
330
E
  0
VISUALSTYLE
  5
2F
102
{ACAD_REACTORS
330
2A
102
}
330
2A
100
AcDbVisualStyle
  2
2dWireframe
 70
     4
 71
     0
 72
     2
 73
     0
 90
        0
 40
-0.6
 41
-30.0
 62
     5
 63
     7
 74
     1
 91
        4
 64
     7
 65
   257
 75
     1
175
     1
 42
1.0
 92
        0
 66
   257
 43
1.0
 76
     1
 77
     6
 78
     2
 67
     7
 79
     5
170
     0
171
     0
290
     0
174
     0
 93
        1
 44
0.0
173
     0
291
     0
 45
0.0
1001
ACAD
1000
AcDbSavedByObjectVersion
1070
     0
  0
VISUALSTYLE
  5
31
102
{ACAD_REACTORS
330
2A
102
}
330
2A
100
AcDbVisualStyle
  2
3D Hidden
 70
     6
 71
     1
 72
     2
 73
     2
 90
        0
 40
-0.6
 41
-30.0
 62
     5
 63
     7
 74
     2
 91
        2
 64
     7
 65
   257
 75
     2
175
     1
 42
40.0
 92
        0
 66
   257
 43
1.0
 76
     1
 77
     6
 78
     2
 67
     7
 79
     3
170
     0
171
     0
290
     0
174
     0
 93
        1
 44
0.0
173
     0
291
     0
 45
0.0
1001
ACAD
1000
AcDbSavedByObjectVersion
1070
     0
  0
VISUALSTYLE
  5
30
102
{ACAD_REACTORS
330
2A
102
}
330
2A
100
AcDbVisualStyle
  2
3dWireframe
 70
     5
 71
     0
 72
     2
 73
     0
 90
        0
 40
-0.6
 41
-30.0
 62
     5
 63
     7
 74
     1
 91
        4
 64
     7
 65
   257
 75
     1
175
     1
 42
1.0
 92
        0
 66
   257
 43
1.0
 76
     1
 77
     6
 78
     2
 67
     7
 79
     5
170
     0
171
     0
290
     0
174
     0
 93
        1
 44
0.0
173
     0
291
     0
 45
0.0
1001
ACAD
1000
AcDbSavedByObjectVersion
1070
     0
  0
VISUALSTYLE
  5
32
102
{ACAD_REACTORS
330
2A
102
}
330
2A
100
AcDbVisualStyle
  2
Basic
 70
     7
 71
     1
 72
     0
 73
     1
 90
        0
 40
-0.6
 41
-30.0
 62
     5
 63
     7
 74
     0
 91
        4
 64
     7
 65
   257
 75
     1
175
     1
 42
1.0
 92
        8
 66
     7
 43
1.0
 76
     1
 77
     6
 78
     2
 67
     7
 79
     5
170
     0
171
     0
290
     0
174
     0
 93
        1
 44
0.0
173
     0
291
     1
 45
0.0
1001
ACAD
1000
AcDbSavedByObjectVersion
1070
     0
  0
VISUALSTYLE
  5
36
102
{ACAD_REACTORS
330
2A
102
}
330
2A
100
AcDbVisualStyle
  2
Brighten
 70
    12
 71
     2
 72
     2
 73
     0
 90
        0
 40
-0.6
 41
-30.0
 62
     5
 63
     7
 74
     1
 91
        4
 64
     7
 65
   257
 75
     1
175
     1
 42
1.0
 92
        8
 66
     7
 43
1.0
 76
     1
 77
     6
 78
     2
 67
     7
 79
     5
170
     0
171
     0
290
     0
174
     0
 93
        1
 44
50.0
173
     0
291
     1
 45
0.0
1001
ACAD
1000
AcDbSavedByObjectVersion
1070
     0
  0
VISUALSTYLE
  5
3A
102
{ACAD_REACTORS
330
2A
102
}
330
2A
100
AcDbVisualStyle
  2
ColorChange
 70
    16
 71
     2
 72
     2
 73
     3
 90
        0
 40
-0.6
 41
-30.0
 62
     5
 63
     8
 74
     1
 91
        4
 64
     7
 65
   257
 75
     1
175
     1
 42
1.0
 92
        8
 66
     8
 43
1.0
 76
     1
 77
     6
 78
     2
 67
     7
 79
     5
170
     0
171
     0
290
     0
174
     0
 93
        1
 44
0.0
173
     0
291
     1
 45
0.0
1001
ACAD
1000
AcDbSavedByObjectVersion
1070
     0
  0
VISUALSTYLE
  5
34
102
{ACAD_REACTORS
330
2A
102
}
330
2A
100
AcDbVisualStyle
  2
Conceptual
 70
     9
 71
     3
 72
     2
 73
     0
 90
        0
 40
-0.6
 41
-30.0
 62
     5
 63
     7
 74
     2
 91
        2
 64
     7
 65
   257
 75
     1
175
     1
 42
40.0
 92
        8
 66
     7
 43
1.0
 76
     1
 77
     6
 78
     2
 67
     7
 79
     3
170
     0
171
     0
290
     0
174
     0
 93
        1
 44
0.0
173
     0
291
     0
 45
0.0
1001
ACAD
1000
AcDbSavedByObjectVersion
1070
     0
  0
VISUALSTYLE
  5
35
102
{ACAD_REACTORS
330
2A
102
}
330
2A
100
AcDbVisualStyle
  2
Dim
 70
    11
 71
     2
 72
     2
 73
     0
 90
        0
 40
-0.6
 41
-30.0
 62
     5
 63
     7
 74
     1
 91
        4
 64
     7
 65
   257
 75
     1
175
     1
 42
1.0
 92
        8
 66
     7
 43
1.0
 76
     1
 77
     6
 78
     2
 67
     7
 79
     5
170
     0
171
     0
290
     0
174
     0
 93
        1
 44
-50.0
173
     0
291
     1
 45
0.0
1001
ACAD
1000
AcDbSavedByObjectVersion
1070
     0
  0
VISUALSTYLE
  5
39
102
{ACAD_REACTORS
330
2A
102
}
330
2A
100
AcDbVisualStyle
  2
Facepattern
 70
    15
 71
     2
 72
     2
 73
     0
 90
        0
 40
-0.6
 41
-30.0
 62
     5
 63
     7
 74
     1
 91
        4
 64
     7
 65
   257
 75
     1
175
     1
 42
1.0
 92
        8
 66
     7
 43
1.0
 76
     1
 77
     6
 78
     2
 67
     7
 79
     5
170
     0
171
     0
290
     0
174
     0
 93
        1
 44
0.0
173
     0
291
     1
 45
0.0
1001
ACAD
1000
AcDbSavedByObjectVersion
1070
     0
  0
VISUALSTYLE
  5
2B
102
{ACAD_REACTORS
330
2A
102
}
330
2A
100
AcDbVisualStyle
  2
Flat
 70
     0
 71
     2
 72
     1
 73
     1
 90
        2
 40
-0.6
 41
30.0
 62
     5
 63
     7
 74
     0
 91
        4
 64
     7
 65
   257
 75
     1
175
     1
 42
1.0
 92
        8
 66
     7
 43
1.0
 76
     1
 77
     6
 78
     2
 67
     7
 79
     5
170
     0
171
     0
290
     0
174
     0
 93
       13
 44
0.0
173
     0
291
     1
 45
0.0
1001
ACAD
1000
AcDbSavedByObjectVersion
1070
     0
  0
VISUALSTYLE
  5
2C
102
{ACAD_REACTORS
330
2A
102
}
330
2A
100
AcDbVisualStyle
  2
FlatWithEdges
 70
     1
 71
     2
 72
     1
 73
     1
 90
        2
 40
-0.6
 41
30.0
 62
     5
 63
     7
 74
     1
 91
        4
 64
     7
 65
   257
 75
     1
175
     1
 42
1.0
 92
        0
 66
   257
 43
1.0
 76
     1
 77
     6
 78
     2
 67
     7
 79
     5
170
     0
171
     0
290
     0
174
     0
 93
       13
 44
0.0
173
     0
291
     1
 45
0.0
1001
ACAD
1000
AcDbSavedByObjectVersion
1070
     0
  0
VISUALSTYLE
  5
2D
102
{ACAD_REACTORS
330
2A
102
}
330
2A
100
AcDbVisualStyle
  2
Gouraud
 70
     2
 71
     2
 72
     2
 73
     1
 90
        2
 40
-0.6
 41
30.0
 62
     5
 63
     7
 74
     0
 91
        4
 64
     7
 65
   257
 75
     1
175
     1
 42
1.0
 92
        0
 66
     7
 43
1.0
 76
     1
 77
     6
 78
     2
 67
     7
 79
     5
170
     0
171
     0
290
     0
174
     0
 93
       13
 44
0.0
173
     0
291
     1
 45
0.0
1001
ACAD
1000
AcDbSavedByObjectVersion
1070
     0
  0
VISUALSTYLE
  5
2E
102
{ACAD_REACTORS
330
2A
102
}
330
2A
100
AcDbVisualStyle
  2
GouraudWithEdges
 70
     3
 71
     2
 72
     2
 73
     1
 90
        2
 40
-0.6
 41
30.0
 62
     5
 63
     7
 74
     1
 91
        4
 64
     7
 65
   257
 75
     1
175
     1
 42
1.0
 92
        0
 66
   257
 43
1.0
 76
     1
 77
     6
 78
     2
 67
     7
 79
     5
170
     0
171
     0
290
     0
174
     0
 93
       13
 44
0.0
173
     0
291
     1
 45
0.0
1001
ACAD
1000
AcDbSavedByObjectVersion
1070
     0
  0
VISUALSTYLE
  5
38
102
{ACAD_REACTORS
330
2A
102
}
330
2A
100
AcDbVisualStyle
  2
Linepattern
 70
    14
 71
     2
 72
     2
 73
     0
 90
        0
 40
-0.6
 41
-30.0
 62
     5
 63
     7
 74
     1
 91
        4
 64
     7
 65
   257
 75
     7
175
     7
 42
1.0
 92
        8
 66
     7
 43
1.0
 76
     1
 77
     6
 78
     2
 67
     7
 79
     5
170
     0
171
     0
290
     0
174
     0
 93
        1
 44
0.0
173
     0
291
     1
 45
0.0
1001
ACAD
1000
AcDbSavedByObjectVersion
1070
     0
  0
VISUALSTYLE
  5
33
102
{ACAD_REACTORS
330
2A
102
}
330
2A
100
AcDbVisualStyle
  2
Realistic
 70
     8
 71
     2
 72
     2
 73
     0
 90
        0
 40
-0.6
 41
-30.0
 62
     5
 63
     7
 74
     1
 91
        0
 64
     7
 65
   257
 75
     1
175
     1
 42
1.0
 92
        8
 66
     8
 43
1.0
 76
     1
 77
     6
 78
     2
 67
     7
 79
     5
170
     0
171
     0
290
     0
174
     0
 93
       13
 44
0.0
173
     0
291
     0
 45
0.0
1001
ACAD
1000
AcDbSavedByObjectVersion
1070
     0
  0
VISUALSTYLE
  5
37
102
{ACAD_REACTORS
330
2A
102
}
330
2A
100
AcDbVisualStyle
  2
Thicken
 70
    13
 71
     2
 72
     2
 73
     0
 90
        0
 40
-0.6
 41
-30.0
 62
     5
 63
     7
 74
     1
 91
        4
 64
     7
 65
   257
 75
     1
175
     1
 42
1.0
 92
       12
 66
     7
 43
1.0
 76
     1
 77
     6
 78
     2
 67
     7
 79
     5
170
     0
171
     0
290
     0
174
     0
 93
        1
 44
0.0
173
     0
291
     1
 45
0.0
1001
ACAD
1000
AcDbSavedByObjectVersion
1070
     0
  0
DICTIONARYVAR
  5
D6
102
{ACAD_REACTORS
330
D2
102
}
330
D2
100
DictionaryVariables
280
     0
  1
80.000000
  0
DICTIONARYVAR
  5
D5
102
{ACAD_REACTORS
330
D2
102
}
330
D2
100
DictionaryVariables
280
     0
  1
5.000000
  0
ENDSEC
  0
EOF
