  0
SECTION
  2
HEADER
  9
$ACADVER
  1
AC1015
  9
$ACADMAINTVER
 70
     6
  9
$DWGCODEPAGE
  3
ANSI_1252
  9
$INSBASE
 10
0.0
 20
0.0
 30
0.0
  9
$EXTMIN
 10
36.99173
 20
4.131874
 30
0.0
  9
$EXTMAX
 10
293.034637
 20
200.531586
 30
0.0
  9
$LIMMIN
 10
0.0
 20
0.0
  9
$LIMMAX
 10
0.0
 20
0.0
  9
$ORTHOMODE
 70
     0
  9
$REGENMODE
 70
     1
  9
$FILLMODE
 70
     1
  9
$QTEXTMODE
 70
     0
  9
$MIRRTEXT
 70
     1
  9
$LTSCALE
 40
1.0
  9
$ATTMODE
 70
     1
  9
$TEXTSIZE
 40
0.2
  9
$TRACEWID
 40
0.05
  9
$TEXTSTYLE
  7
Standard
  9
$CLAYER
  8
0
  9
$CELTYPE
  6
Continuous
  9
$CECOLOR
 62
   256
  9
$CELTSCALE
 40
1.0
  9
$DISPSILH
 70
     0
  9
$DIMSCALE
 40
1.0
  9
$DIMASZ
 40
0.18
  9
$DIMEXO
 40
0.0625
  9
$DIMDLI
 40
0.38
  9
$DIMRND
 40
0.0
  9
$DIMDLE
 40
0.0
  9
$DIMEXE
 40
0.18
  9
$DIMTP
 40
0.0
  9
$DIMTM
 40
0.0
  9
$DIMTXT
 40
0.18
  9
$DIMCEN
 40
0.09
  9
$DIMTSZ
 40
0.0
  9
$DIMTOL
 70
     0
  9
$DIMLIM
 70
     0
  9
$DIMTIH
 70
     1
  9
$DIMTOH
 70
     1
  9
$DIMSE1
 70
     0
  9
$DIMSE2
 70
     0
  9
$DIMTAD
 70
     0
  9
$DIMZIN
 70
     0
  9
$DIMBLK
  1

  9
$DIMASO
 70
     1
  9
$DIMSHO
 70
     1
  9
$DIMPOST
  1

  9
$DIMAPOST
  1

  9
$DIMALT
 70
     0
  9
$DIMALTD
 70
     2
  9
$DIMALTF
 40
25.4
  9
$DIMLFAC
 40
1.0
  9
$DIMTOFL
 70
     0
  9
$DIMTVP
 40
0.0
  9
$DIMTIX
 70
     0
  9
$DIMSOXD
 70
     0
  9
$DIMSAH
 70
     0
  9
$DIMBLK1
  1

  9
$DIMBLK2
  1

  9
$DIMSTYLE
  2
Standard
  9
$DIMCLRD
 70
     0
  9
$DIMCLRE
 70
     0
  9
$DIMCLRT
 70
     0
  9
$DIMTFAC
 40
1.0
  9
$DIMGAP
 40
0.09
  9
$DIMJUST
 70
     0
  9
$DIMSD1
 70
     0
  9
$DIMSD2
 70
     0
  9
$DIMTOLJ
 70
     1
  9
$DIMTZIN
 70
     0
  9
$DIMALTZ
 70
     0
  9
$DIMALTTZ
 70
     0
  9
$DIMUPT
 70
     0
  9
$DIMDEC
 70
     4
  9
$DIMTDEC
 70
     4
  9
$DIMALTU
 70
     2
  9
$DIMALTTD
 70
     2
  9
$DIMTXSTY
  7
Standard
  9
$DIMAUNIT
 70
     0
  9
$DIMADEC
 70
     0
  9
$DIMALTRND
 40
0.0
  9
$DIMAZIN
 70
     0
  9
$DIMDSEP
 70
     0
  9
$DIMATFIT
 70
     3
  9
$DIMFRAC
 70
     0
  9
$DIMLDRBLK
  1

  9
$DIMLUNIT
 70
     2
  9
$DIMLWD
 70
     0
  9
$DIMLWE
 70
     0
  9
$DIMTMOVE
 70
     0
  9
$LUNITS
 70
     2
  9
$LUPREC
 70
     4
  9
$SKETCHINC
 40
0.1
  9
$FILLETRAD
 40
0.0
  9
$AUNITS
 70
     0
  9
$AUPREC
 70
     0
  9
$MENU
  1
acad
  9
$ELEVATION
 40
0.0
  9
$PELEVATION
 40
0.0
  9
$THICKNESS
 40
0.0
  9
$LIMCHECK
 70
     0
  9
$CHAMFERA
 40
0.0
  9
$CHAMFERB
 40
0.0
  9
$CHAMFERC
 40
0.0
  9
$CHAMFERD
 40
0.0
  9
$SKPOLY
 70
     0
  9
$TDCREATE
 40
0.000000000
  9
$TDUCREATE
 40
0.000000000
  9
$TDUPDATE
 40
0.000000000
  9
$TDUUPDATE
 40
0.000000000
  9
$TDINDWG
 40
0.0000000000
  9
$TDUSRTIMER
 40
0.0000000000
  9
$USRTIMER
 70
     1
  9
$ANGBASE
 50
0.0
  9
$ANGDIR
 70
     0
  9
$PDMODE
 70
     0
  9
$PDSIZE
 40
0.0
  9
$PLINEWID
 40
0.0
  9
$SPLFRAME
 70
     0
  9
$SPLINETYPE
 70
     6
  9
$SPLINESEGS
 70
     8
  9
$HANDSEED
  5
572
  9
$SURFTAB1
 70
     6
  9
$SURFTAB2
 70
     6
  9
$SURFTYPE
 70
     6
  9
$SURFU
 70
     6
  9
$SURFV
 70
     6
  9
$UCSBASE
  2

  9
$UCSNAME
  2

  9
$UCSORG
 10
0.0
 20
0.0
 30
0.0
  9
$UCSXDIR
 10
1.0
 20
0.0
 30
0.0
  9
$UCSYDIR
 10
0.0
 20
1.0
 30
0.0
  9
$UCSORTHOREF
  2

  9
$UCSORTHOVIEW
 70
     0
  9
$UCSORGTOP
 10
0.0
 20
0.0
 30
0.0
  9
$UCSORGBOTTOM
 10
0.0
 20
0.0
 30
0.0
  9
$UCSORGLEFT
 10
0.0
 20
0.0
 30
0.0
  9
$UCSORGRIGHT
 10
0.0
 20
0.0
 30
0.0
  9
$UCSORGFRONT
 10
0.0
 20
0.0
 30
0.0
  9
$UCSORGBACK
 10
0.0
 20
0.0
 30
0.0
  9
$PUCSBASE
  2

  9
$PUCSNAME
  2

  9
$PUCSORG
 10
0.0
 20
0.0
 30
0.0
  9
$PUCSXDIR
 10
1.0
 20
0.0
 30
0.0
  9
$PUCSYDIR
 10
0.0
 20
1.0
 30
0.0
  9
$PUCSORTHOREF
  2

  9
$PUCSORTHOVIEW
 70
     0
  9
$PUCSORGTOP
 10
0.0
 20
0.0
 30
0.0
  9
$PUCSORGBOTTOM
 10
0.0
 20
0.0
 30
0.0
  9
$PUCSORGLEFT
 10
0.0
 20
0.0
 30
0.0
  9
$PUCSORGRIGHT
 10
0.0
 20
0.0
 30
0.0
  9
$PUCSORGFRONT
 10
0.0
 20
0.0
 30
0.0
  9
$PUCSORGBACK
 10
0.0
 20
0.0
 30
0.0
  9
$USERI1
 70
     0
  9
$USERI2
 70
     0
  9
$USERI3
 70
     0
  9
$USERI4
 70
     0
  9
$USERI5
 70
     0
  9
$USERR1
 40
0.0
  9
$USERR2
 40
0.0
  9
$USERR3
 40
0.0
  9
$USERR4
 40
0.0
  9
$USERR5
 40
0.0
  9
$WORLDVIEW
 70
     1
  9
$SHADEDGE
 70
     3
  9
$SHADEDIF
 70
    70
  9
$TILEMODE
 70
     1
  9
$MAXACTVP
 70
    16
  9
$PINSBASE
 10
0.0
 20
0.0
 30
0.0
  9
$PLIMCHECK
 70
     0
  9
$PEXTMIN
 10
1.000000E+20
 20
1.000000E+20
 30
1.000000E+20
  9
$PEXTMAX
 10
-1.000000E+20
 20
-1.000000E+20
 30
-1.000000E+20
  9
$PLIMMIN
 10
0.0
 20
0.0
  9
$PLIMMAX
 10
12.0
 20
9.0
  9
$UNITMODE
 70
     0
  9
$VISRETAIN
 70
     0
  9
$PLINEGEN
 70
     1
  9
$PSLTSCALE
 70
     0
  9
$TREEDEPTH
 70
  3020
  9
$CMLSTYLE
  2
Standard
  9
$CMLJUST
 70
     0
  9
$CMLSCALE
 40
1.0
  9
$PROXYGRAPHICS
 70
     0
  9
$MEASUREMENT
 70
     0
  9
$CELWEIGHT
370
     0
  9
$ENDCAPS
280
     0
  9
$JOINSTYLE
280
     0
  9
$LWDISPLAY
290
     0
  9
$INSUNITS
 70
     0
  9
$HYPERLINKBASE
  1

  9
$STYLESHEET
  1

  9
$XEDIT
290
     1
  9
$CEPSNTYPE
380
     0
  9
$PSTYLEMODE
290
     1
  9
$FINGERPRINTGUID
  2

  9
$VERSIONGUID
  2

  9
$EXTNAMES
290
     1
  9
$PSVPSCALE
 40
0.0
  0
ENDSEC
  0
SECTION
  2
CLASSES
  0
CLASS
  1
LWPOLYLINE
  2
AcDbPolyline
  3
AutoCAD 2000
 90
        0
280
     0
281
     1
  0
CLASS
  1
IMAGE
  2
AcDbRasterImage
  3
ISM
 90
      127
280
     0
281
     1
  0
CLASS
  1
OLE2FRAME
  2
AcDbOle2Frame
  3
AutoCAD 2000
 90
        0
280
     0
281
     1
  0
CLASS
  1
HATCH
  2
AcDbHatch
  3
AutoCAD 2000
 90
        0
280
     0
281
     1
  0
CLASS
  1
DICTIONARYVAR
  2
AcDbDictionaryVar
  3
AutoCAD 2000
 90
        0
280
     0
281
     0
  0
CLASS
  1
RASTERVARIABLES
  2
AcDbRasterVariables
  3
ISM
 90
        0
280
     0
281
     0
  0
CLASS
  1
IMAGEDEF
  2
AcDbRasterImageDef
  3
ISM
 90
        0
280
     0
281
     0
  0
CLASS
  1
IMAGEDEF_REACTOR
  2
AcDbRasterImageDefReactor
  3
ISM
 90
        1
280
     0
281
     0
  0
CLASS
  1
IDBUFFER
  2
AcDbIdBuffer
  3
AutoCAD 2000
 90
        0
280
     0
281
     0
  0
CLASS
  1
SPATIAL_FILTER
  2
AcDbSpatialFilter
  3
AutoCAD 2000
 90
        0
280
     0
281
     0
  0
CLASS
  1
XRECORD
  2
AcDbXrecord
  3
AutoCAD 2000
 90
        0
280
     0
281
     0
  0
CLASS
  1
SORTENTSTABLE
  2
AcDbSortentsTable
  3
AutoCAD 2000
 90
        0
280
     0
281
     0
  0
CLASS
  1
LAYER_INDEX
  2
AcDbLayerIndex
  3
AutoCAD 2000
 90
        0
280
     0
281
     0
  0
CLASS
  1
SPATIAL_INDEX
  2
AcDbSpatialIndex
  3
AutoCAD 2000
 90
        0
280
     0
281
     0
  0
CLASS
  1
OBJECT_PTR
  2
CAseDLPNTableRecord
  3
"ASE-LPNTableRecord"
 90
        1
280
     0
281
     0
  0
CLASS
  1
LAYOUT
  2
AcDbLayout
  3
AutoCAD 2000
 90
        0
280
     0
281
     0
  0
CLASS
  1
PLOTSETTINGS
  2
AcDbPlotSettings
  3
AutoCAD 2000
 90
        0
280
     0
281
     0
  0
CLASS
  1
ACDBDICTIONARYWDFLT
  2
AcDbDictionaryWithDefault
  3
AutoCAD 2000
 90
        0
280
     0
281
     0
  0
CLASS
  1
ACDBPLACEHOLDER
  2
AcDbPlaceHolder
  3
AutoCAD 2000
 90
        0
280
     0
281
     0
  0
CLASS
  1
VBA_PROJECT
  2
AcDbVbaProject
  3
acadvba
 90
        0
280
     0
281
     0
  0
CLASS
  1
WIPEOUT
  2
AcDbWipeout
  3
WipeOut|AutoCAD Express Tool|expresstools@autodesk.com
 90
      127
280
     0
281
     1
  0
CLASS
  1
WIPEOUTVARIABLES
  2
AcDbWipeoutVariables
  3
WipeOut|AutoCAD Express Tool|expresstools@autodesk.com
 90
        0
280
     0
281
     0
  0
CLASS
  1
RTEXT
  2
RText
  3
RText|AutoCAD Express Tool|expresstools@autodesk.com
 90
        0
280
     0
281
     1
  0
CLASS
  1
ARCALIGNEDTEXT
  2
AcDbArcAlignedText
  3
ATEXT|AutoCAD Express Tool|expresstools@autodesk.com
 90
        0
280
     0
281
     1
  0
ENDSEC
  0
SECTION
  2
TABLES
  0
TABLE
  2
VPORT
  5
7
100
AcDbSymbolTable
 70
     1
  0
VPORT
  5
15
100
AcDbSymbolTableRecord
100
AcDbViewportTableRecord
  2
*ACTIVE
 70
     0
 10
0.0
 20
0.0
 11
1.0
 21
1.0
 12
6.591288
 22
4.579184
 13
0.0
 23
0.0
 14
1.0
 24
1.0
 15
0.0
 25
0.0
 16
0.0
 26
0.0
 36
1.0
 17
0.0
 27
0.0
 37
0.0
 40
9.158369
 41
0.688564
 42
50.0
 43
0.0
 44
0.0
 50
0.0
 51
0.0
 71
     0
 72
   100
 73
     1
 74
     1
 75
     0
 76
     0
 77
     0
 78
     0
281
     0
 65
     0
110
0.0
120
0.0
130
0.0
111
1.0
121
0.0
131
0.0
112
0.0
122
1.0
132
0.0
345
0
346
0
 79
     0
146
0.0
  0
ENDTAB
  0
TABLE
  2
LTYPE
  5
4
100
AcDbSymbolTable
 70
   204
  0
LTYPE
  5
11
100
AcDbSymbolTableRecord
100
AcDbLinetypeTableRecord
  2
ByBlock
 70
    64
  3

 72
    65
 73
     0
 40
0.0
  0
LTYPE
  5
12
100
AcDbSymbolTableRecord
100
AcDbLinetypeTableRecord
  2
ByLayer
 70
    64
  3

 72
    65
 73
     0
 40
0.0
  0
LTYPE
  5
13
100
AcDbSymbolTableRecord
100
AcDbLinetypeTableRecord
  2
Continuous
 70
    64
  3
Solid line
 72
    65
 73
     0
 40
0.0
  0
LTYPE
  5
25
100
AcDbSymbolTableRecord
100
AcDbLinetypeTableRecord
  2
DURCHGEHEND
 70
    64
  3

 72
    65
 73
     0
 40
0.0
  0
LTYPE
  5
26
100
AcDbSymbolTableRecord
100
AcDbLinetypeTableRecord
  2
GESTRICHELT
 70
    64
  3

 72
    65
 73
     2
 40
10.0
 49
5.0
 74
     0
 49
-5.0
 74
     0
  0
LTYPE
  5
27
100
AcDbSymbolTableRecord
100
AcDbLinetypeTableRecord
  2
MITTELLINIE
 70
    64
  3

 72
    65
 73
     4
 40
20.0
 49
10.0
 74
     0
 49
-2.0
 74
     0
 49
5.0
 74
     0
 49
-3.0
 74
     0
  0
LTYPE
  5
28
100
AcDbSymbolTableRecord
100
AcDbLinetypeTableRecord
  2
PUNKTIERT
 70
    64
  3

 72
    65
 73
     2
 40
0.25
 49
0.0
 74
     0
 49
-0.25
 74
     0
  0
LTYPE
  5
29
100
AcDbSymbolTableRecord
100
AcDbLinetypeTableRecord
  2
STRICHPUNKTIERT
 70
    64
  3

 72
    65
 73
     4
 40
8.0
 49
5.0
 74
     0
 49
-1.0
 74
     0
 49
1.0
 74
     0
 49
-1.0
 74
     0
  0
LTYPE
  5
2A
100
AcDbSymbolTableRecord
100
AcDbLinetypeTableRecord
  2
STRICH-PUNKT-PUNKT
 70
    64
  3

 72
    65
 73
     6
 40
10.0
 49
5.0
 74
     0
 49
-1.0
 74
     0
 49
1.0
 74
     0
 49
-1.0
 74
     0
 49
1.0
 74
     0
 49
-1.0
 74
     0
  0
LTYPE
  5
2B
100
AcDbSymbolTableRecord
100
AcDbLinetypeTableRecord
  2
STARTPFEIL
 70
    64
  3

 72
    65
 73
     0
 40
0.0
  0
LTYPE
  5
2C
100
AcDbSymbolTableRecord
100
AcDbLinetypeTableRecord
  2
ENDPFEIL
 70
    64
  3

 72
    65
 73
     0
 40
0.0
  0
LTYPE
  5
2D
100
AcDbSymbolTableRecord
100
AcDbLinetypeTableRecord
  2
ENDPUNKT
 70
    64
  3

 72
    65
 73
     0
 40
0.0
  0
LTYPE
  5
2E
100
AcDbSymbolTableRecord
100
AcDbLinetypeTableRecord
  2
PFEIL
 70
    64
  3

 72
    65
 73
     0
 40
0.0
  0
LTYPE
  5
2F
100
AcDbSymbolTableRecord
100
AcDbLinetypeTableRecord
  2
STITCHLINE
 70
    64
  3

 72
    65
 73
     2
 40
6.0
 49
3.0
 74
     0
 49
-3.0
 74
     0
  0
LTYPE
  5
30
100
AcDbSymbolTableRecord
100
AcDbLinetypeTableRecord
  2
MITTELLINIE_2
 70
    64
  3

 72
    65
 73
     4
 40
17.0
 49
10.0
 74
     0
 49
-2.0
 74
     0
 49
3.0
 74
     0
 49
-2.0
 74
     0
  0
LTYPE
  5
31
100
AcDbSymbolTableRecord
100
AcDbLinetypeTableRecord
  2
VERDECKTE_LINIE
 70
    64
  3

 72
    65
 73
     2
 40
4.0
 49
2.0
 74
     0
 49
-2.0
 74
     0
  0
LTYPE
  5
32
100
AcDbSymbolTableRecord
100
AcDbLinetypeTableRecord
  2
PHANTOMLINIE
 70
    64
  3

 72
    65
 73
     6
 40
21.0
 49
10.0
 74
     0
 49
-2.0
 74
     0
 49
3.0
 74
     0
 49
-1.0
 74
     0
 49
3.0
 74
     0
 49
-2.0
 74
     0
  0
LTYPE
  5
33
100
AcDbSymbolTableRecord
100
AcDbLinetypeTableRecord
  2
BRUCHLINIE_1
 70
    64
  3

 72
    65
 73
     0
 40
0.0
  0
LTYPE
  5
34
100
AcDbSymbolTableRecord
100
AcDbLinetypeTableRecord
  2
BRUCHLINIE_2
 70
    64
  3

 72
    65
 73
     0
 40
0.0
  0
LTYPE
  5
35
100
AcDbSymbolTableRecord
100
AcDbLinetypeTableRecord
  2
_DURCHGEHEND
 70
    64
  3

 72
    65
 73
     0
 40
0.0
  0
LTYPE
  5
36
100
AcDbSymbolTableRecord
100
AcDbLinetypeTableRecord
  2
_GESTRICHELT
 70
    64
  3

 72
    65
 73
     2
 40
10.0
 49
5.0
 74
     0
 49
-5.0
 74
     0
  0
LTYPE
  5
37
100
AcDbSymbolTableRecord
100
AcDbLinetypeTableRecord
  2
_MITTELLINIE
 70
    64
  3

 72
    65
 73
     4
 40
20.0
 49
10.0
 74
     0
 49
-2.0
 74
     0
 49
5.0
 74
     0
 49
-3.0
 74
     0
  0
LTYPE
  5
38
100
AcDbSymbolTableRecord
100
AcDbLinetypeTableRecord
  2
_PUNKTIERT
 70
    64
  3

 72
    65
 73
     2
 40
0.25
 49
0.0
 74
     0
 49
-0.25
 74
     0
  0
LTYPE
  5
39
100
AcDbSymbolTableRecord
100
AcDbLinetypeTableRecord
  2
_STRICHPUNKTIERT
 70
    64
  3

 72
    65
 73
     4
 40
8.0
 49
5.0
 74
     0
 49
-1.0
 74
     0
 49
1.0
 74
     0
 49
-1.0
 74
     0
  0
LTYPE
  5
3A
100
AcDbSymbolTableRecord
100
AcDbLinetypeTableRecord
  2
_STRICH-PUNKT-PUNKT
 70
    64
  3

 72
    65
 73
     6
 40
10.0
 49
5.0
 74
     0
 49
-1.0
 74
     0
 49
1.0
 74
     0
 49
-1.0
 74
     0
 49
1.0
 74
     0
 49
-1.0
 74
     0
  0
LTYPE
  5
3B
100
AcDbSymbolTableRecord
100
AcDbLinetypeTableRecord
  2
_STARTPFEIL
 70
    64
  3

 72
    65
 73
     0
 40
0.0
  0
LTYPE
  5
3C
100
AcDbSymbolTableRecord
100
AcDbLinetypeTableRecord
  2
_ENDPFEIL
 70
    64
  3

 72
    65
 73
     0
 40
0.0
  0
LTYPE
  5
3D
100
AcDbSymbolTableRecord
100
AcDbLinetypeTableRecord
  2
_ENDPUNKT
 70
    64
  3

 72
    65
 73
     0
 40
0.0
  0
LTYPE
  5
3E
100
AcDbSymbolTableRecord
100
AcDbLinetypeTableRecord
  2
_PFEIL
 70
    64
  3

 72
    65
 73
     0
 40
0.0
  0
LTYPE
  5
3F
100
AcDbSymbolTableRecord
100
AcDbLinetypeTableRecord
  2
_STITCHLINE
 70
    64
  3

 72
    65
 73
     2
 40
6.0
 49
3.0
 74
     0
 49
-3.0
 74
     0
  0
LTYPE
  5
40
100
AcDbSymbolTableRecord
100
AcDbLinetypeTableRecord
  2
_MITTELLINIE_2
 70
    64
  3

 72
    65
 73
     4
 40
17.0
 49
10.0
 74
     0
 49
-2.0
 74
     0
 49
3.0
 74
     0
 49
-2.0
 74
     0
  0
LTYPE
  5
41
100
AcDbSymbolTableRecord
100
AcDbLinetypeTableRecord
  2
_VERDECKTE_LINIE
 70
    64
  3

 72
    65
 73
     2
 40
4.0
 49
2.0
 74
     0
 49
-2.0
 74
     0
  0
LTYPE
  5
42
100
AcDbSymbolTableRecord
100
AcDbLinetypeTableRecord
  2
_PHANTOMLINIE
 70
    64
  3

 72
    65
 73
     6
 40
21.0
 49
10.0
 74
     0
 49
-2.0
 74
     0
 49
3.0
 74
     0
 49
-1.0
 74
     0
 49
3.0
 74
     0
 49
-2.0
 74
     0
  0
LTYPE
  5
43
100
AcDbSymbolTableRecord
100
AcDbLinetypeTableRecord
  2
_BRUCHLINIE_1
 70
    64
  3

 72
    65
 73
     0
 40
0.0
  0
LTYPE
  5
44
100
AcDbSymbolTableRecord
100
AcDbLinetypeTableRecord
  2
_BRUCHLINIE_2
 70
    64
  3

 72
    65
 73
     0
 40
0.0
  0
LTYPE
  5
45
100
AcDbSymbolTableRecord
100
AcDbLinetypeTableRecord
  2
CONTINUOUS
 70
    64
  3

 72
    65
 73
     0
 40
0.0
  0
LTYPE
  5
46
100
AcDbSymbolTableRecord
100
AcDbLinetypeTableRecord
  2
_DURCHGEHEND
 70
    64
  3

 72
    65
 73
     0
 40
0.0
  0
LTYPE
  5
47
100
AcDbSymbolTableRecord
100
AcDbLinetypeTableRecord
  2
_GESTRICHELT
 70
    64
  3

 72
    65
 73
     2
 40
10.0
 49
5.0
 74
     0
 49
-5.0
 74
     0
  0
LTYPE
  5
48
100
AcDbSymbolTableRecord
100
AcDbLinetypeTableRecord
  2
_MITTELLINIE
 70
    64
  3

 72
    65
 73
     4
 40
20.0
 49
10.0
 74
     0
 49
-2.0
 74
     0
 49
5.0
 74
     0
 49
-3.0
 74
     0
  0
LTYPE
  5
49
100
AcDbSymbolTableRecord
100
AcDbLinetypeTableRecord
  2
_PUNKTIERT
 70
    64
  3

 72
    65
 73
     2
 40
0.25
 49
0.0
 74
     0
 49
-0.25
 74
     0
  0
LTYPE
  5
4A
100
AcDbSymbolTableRecord
100
AcDbLinetypeTableRecord
  2
_STRICHPUNKTIERT
 70
    64
  3

 72
    65
 73
     4
 40
8.0
 49
5.0
 74
     0
 49
-1.0
 74
     0
 49
1.0
 74
     0
 49
-1.0
 74
     0
  0
LTYPE
  5
4B
100
AcDbSymbolTableRecord
100
AcDbLinetypeTableRecord
  2
_STRICH-PUNKT-PUNKT
 70
    64
  3

 72
    65
 73
     6
 40
10.0
 49
5.0
 74
     0
 49
-1.0
 74
     0
 49
1.0
 74
     0
 49
-1.0
 74
     0
 49
1.0
 74
     0
 49
-1.0
 74
     0
  0
LTYPE
  5
4C
100
AcDbSymbolTableRecord
100
AcDbLinetypeTableRecord
  2
_STARTPFEIL
 70
    64
  3

 72
    65
 73
     0
 40
0.0
  0
LTYPE
  5
4D
100
AcDbSymbolTableRecord
100
AcDbLinetypeTableRecord
  2
_ENDPFEIL
 70
    64
  3

 72
    65
 73
     0
 40
0.0
  0
LTYPE
  5
4E
100
AcDbSymbolTableRecord
100
AcDbLinetypeTableRecord
  2
_ENDPUNKT
 70
    64
  3

 72
    65
 73
     0
 40
0.0
  0
LTYPE
  5
4F
100
AcDbSymbolTableRecord
100
AcDbLinetypeTableRecord
  2
_PFEIL
 70
    64
  3

 72
    65
 73
     0
 40
0.0
  0
LTYPE
  5
50
100
AcDbSymbolTableRecord
100
AcDbLinetypeTableRecord
  2
_STITCHLINE
 70
    64
  3

 72
    65
 73
     2
 40
6.0
 49
3.0
 74
     0
 49
-3.0
 74
     0
  0
LTYPE
  5
51
100
AcDbSymbolTableRecord
100
AcDbLinetypeTableRecord
  2
_MITTELLINIE_2
 70
    64
  3

 72
    65
 73
     4
 40
17.0
 49
10.0
 74
     0
 49
-2.0
 74
     0
 49
3.0
 74
     0
 49
-2.0
 74
     0
  0
LTYPE
  5
52
100
AcDbSymbolTableRecord
100
AcDbLinetypeTableRecord
  2
_VERDECKTE_LINIE
 70
    64
  3

 72
    65
 73
     2
 40
4.0
 49
2.0
 74
     0
 49
-2.0
 74
     0
  0
LTYPE
  5
53
100
AcDbSymbolTableRecord
100
AcDbLinetypeTableRecord
  2
_PHANTOMLINIE
 70
    64
  3

 72
    65
 73
     6
 40
21.0
 49
10.0
 74
     0
 49
-2.0
 74
     0
 49
3.0
 74
     0
 49
-1.0
 74
     0
 49
3.0
 74
     0
 49
-2.0
 74
     0
  0
LTYPE
  5
54
100
AcDbSymbolTableRecord
100
AcDbLinetypeTableRecord
  2
_BRUCHLINIE_1
 70
    64
  3

 72
    65
 73
     0
 40
0.0
  0
LTYPE
  5
55
100
AcDbSymbolTableRecord
100
AcDbLinetypeTableRecord
  2
_BRUCHLINIE_2
 70
    64
  3

 72
    65
 73
     0
 40
0.0
  0
LTYPE
  5
56
100
AcDbSymbolTableRecord
100
AcDbLinetypeTableRecord
  2
_DURCHGEHEND
 70
    64
  3

 72
    65
 73
     0
 40
0.0
  0
LTYPE
  5
57
100
AcDbSymbolTableRecord
100
AcDbLinetypeTableRecord
  2
_GESTRICHELT
 70
    64
  3

 72
    65
 73
     2
 40
10.0
 49
5.0
 74
     0
 49
-5.0
 74
     0
  0
LTYPE
  5
58
100
AcDbSymbolTableRecord
100
AcDbLinetypeTableRecord
  2
_MITTELLINIE
 70
    64
  3

 72
    65
 73
     4
 40
20.0
 49
10.0
 74
     0
 49
-2.0
 74
     0
 49
5.0
 74
     0
 49
-3.0
 74
     0
  0
LTYPE
  5
59
100
AcDbSymbolTableRecord
100
AcDbLinetypeTableRecord
  2
_PUNKTIERT
 70
    64
  3

 72
    65
 73
     2
 40
0.25
 49
0.0
 74
     0
 49
-0.25
 74
     0
  0
LTYPE
  5
5A
100
AcDbSymbolTableRecord
100
AcDbLinetypeTableRecord
  2
_STRICHPUNKTIERT
 70
    64
  3

 72
    65
 73
     4
 40
8.0
 49
5.0
 74
     0
 49
-1.0
 74
     0
 49
1.0
 74
     0
 49
-1.0
 74
     0
  0
LTYPE
  5
5B
100
AcDbSymbolTableRecord
100
AcDbLinetypeTableRecord
  2
_STRICH-PUNKT-PUNKT
 70
    64
  3

 72
    65
 73
     6
 40
10.0
 49
5.0
 74
     0
 49
-1.0
 74
     0
 49
1.0
 74
     0
 49
-1.0
 74
     0
 49
1.0
 74
     0
 49
-1.0
 74
     0
  0
LTYPE
  5
5C
100
AcDbSymbolTableRecord
100
AcDbLinetypeTableRecord
  2
_STARTPFEIL
 70
    64
  3

 72
    65
 73
     0
 40
0.0
  0
LTYPE
  5
5D
100
AcDbSymbolTableRecord
100
AcDbLinetypeTableRecord
  2
_ENDPFEIL
 70
    64
  3

 72
    65
 73
     0
 40
0.0
  0
LTYPE
  5
5E
100
AcDbSymbolTableRecord
100
AcDbLinetypeTableRecord
  2
_ENDPUNKT
 70
    64
  3

 72
    65
 73
     0
 40
0.0
  0
LTYPE
  5
5F
100
AcDbSymbolTableRecord
100
AcDbLinetypeTableRecord
  2
_PFEIL
 70
    64
  3

 72
    65
 73
     0
 40
0.0
  0
LTYPE
  5
60
100
AcDbSymbolTableRecord
100
AcDbLinetypeTableRecord
  2
_STITCHLINE
 70
    64
  3

 72
    65
 73
     2
 40
6.0
 49
3.0
 74
     0
 49
-3.0
 74
     0
  0
LTYPE
  5
61
100
AcDbSymbolTableRecord
100
AcDbLinetypeTableRecord
  2
_MITTELLINIE_2
 70
    64
  3

 72
    65
 73
     4
 40
17.0
 49
10.0
 74
     0
 49
-2.0
 74
     0
 49
3.0
 74
     0
 49
-2.0
 74
     0
  0
LTYPE
  5
62
100
AcDbSymbolTableRecord
100
AcDbLinetypeTableRecord
  2
_VERDECKTE_LINIE
 70
    64
  3

 72
    65
 73
     2
 40
4.0
 49
2.0
 74
     0
 49
-2.0
 74
     0
  0
LTYPE
  5
63
100
AcDbSymbolTableRecord
100
AcDbLinetypeTableRecord
  2
_PHANTOMLINIE
 70
    64
  3

 72
    65
 73
     6
 40
21.0
 49
10.0
 74
     0
 49
-2.0
 74
     0
 49
3.0
 74
     0
 49
-1.0
 74
     0
 49
3.0
 74
     0
 49
-2.0
 74
     0
  0
LTYPE
  5
64
100
AcDbSymbolTableRecord
100
AcDbLinetypeTableRecord
  2
_BRUCHLINIE_1
 70
    64
  3

 72
    65
 73
     0
 40
0.0
  0
LTYPE
  5
65
100
AcDbSymbolTableRecord
100
AcDbLinetypeTableRecord
  2
_BRUCHLINIE_2
 70
    64
  3

 72
    65
 73
     0
 40
0.0
  0
LTYPE
  5
66
100
AcDbSymbolTableRecord
100
AcDbLinetypeTableRecord
  2
SLDCENTERLINES0
 70
    64
  3

 72
    65
 73
     4
 40
19.05
 49
15.24
 74
     0
 49
-1.27
 74
     0
 49
1.27
 74
     0
 49
-1.27
 74
     0
  0
LTYPE
  5
67
100
AcDbSymbolTableRecord
100
AcDbLinetypeTableRecord
  2
SLDTANVISIBLE0
 70
    64
  3

 72
    65
 73
     6
 40
12.7
 49
6.35
 74
     0
 49
-1.27
 74
     0
 49
1.27
 74
     0
 49
-1.27
 74
     0
 49
1.27
 74
     0
 49
-1.27
 74
     0
  0
LTYPE
  5
68
100
AcDbSymbolTableRecord
100
AcDbLinetypeTableRecord
  2
_DURCHGEHEND
 70
    64
  3

 72
    65
 73
     0
 40
0.0
  0
LTYPE
  5
69
100
AcDbSymbolTableRecord
100
AcDbLinetypeTableRecord
  2
_GESTRICHELT
 70
    64
  3

 72
    65
 73
     2
 40
10.0
 49
5.0
 74
     0
 49
-5.0
 74
     0
  0
LTYPE
  5
6A
100
AcDbSymbolTableRecord
100
AcDbLinetypeTableRecord
  2
_MITTELLINIE
 70
    64
  3

 72
    65
 73
     4
 40
20.0
 49
10.0
 74
     0
 49
-2.0
 74
     0
 49
5.0
 74
     0
 49
-3.0
 74
     0
  0
LTYPE
  5
6B
100
AcDbSymbolTableRecord
100
AcDbLinetypeTableRecord
  2
_PUNKTIERT
 70
    64
  3

 72
    65
 73
     2
 40
0.25
 49
0.0
 74
     0
 49
-0.25
 74
     0
  0
LTYPE
  5
6C
100
AcDbSymbolTableRecord
100
AcDbLinetypeTableRecord
  2
_STRICHPUNKTIERT
 70
    64
  3

 72
    65
 73
     4
 40
8.0
 49
5.0
 74
     0
 49
-1.0
 74
     0
 49
1.0
 74
     0
 49
-1.0
 74
     0
  0
LTYPE
  5
6D
100
AcDbSymbolTableRecord
100
AcDbLinetypeTableRecord
  2
_STRICH-PUNKT-PUNKT
 70
    64
  3

 72
    65
 73
     6
 40
10.0
 49
5.0
 74
     0
 49
-1.0
 74
     0
 49
1.0
 74
     0
 49
-1.0
 74
     0
 49
1.0
 74
     0
 49
-1.0
 74
     0
  0
LTYPE
  5
6E
100
AcDbSymbolTableRecord
100
AcDbLinetypeTableRecord
  2
_STARTPFEIL
 70
    64
  3

 72
    65
 73
     0
 40
0.0
  0
LTYPE
  5
6F
100
AcDbSymbolTableRecord
100
AcDbLinetypeTableRecord
  2
_ENDPFEIL
 70
    64
  3

 72
    65
 73
     0
 40
0.0
  0
LTYPE
  5
70
100
AcDbSymbolTableRecord
100
AcDbLinetypeTableRecord
  2
_ENDPUNKT
 70
    64
  3

 72
    65
 73
     0
 40
0.0
  0
LTYPE
  5
71
100
AcDbSymbolTableRecord
100
AcDbLinetypeTableRecord
  2
_PFEIL
 70
    64
  3

 72
    65
 73
     0
 40
0.0
  0
LTYPE
  5
72
100
AcDbSymbolTableRecord
100
AcDbLinetypeTableRecord
  2
_STITCHLINE
 70
    64
  3

 72
    65
 73
     2
 40
6.0
 49
3.0
 74
     0
 49
-3.0
 74
     0
  0
LTYPE
  5
73
100
AcDbSymbolTableRecord
100
AcDbLinetypeTableRecord
  2
_MITTELLINIE_2
 70
    64
  3

 72
    65
 73
     4
 40
17.0
 49
10.0
 74
     0
 49
-2.0
 74
     0
 49
3.0
 74
     0
 49
-2.0
 74
     0
  0
LTYPE
  5
74
100
AcDbSymbolTableRecord
100
AcDbLinetypeTableRecord
  2
_VERDECKTE_LINIE
 70
    64
  3

 72
    65
 73
     2
 40
4.0
 49
2.0
 74
     0
 49
-2.0
 74
     0
  0
LTYPE
  5
75
100
AcDbSymbolTableRecord
100
AcDbLinetypeTableRecord
  2
_PHANTOMLINIE
 70
    64
  3

 72
    65
 73
     6
 40
21.0
 49
10.0
 74
     0
 49
-2.0
 74
     0
 49
3.0
 74
     0
 49
-1.0
 74
     0
 49
3.0
 74
     0
 49
-2.0
 74
     0
  0
LTYPE
  5
76
100
AcDbSymbolTableRecord
100
AcDbLinetypeTableRecord
  2
_BRUCHLINIE_1
 70
    64
  3

 72
    65
 73
     0
 40
0.0
  0
LTYPE
  5
77
100
AcDbSymbolTableRecord
100
AcDbLinetypeTableRecord
  2
_BRUCHLINIE_2
 70
    64
  3

 72
    65
 73
     0
 40
0.0
  0
LTYPE
  5
78
100
AcDbSymbolTableRecord
100
AcDbLinetypeTableRecord
  2
_DURCHGEHEND
 70
    64
  3

 72
    65
 73
     0
 40
0.0
  0
LTYPE
  5
79
100
AcDbSymbolTableRecord
100
AcDbLinetypeTableRecord
  2
_GESTRICHELT
 70
    64
  3

 72
    65
 73
     2
 40
10.0
 49
5.0
 74
     0
 49
-5.0
 74
     0
  0
LTYPE
  5
7A
100
AcDbSymbolTableRecord
100
AcDbLinetypeTableRecord
  2
_MITTELLINIE
 70
    64
  3

 72
    65
 73
     4
 40
20.0
 49
10.0
 74
     0
 49
-2.0
 74
     0
 49
5.0
 74
     0
 49
-3.0
 74
     0
  0
LTYPE
  5
7B
100
AcDbSymbolTableRecord
100
AcDbLinetypeTableRecord
  2
_PUNKTIERT
 70
    64
  3

 72
    65
 73
     2
 40
0.25
 49
0.0
 74
     0
 49
-0.25
 74
     0
  0
LTYPE
  5
7C
100
AcDbSymbolTableRecord
100
AcDbLinetypeTableRecord
  2
_STRICHPUNKTIERT
 70
    64
  3

 72
    65
 73
     4
 40
8.0
 49
5.0
 74
     0
 49
-1.0
 74
     0
 49
1.0
 74
     0
 49
-1.0
 74
     0
  0
LTYPE
  5
7D
100
AcDbSymbolTableRecord
100
AcDbLinetypeTableRecord
  2
_STRICH-PUNKT-PUNKT
 70
    64
  3

 72
    65
 73
     6
 40
10.0
 49
5.0
 74
     0
 49
-1.0
 74
     0
 49
1.0
 74
     0
 49
-1.0
 74
     0
 49
1.0
 74
     0
 49
-1.0
 74
     0
  0
LTYPE
  5
7E
100
AcDbSymbolTableRecord
100
AcDbLinetypeTableRecord
  2
_STARTPFEIL
 70
    64
  3

 72
    65
 73
     0
 40
0.0
  0
LTYPE
  5
7F
100
AcDbSymbolTableRecord
100
AcDbLinetypeTableRecord
  2
_ENDPFEIL
 70
    64
  3

 72
    65
 73
     0
 40
0.0
  0
LTYPE
  5
80
100
AcDbSymbolTableRecord
100
AcDbLinetypeTableRecord
  2
_ENDPUNKT
 70
    64
  3

 72
    65
 73
     0
 40
0.0
  0
LTYPE
  5
81
100
AcDbSymbolTableRecord
100
AcDbLinetypeTableRecord
  2
_PFEIL
 70
    64
  3

 72
    65
 73
     0
 40
0.0
  0
LTYPE
  5
82
100
AcDbSymbolTableRecord
100
AcDbLinetypeTableRecord
  2
_STITCHLINE
 70
    64
  3

 72
    65
 73
     2
 40
6.0
 49
3.0
 74
     0
 49
-3.0
 74
     0
  0
LTYPE
  5
83
100
AcDbSymbolTableRecord
100
AcDbLinetypeTableRecord
  2
_MITTELLINIE_2
 70
    64
  3

 72
    65
 73
     4
 40
17.0
 49
10.0
 74
     0
 49
-2.0
 74
     0
 49
3.0
 74
     0
 49
-2.0
 74
     0
  0
LTYPE
  5
84
100
AcDbSymbolTableRecord
100
AcDbLinetypeTableRecord
  2
_VERDECKTE_LINIE
 70
    64
  3

 72
    65
 73
     2
 40
4.0
 49
2.0
 74
     0
 49
-2.0
 74
     0
  0
LTYPE
  5
85
100
AcDbSymbolTableRecord
100
AcDbLinetypeTableRecord
  2
_PHANTOMLINIE
 70
    64
  3

 72
    65
 73
     6
 40
21.0
 49
10.0
 74
     0
 49
-2.0
 74
     0
 49
3.0
 74
     0
 49
-1.0
 74
     0
 49
3.0
 74
     0
 49
-2.0
 74
     0
  0
LTYPE
  5
86
100
AcDbSymbolTableRecord
100
AcDbLinetypeTableRecord
  2
_BRUCHLINIE_1
 70
    64
  3

 72
    65
 73
     0
 40
0.0
  0
LTYPE
  5
87
100
AcDbSymbolTableRecord
100
AcDbLinetypeTableRecord
  2
_BRUCHLINIE_2
 70
    64
  3

 72
    65
 73
     0
 40
0.0
  0
LTYPE
  5
88
100
AcDbSymbolTableRecord
100
AcDbLinetypeTableRecord
  2
_DURCHGEHEND
 70
    64
  3

 72
    65
 73
     0
 40
0.0
  0
LTYPE
  5
89
100
AcDbSymbolTableRecord
100
AcDbLinetypeTableRecord
  2
_GESTRICHELT
 70
    64
  3

 72
    65
 73
     2
 40
10.0
 49
5.0
 74
     0
 49
-5.0
 74
     0
  0
LTYPE
  5
8A
100
AcDbSymbolTableRecord
100
AcDbLinetypeTableRecord
  2
_MITTELLINIE
 70
    64
  3

 72
    65
 73
     4
 40
20.0
 49
10.0
 74
     0
 49
-2.0
 74
     0
 49
5.0
 74
     0
 49
-3.0
 74
     0
  0
LTYPE
  5
8B
100
AcDbSymbolTableRecord
100
AcDbLinetypeTableRecord
  2
_PUNKTIERT
 70
    64
  3

 72
    65
 73
     2
 40
0.25
 49
0.0
 74
     0
 49
-0.25
 74
     0
  0
LTYPE
  5
8C
100
AcDbSymbolTableRecord
100
AcDbLinetypeTableRecord
  2
_STRICHPUNKTIERT
 70
    64
  3

 72
    65
 73
     4
 40
8.0
 49
5.0
 74
     0
 49
-1.0
 74
     0
 49
1.0
 74
     0
 49
-1.0
 74
     0
  0
LTYPE
  5
8D
100
AcDbSymbolTableRecord
100
AcDbLinetypeTableRecord
  2
_STRICH-PUNKT-PUNKT
 70
    64
  3

 72
    65
 73
     6
 40
10.0
 49
5.0
 74
     0
 49
-1.0
 74
     0
 49
1.0
 74
     0
 49
-1.0
 74
     0
 49
1.0
 74
     0
 49
-1.0
 74
     0
  0
LTYPE
  5
8E
100
AcDbSymbolTableRecord
100
AcDbLinetypeTableRecord
  2
_STARTPFEIL
 70
    64
  3

 72
    65
 73
     0
 40
0.0
  0
LTYPE
  5
8F
100
AcDbSymbolTableRecord
100
AcDbLinetypeTableRecord
  2
_ENDPFEIL
 70
    64
  3

 72
    65
 73
     0
 40
0.0
  0
LTYPE
  5
90
100
AcDbSymbolTableRecord
100
AcDbLinetypeTableRecord
  2
_ENDPUNKT
 70
    64
  3

 72
    65
 73
     0
 40
0.0
  0
LTYPE
  5
91
100
AcDbSymbolTableRecord
100
AcDbLinetypeTableRecord
  2
_PFEIL
 70
    64
  3

 72
    65
 73
     0
 40
0.0
  0
LTYPE
  5
92
100
AcDbSymbolTableRecord
100
AcDbLinetypeTableRecord
  2
_STITCHLINE
 70
    64
  3

 72
    65
 73
     2
 40
6.0
 49
3.0
 74
     0
 49
-3.0
 74
     0
  0
LTYPE
  5
93
100
AcDbSymbolTableRecord
100
AcDbLinetypeTableRecord
  2
_MITTELLINIE_2
 70
    64
  3

 72
    65
 73
     4
 40
17.0
 49
10.0
 74
     0
 49
-2.0
 74
     0
 49
3.0
 74
     0
 49
-2.0
 74
     0
  0
LTYPE
  5
94
100
AcDbSymbolTableRecord
100
AcDbLinetypeTableRecord
  2
_VERDECKTE_LINIE
 70
    64
  3

 72
    65
 73
     2
 40
4.0
 49
2.0
 74
     0
 49
-2.0
 74
     0
  0
LTYPE
  5
95
100
AcDbSymbolTableRecord
100
AcDbLinetypeTableRecord
  2
_PHANTOMLINIE
 70
    64
  3

 72
    65
 73
     6
 40
21.0
 49
10.0
 74
     0
 49
-2.0
 74
     0
 49
3.0
 74
     0
 49
-1.0
 74
     0
 49
3.0
 74
     0
 49
-2.0
 74
     0
  0
LTYPE
  5
96
100
AcDbSymbolTableRecord
100
AcDbLinetypeTableRecord
  2
_BRUCHLINIE_1
 70
    64
  3

 72
    65
 73
     0
 40
0.0
  0
LTYPE
  5
97
100
AcDbSymbolTableRecord
100
AcDbLinetypeTableRecord
  2
_BRUCHLINIE_2
 70
    64
  3

 72
    65
 73
     0
 40
0.0
  0
LTYPE
  5
98
100
AcDbSymbolTableRecord
100
AcDbLinetypeTableRecord
  2
_DURCHGEHEND
 70
    64
  3

 72
    65
 73
     0
 40
0.0
  0
LTYPE
  5
99
100
AcDbSymbolTableRecord
100
AcDbLinetypeTableRecord
  2
_GESTRICHELT
 70
    64
  3

 72
    65
 73
     2
 40
10.0
 49
5.0
 74
     0
 49
-5.0
 74
     0
  0
LTYPE
  5
9A
100
AcDbSymbolTableRecord
100
AcDbLinetypeTableRecord
  2
_MITTELLINIE
 70
    64
  3

 72
    65
 73
     4
 40
20.0
 49
10.0
 74
     0
 49
-2.0
 74
     0
 49
5.0
 74
     0
 49
-3.0
 74
     0
  0
LTYPE
  5
9B
100
AcDbSymbolTableRecord
100
AcDbLinetypeTableRecord
  2
_PUNKTIERT
 70
    64
  3

 72
    65
 73
     2
 40
0.25
 49
0.0
 74
     0
 49
-0.25
 74
     0
  0
LTYPE
  5
9C
100
AcDbSymbolTableRecord
100
AcDbLinetypeTableRecord
  2
_STRICHPUNKTIERT
 70
    64
  3

 72
    65
 73
     4
 40
8.0
 49
5.0
 74
     0
 49
-1.0
 74
     0
 49
1.0
 74
     0
 49
-1.0
 74
     0
  0
LTYPE
  5
9D
100
AcDbSymbolTableRecord
100
AcDbLinetypeTableRecord
  2
_STRICH-PUNKT-PUNKT
 70
    64
  3

 72
    65
 73
     6
 40
10.0
 49
5.0
 74
     0
 49
-1.0
 74
     0
 49
1.0
 74
     0
 49
-1.0
 74
     0
 49
1.0
 74
     0
 49
-1.0
 74
     0
  0
LTYPE
  5
9E
100
AcDbSymbolTableRecord
100
AcDbLinetypeTableRecord
  2
_STARTPFEIL
 70
    64
  3

 72
    65
 73
     0
 40
0.0
  0
LTYPE
  5
9F
100
AcDbSymbolTableRecord
100
AcDbLinetypeTableRecord
  2
_ENDPFEIL
 70
    64
  3

 72
    65
 73
     0
 40
0.0
  0
LTYPE
  5
A0
100
AcDbSymbolTableRecord
100
AcDbLinetypeTableRecord
  2
_ENDPUNKT
 70
    64
  3

 72
    65
 73
     0
 40
0.0
  0
LTYPE
  5
A1
100
AcDbSymbolTableRecord
100
AcDbLinetypeTableRecord
  2
_PFEIL
 70
    64
  3

 72
    65
 73
     0
 40
0.0
  0
LTYPE
  5
A2
100
AcDbSymbolTableRecord
100
AcDbLinetypeTableRecord
  2
_STITCHLINE
 70
    64
  3

 72
    65
 73
     2
 40
6.0
 49
3.0
 74
     0
 49
-3.0
 74
     0
  0
LTYPE
  5
A3
100
AcDbSymbolTableRecord
100
AcDbLinetypeTableRecord
  2
_MITTELLINIE_2
 70
    64
  3

 72
    65
 73
     4
 40
17.0
 49
10.0
 74
     0
 49
-2.0
 74
     0
 49
3.0
 74
     0
 49
-2.0
 74
     0
  0
LTYPE
  5
A4
100
AcDbSymbolTableRecord
100
AcDbLinetypeTableRecord
  2
_VERDECKTE_LINIE
 70
    64
  3

 72
    65
 73
     2
 40
4.0
 49
2.0
 74
     0
 49
-2.0
 74
     0
  0
LTYPE
  5
A5
100
AcDbSymbolTableRecord
100
AcDbLinetypeTableRecord
  2
_PHANTOMLINIE
 70
    64
  3

 72
    65
 73
     6
 40
21.0
 49
10.0
 74
     0
 49
-2.0
 74
     0
 49
3.0
 74
     0
 49
-1.0
 74
     0
 49
3.0
 74
     0
 49
-2.0
 74
     0
  0
LTYPE
  5
A6
100
AcDbSymbolTableRecord
100
AcDbLinetypeTableRecord
  2
_BRUCHLINIE_1
 70
    64
  3

 72
    65
 73
     0
 40
0.0
  0
LTYPE
  5
A7
100
AcDbSymbolTableRecord
100
AcDbLinetypeTableRecord
  2
_BRUCHLINIE_2
 70
    64
  3

 72
    65
 73
     0
 40
0.0
  0
LTYPE
  5
A8
100
AcDbSymbolTableRecord
100
AcDbLinetypeTableRecord
  2
_DURCHGEHEND
 70
    64
  3

 72
    65
 73
     0
 40
0.0
  0
LTYPE
  5
A9
100
AcDbSymbolTableRecord
100
AcDbLinetypeTableRecord
  2
_GESTRICHELT
 70
    64
  3

 72
    65
 73
     2
 40
10.0
 49
5.0
 74
     0
 49
-5.0
 74
     0
  0
LTYPE
  5
AA
100
AcDbSymbolTableRecord
100
AcDbLinetypeTableRecord
  2
_MITTELLINIE
 70
    64
  3

 72
    65
 73
     4
 40
20.0
 49
10.0
 74
     0
 49
-2.0
 74
     0
 49
5.0
 74
     0
 49
-3.0
 74
     0
  0
LTYPE
  5
AB
100
AcDbSymbolTableRecord
100
AcDbLinetypeTableRecord
  2
_PUNKTIERT
 70
    64
  3

 72
    65
 73
     2
 40
0.25
 49
0.0
 74
     0
 49
-0.25
 74
     0
  0
LTYPE
  5
AC
100
AcDbSymbolTableRecord
100
AcDbLinetypeTableRecord
  2
_STRICHPUNKTIERT
 70
    64
  3

 72
    65
 73
     4
 40
8.0
 49
5.0
 74
     0
 49
-1.0
 74
     0
 49
1.0
 74
     0
 49
-1.0
 74
     0
  0
LTYPE
  5
AD
100
AcDbSymbolTableRecord
100
AcDbLinetypeTableRecord
  2
_STRICH-PUNKT-PUNKT
 70
    64
  3

 72
    65
 73
     6
 40
10.0
 49
5.0
 74
     0
 49
-1.0
 74
     0
 49
1.0
 74
     0
 49
-1.0
 74
     0
 49
1.0
 74
     0
 49
-1.0
 74
     0
  0
LTYPE
  5
AE
100
AcDbSymbolTableRecord
100
AcDbLinetypeTableRecord
  2
_STARTPFEIL
 70
    64
  3

 72
    65
 73
     0
 40
0.0
  0
LTYPE
  5
AF
100
AcDbSymbolTableRecord
100
AcDbLinetypeTableRecord
  2
_ENDPFEIL
 70
    64
  3

 72
    65
 73
     0
 40
0.0
  0
LTYPE
  5
B0
100
AcDbSymbolTableRecord
100
AcDbLinetypeTableRecord
  2
_ENDPUNKT
 70
    64
  3

 72
    65
 73
     0
 40
0.0
  0
LTYPE
  5
B1
100
AcDbSymbolTableRecord
100
AcDbLinetypeTableRecord
  2
_PFEIL
 70
    64
  3

 72
    65
 73
     0
 40
0.0
  0
LTYPE
  5
B2
100
AcDbSymbolTableRecord
100
AcDbLinetypeTableRecord
  2
_STITCHLINE
 70
    64
  3

 72
    65
 73
     2
 40
6.0
 49
3.0
 74
     0
 49
-3.0
 74
     0
  0
LTYPE
  5
B3
100
AcDbSymbolTableRecord
100
AcDbLinetypeTableRecord
  2
_MITTELLINIE_2
 70
    64
  3

 72
    65
 73
     4
 40
17.0
 49
10.0
 74
     0
 49
-2.0
 74
     0
 49
3.0
 74
     0
 49
-2.0
 74
     0
  0
LTYPE
  5
B4
100
AcDbSymbolTableRecord
100
AcDbLinetypeTableRecord
  2
_VERDECKTE_LINIE
 70
    64
  3

 72
    65
 73
     2
 40
4.0
 49
2.0
 74
     0
 49
-2.0
 74
     0
  0
LTYPE
  5
B5
100
AcDbSymbolTableRecord
100
AcDbLinetypeTableRecord
  2
_PHANTOMLINIE
 70
    64
  3

 72
    65
 73
     6
 40
21.0
 49
10.0
 74
     0
 49
-2.0
 74
     0
 49
3.0
 74
     0
 49
-1.0
 74
     0
 49
3.0
 74
     0
 49
-2.0
 74
     0
  0
LTYPE
  5
B6
100
AcDbSymbolTableRecord
100
AcDbLinetypeTableRecord
  2
_BRUCHLINIE_1
 70
    64
  3

 72
    65
 73
     0
 40
0.0
  0
LTYPE
  5
B7
100
AcDbSymbolTableRecord
100
AcDbLinetypeTableRecord
  2
_BRUCHLINIE_2
 70
    64
  3

 72
    65
 73
     0
 40
0.0
  0
LTYPE
  5
B8
100
AcDbSymbolTableRecord
100
AcDbLinetypeTableRecord
  2
4_2-0_7-0_7-0_7
 70
    64
  3

 72
    65
 73
     4
 40
6.35
 49
4.233334
 74
     0
 49
-0.705556
 74
     0
 49
0.705556
 74
     0
 49
-0.705556
 74
     0
  0
LTYPE
  5
B9
100
AcDbSymbolTableRecord
100
AcDbLinetypeTableRecord
  2
0_7-0_7
 70
    64
  3

 72
    65
 73
     2
 40
1.411111
 49
0.705556
 74
     0
 49
-0.705556
 74
     0
  0
LTYPE
  5
BA
100
AcDbSymbolTableRecord
100
AcDbLinetypeTableRecord
  2
_DURCHGEHEND
 70
    64
  3

 72
    65
 73
     0
 40
0.0
  0
LTYPE
  5
BB
100
AcDbSymbolTableRecord
100
AcDbLinetypeTableRecord
  2
_GESTRICHELT
 70
    64
  3

 72
    65
 73
     2
 40
10.0
 49
5.0
 74
     0
 49
-5.0
 74
     0
  0
LTYPE
  5
BC
100
AcDbSymbolTableRecord
100
AcDbLinetypeTableRecord
  2
_MITTELLINIE
 70
    64
  3

 72
    65
 73
     4
 40
20.0
 49
10.0
 74
     0
 49
-2.0
 74
     0
 49
5.0
 74
     0
 49
-3.0
 74
     0
  0
LTYPE
  5
BD
100
AcDbSymbolTableRecord
100
AcDbLinetypeTableRecord
  2
_PUNKTIERT
 70
    64
  3

 72
    65
 73
     2
 40
0.25
 49
0.0
 74
     0
 49
-0.25
 74
     0
  0
LTYPE
  5
BE
100
AcDbSymbolTableRecord
100
AcDbLinetypeTableRecord
  2
_STRICHPUNKTIERT
 70
    64
  3

 72
    65
 73
     4
 40
8.0
 49
5.0
 74
     0
 49
-1.0
 74
     0
 49
1.0
 74
     0
 49
-1.0
 74
     0
  0
LTYPE
  5
BF
100
AcDbSymbolTableRecord
100
AcDbLinetypeTableRecord
  2
_STRICH-PUNKT-PUNKT
 70
    64
  3

 72
    65
 73
     6
 40
10.0
 49
5.0
 74
     0
 49
-1.0
 74
     0
 49
1.0
 74
     0
 49
-1.0
 74
     0
 49
1.0
 74
     0
 49
-1.0
 74
     0
  0
LTYPE
  5
C0
100
AcDbSymbolTableRecord
100
AcDbLinetypeTableRecord
  2
_STARTPFEIL
 70
    64
  3

 72
    65
 73
     0
 40
0.0
  0
LTYPE
  5
C1
100
AcDbSymbolTableRecord
100
AcDbLinetypeTableRecord
  2
_ENDPFEIL
 70
    64
  3

 72
    65
 73
     0
 40
0.0
  0
LTYPE
  5
C2
100
AcDbSymbolTableRecord
100
AcDbLinetypeTableRecord
  2
_ENDPUNKT
 70
    64
  3

 72
    65
 73
     0
 40
0.0
  0
LTYPE
  5
C3
100
AcDbSymbolTableRecord
100
AcDbLinetypeTableRecord
  2
_PFEIL
 70
    64
  3

 72
    65
 73
     0
 40
0.0
  0
LTYPE
  5
C4
100
AcDbSymbolTableRecord
100
AcDbLinetypeTableRecord
  2
_STITCHLINE
 70
    64
  3

 72
    65
 73
     2
 40
6.0
 49
3.0
 74
     0
 49
-3.0
 74
     0
  0
LTYPE
  5
C5
100
AcDbSymbolTableRecord
100
AcDbLinetypeTableRecord
  2
_MITTELLINIE_2
 70
    64
  3

 72
    65
 73
     4
 40
17.0
 49
10.0
 74
     0
 49
-2.0
 74
     0
 49
3.0
 74
     0
 49
-2.0
 74
     0
  0
LTYPE
  5
C6
100
AcDbSymbolTableRecord
100
AcDbLinetypeTableRecord
  2
_VERDECKTE_LINIE
 70
    64
  3

 72
    65
 73
     2
 40
4.0
 49
2.0
 74
     0
 49
-2.0
 74
     0
  0
LTYPE
  5
C7
100
AcDbSymbolTableRecord
100
AcDbLinetypeTableRecord
  2
_PHANTOMLINIE
 70
    64
  3

 72
    65
 73
     6
 40
21.0
 49
10.0
 74
     0
 49
-2.0
 74
     0
 49
3.0
 74
     0
 49
-1.0
 74
     0
 49
3.0
 74
     0
 49
-2.0
 74
     0
  0
LTYPE
  5
C8
100
AcDbSymbolTableRecord
100
AcDbLinetypeTableRecord
  2
_BRUCHLINIE_1
 70
    64
  3

 72
    65
 73
     0
 40
0.0
  0
LTYPE
  5
C9
100
AcDbSymbolTableRecord
100
AcDbLinetypeTableRecord
  2
_BRUCHLINIE_2
 70
    64
  3

 72
    65
 73
     0
 40
0.0
  0
LTYPE
  5
CA
100
AcDbSymbolTableRecord
100
AcDbLinetypeTableRecord
  2
_DURCHGEHEND
 70
    64
  3

 72
    65
 73
     0
 40
0.0
  0
LTYPE
  5
CB
100
AcDbSymbolTableRecord
100
AcDbLinetypeTableRecord
  2
_GESTRICHELT
 70
    64
  3

 72
    65
 73
     2
 40
10.0
 49
5.0
 74
     0
 49
-5.0
 74
     0
  0
LTYPE
  5
CC
100
AcDbSymbolTableRecord
100
AcDbLinetypeTableRecord
  2
_MITTELLINIE
 70
    64
  3

 72
    65
 73
     4
 40
20.0
 49
10.0
 74
     0
 49
-2.0
 74
     0
 49
5.0
 74
     0
 49
-3.0
 74
     0
  0
LTYPE
  5
CD
100
AcDbSymbolTableRecord
100
AcDbLinetypeTableRecord
  2
_PUNKTIERT
 70
    64
  3

 72
    65
 73
     2
 40
0.25
 49
0.0
 74
     0
 49
-0.25
 74
     0
  0
LTYPE
  5
CE
100
AcDbSymbolTableRecord
100
AcDbLinetypeTableRecord
  2
_STRICHPUNKTIERT
 70
    64
  3

 72
    65
 73
     4
 40
8.0
 49
5.0
 74
     0
 49
-1.0
 74
     0
 49
1.0
 74
     0
 49
-1.0
 74
     0
  0
LTYPE
  5
CF
100
AcDbSymbolTableRecord
100
AcDbLinetypeTableRecord
  2
_STRICH-PUNKT-PUNKT
 70
    64
  3

 72
    65
 73
     6
 40
10.0
 49
5.0
 74
     0
 49
-1.0
 74
     0
 49
1.0
 74
     0
 49
-1.0
 74
     0
 49
1.0
 74
     0
 49
-1.0
 74
     0
  0
LTYPE
  5
D0
100
AcDbSymbolTableRecord
100
AcDbLinetypeTableRecord
  2
_STARTPFEIL
 70
    64
  3

 72
    65
 73
     0
 40
0.0
  0
LTYPE
  5
D1
100
AcDbSymbolTableRecord
100
AcDbLinetypeTableRecord
  2
_ENDPFEIL
 70
    64
  3

 72
    65
 73
     0
 40
0.0
  0
LTYPE
  5
D2
100
AcDbSymbolTableRecord
100
AcDbLinetypeTableRecord
  2
_ENDPUNKT
 70
    64
  3

 72
    65
 73
     0
 40
0.0
  0
LTYPE
  5
D3
100
AcDbSymbolTableRecord
100
AcDbLinetypeTableRecord
  2
_PFEIL
 70
    64
  3

 72
    65
 73
     0
 40
0.0
  0
LTYPE
  5
D4
100
AcDbSymbolTableRecord
100
AcDbLinetypeTableRecord
  2
_STITCHLINE
 70
    64
  3

 72
    65
 73
     2
 40
6.0
 49
3.0
 74
     0
 49
-3.0
 74
     0
  0
LTYPE
  5
D5
100
AcDbSymbolTableRecord
100
AcDbLinetypeTableRecord
  2
_MITTELLINIE_2
 70
    64
  3

 72
    65
 73
     4
 40
17.0
 49
10.0
 74
     0
 49
-2.0
 74
     0
 49
3.0
 74
     0
 49
-2.0
 74
     0
  0
LTYPE
  5
D6
100
AcDbSymbolTableRecord
100
AcDbLinetypeTableRecord
  2
_VERDECKTE_LINIE
 70
    64
  3

 72
    65
 73
     2
 40
4.0
 49
2.0
 74
     0
 49
-2.0
 74
     0
  0
LTYPE
  5
D7
100
AcDbSymbolTableRecord
100
AcDbLinetypeTableRecord
  2
_PHANTOMLINIE
 70
    64
  3

 72
    65
 73
     6
 40
21.0
 49
10.0
 74
     0
 49
-2.0
 74
     0
 49
3.0
 74
     0
 49
-1.0
 74
     0
 49
3.0
 74
     0
 49
-2.0
 74
     0
  0
LTYPE
  5
D8
100
AcDbSymbolTableRecord
100
AcDbLinetypeTableRecord
  2
_BRUCHLINIE_1
 70
    64
  3

 72
    65
 73
     0
 40
0.0
  0
LTYPE
  5
D9
100
AcDbSymbolTableRecord
100
AcDbLinetypeTableRecord
  2
_BRUCHLINIE_2
 70
    64
  3

 72
    65
 73
     0
 40
0.0
  0
LTYPE
  5
DA
100
AcDbSymbolTableRecord
100
AcDbLinetypeTableRecord
  2
1_3-1_3
 70
    64
  3

 72
    65
 73
     2
 40
2.822222
 49
1.411111
 74
     0
 49
-1.411111
 74
     0
  0
LTYPE
  5
DB
100
AcDbSymbolTableRecord
100
AcDbLinetypeTableRecord
  2
_DURCHGEHEND
 70
    64
  3

 72
    65
 73
     0
 40
0.0
  0
LTYPE
  5
DC
100
AcDbSymbolTableRecord
100
AcDbLinetypeTableRecord
  2
_GESTRICHELT
 70
    64
  3

 72
    65
 73
     2
 40
10.0
 49
5.0
 74
     0
 49
-5.0
 74
     0
  0
LTYPE
  5
DD
100
AcDbSymbolTableRecord
100
AcDbLinetypeTableRecord
  2
_MITTELLINIE
 70
    64
  3

 72
    65
 73
     4
 40
20.0
 49
10.0
 74
     0
 49
-2.0
 74
     0
 49
5.0
 74
     0
 49
-3.0
 74
     0
  0
LTYPE
  5
DE
100
AcDbSymbolTableRecord
100
AcDbLinetypeTableRecord
  2
_PUNKTIERT
 70
    64
  3

 72
    65
 73
     2
 40
0.25
 49
0.0
 74
     0
 49
-0.25
 74
     0
  0
LTYPE
  5
DF
100
AcDbSymbolTableRecord
100
AcDbLinetypeTableRecord
  2
_STRICHPUNKTIERT
 70
    64
  3

 72
    65
 73
     4
 40
8.0
 49
5.0
 74
     0
 49
-1.0
 74
     0
 49
1.0
 74
     0
 49
-1.0
 74
     0
  0
LTYPE
  5
E0
100
AcDbSymbolTableRecord
100
AcDbLinetypeTableRecord
  2
_STRICH-PUNKT-PUNKT
 70
    64
  3

 72
    65
 73
     6
 40
10.0
 49
5.0
 74
     0
 49
-1.0
 74
     0
 49
1.0
 74
     0
 49
-1.0
 74
     0
 49
1.0
 74
     0
 49
-1.0
 74
     0
  0
LTYPE
  5
E1
100
AcDbSymbolTableRecord
100
AcDbLinetypeTableRecord
  2
_STARTPFEIL
 70
    64
  3

 72
    65
 73
     0
 40
0.0
  0
LTYPE
  5
E2
100
AcDbSymbolTableRecord
100
AcDbLinetypeTableRecord
  2
_ENDPFEIL
 70
    64
  3

 72
    65
 73
     0
 40
0.0
  0
LTYPE
  5
E3
100
AcDbSymbolTableRecord
100
AcDbLinetypeTableRecord
  2
_ENDPUNKT
 70
    64
  3

 72
    65
 73
     0
 40
0.0
  0
LTYPE
  5
E4
100
AcDbSymbolTableRecord
100
AcDbLinetypeTableRecord
  2
_PFEIL
 70
    64
  3

 72
    65
 73
     0
 40
0.0
  0
LTYPE
  5
E5
100
AcDbSymbolTableRecord
100
AcDbLinetypeTableRecord
  2
_STITCHLINE
 70
    64
  3

 72
    65
 73
     2
 40
6.0
 49
3.0
 74
     0
 49
-3.0
 74
     0
  0
LTYPE
  5
E6
100
AcDbSymbolTableRecord
100
AcDbLinetypeTableRecord
  2
_MITTELLINIE_2
 70
    64
  3

 72
    65
 73
     4
 40
17.0
 49
10.0
 74
     0
 49
-2.0
 74
     0
 49
3.0
 74
     0
 49
-2.0
 74
     0
  0
LTYPE
  5
E7
100
AcDbSymbolTableRecord
100
AcDbLinetypeTableRecord
  2
_VERDECKTE_LINIE
 70
    64
  3

 72
    65
 73
     2
 40
4.0
 49
2.0
 74
     0
 49
-2.0
 74
     0
  0
LTYPE
  5
E8
100
AcDbSymbolTableRecord
100
AcDbLinetypeTableRecord
  2
_PHANTOMLINIE
 70
    64
  3

 72
    65
 73
     6
 40
21.0
 49
10.0
 74
     0
 49
-2.0
 74
     0
 49
3.0
 74
     0
 49
-1.0
 74
     0
 49
3.0
 74
     0
 49
-2.0
 74
     0
  0
LTYPE
  5
E9
100
AcDbSymbolTableRecord
100
AcDbLinetypeTableRecord
  2
_BRUCHLINIE_1
 70
    64
  3

 72
    65
 73
     0
 40
0.0
  0
LTYPE
  5
EA
100
AcDbSymbolTableRecord
100
AcDbLinetypeTableRecord
  2
_BRUCHLINIE_2
 70
    64
  3

 72
    65
 73
     0
 40
0.0
  0
LTYPE
  5
EB
100
AcDbSymbolTableRecord
100
AcDbLinetypeTableRecord
  2
SLDUSER-DASHED0
 70
    64
  3

 72
    65
 73
     2
 40
1.905
 49
1.27
 74
     0
 49
-0.635
 74
     0
  0
LTYPE
  5
EC
100
AcDbSymbolTableRecord
100
AcDbLinetypeTableRecord
  2
CONTINUOUS
 70
    64
  3

 72
    65
 73
     0
 40
0.0
  0
LTYPE
  5
ED
100
AcDbSymbolTableRecord
100
AcDbLinetypeTableRecord
  2
CENTERX2
 70
    64
  3

 72
    65
 73
     4
 40
20.32
 49
12.7
 74
     0
 49
-2.54
 74
     0
 49
2.54
 74
     0
 49
-2.54
 74
     0
  0
ENDTAB
  0
TABLE
  2
LAYER
  5
2
100
AcDbSymbolTable
 70
     6
  0
LAYER
  5
14
100
AcDbSymbolTableRecord
100
AcDbLayerTableRecord
  2
0
 70
     0
 62
     7
  6
Continuous
290
     1
370
    -3
390
1D
  0
LAYER
  5
EE
100
AcDbSymbolTableRecord
100
AcDbLayerTableRecord
  2
ARMATUR
 70
     0
 62
     7
  6
Continuous
290
     1
370
    -3
390
1D
  0
LAYER
  5
EF
100
AcDbSymbolTableRecord
100
AcDbLayerTableRecord
  2
ACHSEN
 70
     0
 62
     7
  6
Continuous
290
     1
370
    -3
390
1D
  0
LAYER
  5
F0
100
AcDbSymbolTableRecord
100
AcDbLayerTableRecord
  2
TEXT
 70
     0
 62
     7
  6
Continuous
290
     1
370
    -3
390
1D
  0
LAYER
  5
F1
100
AcDbSymbolTableRecord
100
AcDbLayerTableRecord
  2
BEMASSUNG
 70
     0
 62
     7
  6
Continuous
290
     1
370
    -3
390
1D
  0
LAYER
  5
F2
100
AcDbSymbolTableRecord
100
AcDbLayerTableRecord
  2
WAND
 70
     0
 62
     7
  6
Continuous
290
     1
370
    -3
390
1D
  0
ENDTAB
  0
TABLE
  2
STYLE
  5
3
100
AcDbSymbolTable
 70
     1
  0
STYLE
  5
17
100
AcDbSymbolTableRecord
100
AcDbTextStyleTableRecord
  2
Standard
 70
     0
 40
0.0
 41
1.0
 50
0.0
 71
     0
 42
0.0
  3
txt
  4

  0
ENDTAB
  0
TABLE
  2
VIEW
  5
5
100
AcDbSymbolTable
 70
     0
  0
ENDTAB
  0
TABLE
  2
UCS
  5
6
100
AcDbSymbolTable
 70
     1
  0
UCS
  5
24
100
AcDbSymbolTableRecord
100
AcDbUCSTableRecord
  2
ISODRAW_6_1
 70
     0
 10
0.0
 20
0.0
 30
0.0
 11
0.0
 21
1.0
 31
0.0
 12
0.0
 22
0.0
 32
1.0
 79
     0
146
0.0
  0
ENDTAB
  0
TABLE
  2
APPID
  5
8
100
AcDbSymbolTable
 70
     1
  0
APPID
  5
16
100
AcDbSymbolTableRecord
100
AcDbRegAppTableRecord
  2
ACAD
 70
     0
  0
ENDTAB
  0
TABLE
  2
DIMSTYLE
  5
9
100
AcDbSymbolTable
 70
     1
100
AcDbDimStyleTable
 71
     0
  0
DIMSTYLE
105
18
100
AcDbSymbolTableRecord
100
AcDbDimStyleTableRecord
  2
Standard
 70
     0
  3

  4

 40
1.0
 41
0.18
 42
0.0625
 43
0.38
 44
0.18
 45
0.0
 46
0.0
 47
0.0
 48
0.0
 71
     0
 72
     0
 73
     1
 74
     1
 75
     0
 76
     0
 77
     0
 78
     0
 79
     0
140
0.18
141
0.09
142
0.0
143
25.4
144
1.0
145
0.0
146
1.0
147
0.09
148
0.0
170
     0
171
     2
172
     0
173
     0
174
     0
175
     0
176
     0
177
     0
178
     0
179
     0
271
     4
272
     4
273
     2
274
     2
275
     0
276
     0
277
     2
278
    46
279
     0
280
     0
281
     0
282
     0
283
     1
284
     0
285
     0
286
     0
288
     0
289
     3
340
17
341
0
342
0
343
0
344
0
371
    -2
372
    -2
  0
ENDTAB
  0
TABLE
  2
BLOCK_RECORD
  5
1
100
AcDbSymbolTable
 70
     0
  0
BLOCK_RECORD
  5
A
100
AcDbSymbolTableRecord
100
AcDbBlockTableRecord
  2
*MODEL_SPACE
340
20
  0
BLOCK_RECORD
  5
B
100
AcDbSymbolTableRecord
100
AcDbBlockTableRecord
  2
*PAPER_SPACE
340
21
  0
ENDTAB
  0
ENDSEC
  0
SECTION
  2
BLOCKS
  0
BLOCK
  5
D
100
AcDbEntity
  8
0
390
0
100
AcDbBlockBegin
  2
*MODEL_SPACE
 70
     0
 10
0.0
 20
0.0
 30
0.0
  3
*MODEL_SPACE
  1

  0
ENDBLK
  5
E
100
AcDbEntity
  8
0
390
0
100
AcDbBlockEnd
  0
BLOCK
  5
F
100
AcDbEntity
 67
     1
  8
0
390
0
100
AcDbBlockBegin
  2
*PAPER_SPACE
 70
     0
 10
0.0
 20
0.0
 30
0.0
  3
*PAPER_SPACE
  1

  0
ENDBLK
  5
10
100
AcDbEntity
 67
     1
  8
0
390
0
100
AcDbBlockEnd
  0
ENDSEC
  0
SECTION
  2
ENTITIES
  0
CIRCLE
  5
F3
100
AcDbEntity
  8
ARMATUR
390
0
  6
DURCHGEHEND
 62
     3
100
AcDbCircle
 10
73.248947
 20
33.145966
 30
0.0
 40
4.375
  0
LINE
  5
F4
100
AcDbEntity
  8
ARMATUR
390
0
  6
DURCHGEHEND
 62
     1
100
AcDbLine
 10
68.957382
 20
72.704865
 30
0.0
 11
69.144882
 21
72.517365
 31
0.0
  0
LINE
  5
F5
100
AcDbEntity
  8
ARMATUR
390
0
  6
DURCHGEHEND
 62
     1
100
AcDbLine
 10
77.269882
 20
72.517365
 30
0.0
 11
77.457382
 21
72.704865
 31
0.0
  0
LINE
  5
F6
100
AcDbEntity
  8
ARMATUR
390
0
  6
DURCHGEHEND
 62
     1
100
AcDbLine
 10
68.957382
 20
84.792358
 30
0.0
 11
68.957382
 21
81.542358
 31
0.0
  0
LINE
  5
F7
100
AcDbEntity
  8
ARMATUR
390
0
  6
DURCHGEHEND
 62
     1
100
AcDbLine
 10
68.957382
 20
73.017365
 30
0.0
 11
68.957382
 21
72.704865
 31
0.0
  0
LINE
  5
F8
100
AcDbEntity
  8
ARMATUR
390
0
  6
DURCHGEHEND
 62
     1
100
AcDbLine
 10
77.457382
 20
72.704865
 30
0.0
 11
77.457382
 21
73.017365
 31
0.0
  0
LINE
  5
F9
100
AcDbEntity
  8
ARMATUR
390
0
  6
DURCHGEHEND
 62
     1
100
AcDbLine
 10
77.457382
 20
81.542358
 30
0.0
 11
77.457382
 21
84.792358
 31
0.0
  0
ARC
  5
FA
100
AcDbEntity
  8
ARMATUR
390
0
  6
DURCHGEHEND
 62
     1
100
AcDbCircle
 10
76.282394
 20
70.318054
 30
0.0
 40
0.875
100
AcDbArc
 50
0.0
 51
23.52
  0
ARC
  5
FB
100
AcDbEntity
  8
ARMATUR
390
0
  6
DURCHGEHEND
 62
     1
100
AcDbCircle
 10
76.282394
 20
70.318054
 30
0.0
 40
0.875
100
AcDbArc
 50
328.997009
 51
360.0
  0
LINE
  5
FC
100
AcDbEntity
  8
ARMATUR
390
0
  6
DURCHGEHEND
 62
     1
100
AcDbLine
 10
77.157394
 20
65.992371
 30
0.0
 11
77.157394
 21
67.166672
 31
0.0
  0
ARC
  5
FD
100
AcDbEntity
  8
ARMATUR
390
0
  6
DURCHGEHEND
 62
     1
100
AcDbCircle
 10
76.282394
 20
67.166672
 30
0.0
 40
0.875
100
AcDbArc
 50
0.0
 51
31.003
  0
ARC
  5
FE
100
AcDbEntity
  8
ARMATUR
390
0
  6
DURCHGEHEND
 62
     1
100
AcDbCircle
 10
76.970078
 20
70.617371
 30
0.0
 40
0.125
100
AcDbArc
 50
23.514999
 51
89.995003
  0
LINE
  5
FF
100
AcDbEntity
  8
ARMATUR
390
0
  6
DURCHGEHEND
 62
     1
100
AcDbLine
 10
77.032394
 20
70.742371
 30
0.0
 11
77.032394
 21
72.517365
 31
0.0
  0
LINE
  5
100
100
AcDbEntity
  8
ARMATUR
390
0
  6
DURCHGEHEND
 62
     1
100
AcDbLine
 10
76.907394
 20
54.832939
 30
0.0
 11
76.907394
 21
65.992371
 31
0.0
  0
ARC
  5
101
100
AcDbEntity
  8
ARMATUR
390
0
  6
DURCHGEHEND
 62
     1
100
AcDbCircle
 10
74.507401
 20
70.318054
 30
0.0
 40
0.875
100
AcDbArc
 50
0.0
 51
23.52
  0
ARC
  5
102
100
AcDbEntity
  8
ARMATUR
390
0
  6
DURCHGEHEND
 62
     1
100
AcDbCircle
 10
74.507401
 20
70.318054
 30
0.0
 40
0.875
100
AcDbArc
 50
328.997009
 51
360.0
  0
ARC
  5
103
100
AcDbEntity
  8
ARMATUR
390
0
  6
DURCHGEHEND
 62
     1
100
AcDbCircle
 10
73.257401
 20
70.318054
 30
0.0
 40
0.875
100
AcDbArc
 50
156.479004
 51
211.001999
  0
ARC
  5
104
100
AcDbEntity
  8
ARMATUR
390
0
  6
DURCHGEHEND
 62
     1
100
AcDbCircle
 10
74.507401
 20
67.166672
 30
0.0
 40
0.875
100
AcDbArc
 50
0.0
 51
31.003
  0
ARC
  5
105
100
AcDbEntity
  8
ARMATUR
390
0
  6
DURCHGEHEND
 62
     1
100
AcDbCircle
 10
73.257401
 20
67.166672
 30
0.0
 40
0.875
100
AcDbArc
 50
148.996994
 51
180.0
  0
LINE
  5
106
100
AcDbEntity
  8
ARMATUR
390
0
  6
DURCHGEHEND
 62
     1
100
AcDbLine
 10
75.382401
 20
65.992371
 30
0.0
 11
75.382401
 21
67.166672
 31
0.0
  0
LINE
  5
107
100
AcDbEntity
  8
ARMATUR
390
0
  6
DURCHGEHEND
 62
     1
100
AcDbLine
 10
72.382401
 20
67.166672
 30
0.0
 11
72.382401
 21
65.992371
 31
0.0
  0
ARC
  5
108
100
AcDbEntity
  8
ARMATUR
390
0
  6
DURCHGEHEND
 62
     1
100
AcDbCircle
 10
75.195084
 20
70.617371
 30
0.0
 40
0.125
100
AcDbArc
 50
23.514999
 51
89.995003
  0
ARC
  5
109
100
AcDbEntity
  8
ARMATUR
390
0
  6
DURCHGEHEND
 62
     1
100
AcDbCircle
 10
72.569717
 20
70.617371
 30
0.0
 40
0.125
100
AcDbArc
 50
90.0
 51
156.479996
  0
LINE
  5
10A
100
AcDbEntity
  8
ARMATUR
390
0
  6
DURCHGEHEND
 62
     1
100
AcDbLine
 10
75.257401
 20
70.742371
 30
0.0
 11
75.257401
 21
72.517365
 31
0.0
  0
LINE
  5
10B
100
AcDbEntity
  8
ARMATUR
390
0
  6
DURCHGEHEND
 62
     1
100
AcDbLine
 10
72.507401
 20
72.517365
 30
0.0
 11
72.507401
 21
70.742371
 31
0.0
  0
LINE
  5
10C
100
AcDbEntity
  8
ARMATUR
390
0
  6
DURCHGEHEND
 62
     1
100
AcDbLine
 10
75.132401
 20
53.085403
 30
0.0
 11
75.132401
 21
65.992371
 31
0.0
  0
LINE
  5
10D
100
AcDbEntity
  8
ARMATUR
390
0
  6
DURCHGEHEND
 62
     1
100
AcDbLine
 10
72.632401
 20
65.992371
 30
0.0
 11
72.632401
 21
53.276566
 31
0.0
  0
ARC
  5
10E
100
AcDbEntity
  8
ARMATUR
390
0
  6
DURCHGEHEND
 62
     1
100
AcDbCircle
 10
73.257401
 20
63.943054
 30
0.0
 40
0.875
100
AcDbArc
 50
145.546005
 51
211.003006
  0
LINE
  5
10F
100
AcDbEntity
  8
ARMATUR
390
0
  6
DURCHGEHEND
 62
     1
100
AcDbLine
 10
72.382401
 20
60.791672
 30
0.0
 11
72.382401
 21
59.742371
 31
0.0
  0
ARC
  5
110
100
AcDbEntity
  8
ARMATUR
390
0
  6
DURCHGEHEND
 62
     1
100
AcDbCircle
 10
73.257401
 20
60.791672
 30
0.0
 40
0.875
100
AcDbArc
 50
148.996994
 51
180.0
  0
LINE
  5
111
100
AcDbEntity
  8
ARMATUR
390
0
  6
DURCHGEHEND
 62
     1
100
AcDbLine
 10
72.507401
 20
65.117371
 30
0.0
 11
72.507401
 21
64.492371
 31
0.0
  0
ARC
  5
112
100
AcDbEntity
  8
ARMATUR
390
0
  6
DURCHGEHEND
 62
     1
100
AcDbCircle
 10
72.638962
 20
64.367371
 30
0.0
 40
0.125
100
AcDbArc
 50
93.003998
 51
145.541
  0
ARC
  5
113
100
AcDbEntity
  8
ARMATUR
390
0
  6
DURCHGEHEND
 62
     1
100
AcDbCircle
 10
72.569901
 20
65.242371
 30
0.0
 40
0.125
100
AcDbArc
 50
270.0
 51
300.0
  0
LINE
  5
114
100
AcDbEntity
  8
ARMATUR
390
0
  6
DURCHGEHEND
 62
     1
100
AcDbLine
 10
72.507401
 20
63.492371
 30
0.0
 11
72.507401
 21
61.242371
 31
0.0
  0
LINE
  5
115
100
AcDbEntity
  8
ARMATUR
390
0
  6
_STITCHLINE
 62
     5
100
AcDbLine
 10
78.707382
 20
76.967361
 30
0.0
 11
78.707382
 21
80.217361
 31
0.0
  0
LINE
  5
116
100
AcDbEntity
  8
ARMATUR
390
0
  6
_STITCHLINE
 62
     5
100
AcDbLine
 10
67.707382
 20
80.217361
 30
0.0
 11
67.707382
 21
76.967361
 31
0.0
  0
LINE
  5
117
100
AcDbEntity
  8
ARMATUR
390
0
  6
_STITCHLINE
 62
     5
100
AcDbLine
 10
62.082386
 20
81.542358
 30
0.0
 11
62.082386
 21
80.217361
 31
0.0
  0
LINE
  5
118
100
AcDbEntity
  8
ARMATUR
390
0
  6
_STITCHLINE
 62
     5
100
AcDbLine
 10
84.332382
 20
80.217361
 30
0.0
 11
84.332382
 21
81.542358
 31
0.0
  0
LINE
  5
119
100
AcDbEntity
  8
ARMATUR
390
0
  6
DURCHGEHEND
 62
     1
100
AcDbLine
 10
78.582382
 20
76.217361
 30
0.0
 11
78.582382
 21
76.967361
 31
0.0
  0
LINE
  5
11A
100
AcDbEntity
  8
ARMATUR
390
0
  6
DURCHGEHEND
 62
     1
100
AcDbLine
 10
67.832382
 20
76.967361
 30
0.0
 11
67.832382
 21
76.217361
 31
0.0
  0
LINE
  5
11B
100
AcDbEntity
  8
ARMATUR
390
0
  6
DURCHGEHEND
 62
     1
100
AcDbLine
 10
67.707382
 20
76.217361
 30
0.0
 11
67.707382
 21
75.767365
 31
0.0
  0
LINE
  5
11C
100
AcDbEntity
  8
ARMATUR
390
0
  6
DURCHGEHEND
 62
     1
100
AcDbLine
 10
78.707382
 20
75.767365
 30
0.0
 11
78.707382
 21
76.217361
 31
0.0
  0
LINE
  5
11D
100
AcDbEntity
  8
ARMATUR
390
0
  6
DURCHGEHEND
 62
     1
100
AcDbLine
 10
67.582382
 20
75.767365
 30
0.0
 11
67.582382
 21
75.017365
 31
0.0
  0
LINE
  5
11E
100
AcDbEntity
  8
ARMATUR
390
0
  6
DURCHGEHEND
 62
     1
100
AcDbLine
 10
78.832382
 20
75.017365
 30
0.0
 11
78.832382
 21
75.767365
 31
0.0
  0
LINE
  5
11F
100
AcDbEntity
  8
ARMATUR
390
0
  6
DURCHGEHEND
 62
     1
100
AcDbLine
 10
77.807388
 20
73.017365
 30
0.0
 11
78.457382
 21
73.392639
 31
0.0
  0
LINE
  5
120
100
AcDbEntity
  8
ARMATUR
390
0
  6
DURCHGEHEND
 62
     1
100
AcDbLine
 10
67.957382
 20
73.392639
 30
0.0
 11
68.607407
 21
73.017365
 31
0.0
  0
LINE
  5
121
100
AcDbEntity
  8
ARMATUR
390
0
  6
DURCHGEHEND
 62
     1
100
AcDbLine
 10
78.457382
 20
73.392639
 30
0.0
 11
78.457382
 21
75.017365
 31
0.0
  0
LINE
  5
122
100
AcDbEntity
  8
ARMATUR
390
0
  6
DURCHGEHEND
 62
     1
100
AcDbLine
 10
67.957382
 20
75.017365
 30
0.0
 11
67.957382
 21
73.392639
 31
0.0
  0
LINE
  5
123
100
AcDbEntity
  8
ARMATUR
390
0
  6
DURCHGEHEND
 62
     1
100
AcDbLine
 10
73.207382
 20
72.704865
 30
0.0
 11
77.457382
 21
72.704865
 31
0.0
  0
LINE
  5
124
100
AcDbEntity
  8
ARMATUR
390
0
  6
DURCHGEHEND
 62
     1
100
AcDbLine
 10
68.957382
 20
72.704865
 30
0.0
 11
73.207382
 21
72.704865
 31
0.0
  0
LINE
  5
125
100
AcDbEntity
  8
ARMATUR
390
0
  6
DURCHGEHEND
 62
     1
100
AcDbLine
 10
73.207382
 20
72.517365
 30
0.0
 11
77.269882
 21
72.517365
 31
0.0
  0
LINE
  5
126
100
AcDbEntity
  8
ARMATUR
390
0
  6
DURCHGEHEND
 62
     1
100
AcDbLine
 10
69.144882
 20
72.517365
 30
0.0
 11
73.207382
 21
72.517365
 31
0.0
  0
LINE
  5
127
100
AcDbEntity
  8
ARMATUR
390
0
  6
DURCHGEHEND
 62
     1
100
AcDbLine
 10
77.032394
 20
69.867371
 30
0.0
 11
76.969894
 21
69.867371
 31
0.0
  0
LINE
  5
128
100
AcDbEntity
  8
ARMATUR
390
0
  6
DURCHGEHEND
 62
     1
100
AcDbLine
 10
76.969894
 20
69.867371
 30
0.0
 11
76.875259
 21
69.867371
 31
0.0
  0
LINE
  5
129
100
AcDbEntity
  8
ARMATUR
390
0
  6
DURCHGEHEND
 62
     1
100
AcDbLine
 10
76.875259
 20
69.867371
 30
0.0
 11
76.29567
 21
69.867371
 31
0.0
  0
LINE
  5
12A
100
AcDbEntity
  8
ARMATUR
390
0
  6
DURCHGEHEND
 62
     1
100
AcDbLine
 10
76.29567
 20
69.867371
 30
0.0
 11
76.067245
 21
69.867371
 31
0.0
  0
LINE
  5
12B
100
AcDbEntity
  8
ARMATUR
390
0
  6
DURCHGEHEND
 62
     1
100
AcDbLine
 10
76.067245
 20
69.867371
 30
0.0
 11
75.247543
 21
69.867371
 31
0.0
  0
LINE
  5
12C
100
AcDbEntity
  8
ARMATUR
390
0
  6
DURCHGEHEND
 62
     1
100
AcDbLine
 10
77.157394
 20
65.992371
 30
0.0
 11
75.382401
 21
65.992371
 31
0.0
  0
LINE
  5
12D
100
AcDbEntity
  8
ARMATUR
390
0
  6
DURCHGEHEND
 62
     1
100
AcDbLine
 10
76.067245
 20
67.617371
 30
0.0
 11
75.247543
 21
67.617371
 31
0.0
  0
LINE
  5
12E
100
AcDbEntity
  8
ARMATUR
390
0
  6
DURCHGEHEND
 62
     1
100
AcDbLine
 10
76.29567
 20
67.617371
 30
0.0
 11
76.067245
 21
67.617371
 31
0.0
  0
LINE
  5
12F
100
AcDbEntity
  8
ARMATUR
390
0
  6
DURCHGEHEND
 62
     1
100
AcDbLine
 10
76.875259
 20
67.617371
 30
0.0
 11
76.29567
 21
67.617371
 31
0.0
  0
LINE
  5
130
100
AcDbEntity
  8
ARMATUR
390
0
  6
DURCHGEHEND
 62
     1
100
AcDbLine
 10
76.969894
 20
67.617371
 30
0.0
 11
76.875259
 21
67.617371
 31
0.0
  0
LINE
  5
131
100
AcDbEntity
  8
ARMATUR
390
0
  6
DURCHGEHEND
 62
     1
100
AcDbLine
 10
77.032394
 20
67.617371
 30
0.0
 11
76.969894
 21
67.617371
 31
0.0
  0
LINE
  5
132
100
AcDbEntity
  8
ARMATUR
390
0
  6
DURCHGEHEND
 62
     1
100
AcDbLine
 10
77.026352
 20
70.992371
 30
0.0
 11
76.453506
 21
70.992371
 31
0.0
  0
LINE
  5
133
100
AcDbEntity
  8
ARMATUR
390
0
  6
DURCHGEHEND
 62
     1
100
AcDbLine
 10
77.026352
 20
70.992371
 30
0.0
 11
77.026352
 21
72.517365
 31
0.0
  0
LINE
  5
134
100
AcDbEntity
  8
ARMATUR
390
0
  6
DURCHGEHEND
 62
     1
100
AcDbLine
 10
76.453506
 20
72.517365
 30
0.0
 11
76.453506
 21
70.992371
 31
0.0
  0
LINE
  5
135
100
AcDbEntity
  8
ARMATUR
390
0
  6
DURCHGEHEND
 62
     1
100
AcDbLine
 10
76.230209
 20
70.992371
 30
0.0
 11
75.251328
 21
70.992371
 31
0.0
  0
LINE
  5
136
100
AcDbEntity
  8
ARMATUR
390
0
  6
DURCHGEHEND
 62
     1
100
AcDbLine
 10
76.230209
 20
70.992371
 30
0.0
 11
76.230209
 21
72.517365
 31
0.0
  0
LINE
  5
137
100
AcDbEntity
  8
ARMATUR
390
0
  6
DURCHGEHEND
 62
     1
100
AcDbLine
 10
77.032394
 20
70.742371
 30
0.0
 11
75.257401
 21
70.742371
 31
0.0
  0
LINE
  5
138
100
AcDbEntity
  8
ARMATUR
390
0
  6
DURCHGEHEND
 62
     1
100
AcDbLine
 10
76.067245
 20
67.617371
 30
0.0
 11
76.067245
 21
69.867371
 31
0.0
  0
LINE
  5
139
100
AcDbEntity
  8
ARMATUR
390
0
  6
DURCHGEHEND
 62
     1
100
AcDbLine
 10
76.29567
 20
69.867371
 30
0.0
 11
76.29567
 21
67.617371
 31
0.0
  0
LINE
  5
13A
100
AcDbEntity
  8
ARMATUR
390
0
  6
DURCHGEHEND
 62
     1
100
AcDbLine
 10
76.969894
 20
69.867371
 30
0.0
 11
76.969894
 21
67.617371
 31
0.0
  0
LINE
  5
13B
100
AcDbEntity
  8
ARMATUR
390
0
  6
DURCHGEHEND
 62
     1
100
AcDbLine
 10
75.257401
 20
69.867371
 30
0.0
 11
75.194901
 21
69.867371
 31
0.0
  0
LINE
  5
13C
100
AcDbEntity
  8
ARMATUR
390
0
  6
DURCHGEHEND
 62
     1
100
AcDbLine
 10
75.194901
 20
69.867371
 30
0.0
 11
75.100266
 21
69.867371
 31
0.0
  0
LINE
  5
13D
100
AcDbEntity
  8
ARMATUR
390
0
  6
DURCHGEHEND
 62
     1
100
AcDbLine
 10
75.100266
 20
69.867371
 30
0.0
 11
74.520676
 21
69.867371
 31
0.0
  0
LINE
  5
13E
100
AcDbEntity
  8
ARMATUR
390
0
  6
DURCHGEHEND
 62
     1
100
AcDbLine
 10
74.520676
 20
69.867371
 30
0.0
 11
74.292221
 21
69.867371
 31
0.0
  0
LINE
  5
13F
100
AcDbEntity
  8
ARMATUR
390
0
  6
DURCHGEHEND
 62
     1
100
AcDbLine
 10
74.292221
 20
69.867371
 30
0.0
 11
73.472549
 21
69.867371
 31
0.0
  0
LINE
  5
140
100
AcDbEntity
  8
ARMATUR
390
0
  6
DURCHGEHEND
 62
     1
100
AcDbLine
 10
73.472549
 20
69.867371
 30
0.0
 11
73.244125
 21
69.867371
 31
0.0
  0
LINE
  5
141
100
AcDbEntity
  8
ARMATUR
390
0
  6
DURCHGEHEND
 62
     1
100
AcDbLine
 10
73.244125
 20
69.867371
 30
0.0
 11
72.664505
 21
69.867371
 31
0.0
  0
LINE
  5
142
100
AcDbEntity
  8
ARMATUR
390
0
  6
DURCHGEHEND
 62
     1
100
AcDbLine
 10
72.664505
 20
69.867371
 30
0.0
 11
72.569901
 21
69.867371
 31
0.0
  0
LINE
  5
143
100
AcDbEntity
  8
ARMATUR
390
0
  6
DURCHGEHEND
 62
     1
100
AcDbLine
 10
72.569901
 20
69.867371
 30
0.0
 11
72.507401
 21
69.867371
 31
0.0
  0
LINE
  5
144
100
AcDbEntity
  8
ARMATUR
390
0
  6
DURCHGEHEND
 62
     1
100
AcDbLine
 10
72.569901
 20
67.617371
 30
0.0
 11
72.507401
 21
67.617371
 31
0.0
  0
LINE
  5
145
100
AcDbEntity
  8
ARMATUR
390
0
  6
DURCHGEHEND
 62
     1
100
AcDbLine
 10
72.664505
 20
67.617371
 30
0.0
 11
72.569901
 21
67.617371
 31
0.0
  0
LINE
  5
146
100
AcDbEntity
  8
ARMATUR
390
0
  6
DURCHGEHEND
 62
     1
100
AcDbLine
 10
73.244125
 20
67.617371
 30
0.0
 11
72.664505
 21
67.617371
 31
0.0
  0
LINE
  5
147
100
AcDbEntity
  8
ARMATUR
390
0
  6
DURCHGEHEND
 62
     1
100
AcDbLine
 10
73.472549
 20
67.617371
 30
0.0
 11
73.244125
 21
67.617371
 31
0.0
  0
LINE
  5
148
100
AcDbEntity
  8
ARMATUR
390
0
  6
DURCHGEHEND
 62
     1
100
AcDbLine
 10
74.292221
 20
67.617371
 30
0.0
 11
73.472549
 21
67.617371
 31
0.0
  0
LINE
  5
149
100
AcDbEntity
  8
ARMATUR
390
0
  6
DURCHGEHEND
 62
     1
100
AcDbLine
 10
74.520676
 20
67.617371
 30
0.0
 11
74.292221
 21
67.617371
 31
0.0
  0
LINE
  5
14A
100
AcDbEntity
  8
ARMATUR
390
0
  6
DURCHGEHEND
 62
     1
100
AcDbLine
 10
75.100266
 20
67.617371
 30
0.0
 11
74.520676
 21
67.617371
 31
0.0
  0
LINE
  5
14B
100
AcDbEntity
  8
ARMATUR
390
0
  6
DURCHGEHEND
 62
     1
100
AcDbLine
 10
75.194901
 20
67.617371
 30
0.0
 11
75.100266
 21
67.617371
 31
0.0
  0
LINE
  5
14C
100
AcDbEntity
  8
ARMATUR
390
0
  6
DURCHGEHEND
 62
     1
100
AcDbLine
 10
75.257401
 20
67.617371
 30
0.0
 11
75.194901
 21
67.617371
 31
0.0
  0
LINE
  5
14D
100
AcDbEntity
  8
ARMATUR
390
0
  6
DURCHGEHEND
 62
     1
100
AcDbLine
 10
75.382401
 20
65.992371
 30
0.0
 11
72.382401
 21
65.992371
 31
0.0
  0
LINE
  5
14E
100
AcDbEntity
  8
ARMATUR
390
0
  6
DURCHGEHEND
 62
     1
100
AcDbLine
 10
75.251328
 20
70.992371
 30
0.0
 11
74.678513
 21
70.992371
 31
0.0
  0
LINE
  5
14F
100
AcDbEntity
  8
ARMATUR
390
0
  6
DURCHGEHEND
 62
     1
100
AcDbLine
 10
75.251328
 20
70.992371
 30
0.0
 11
75.251328
 21
72.517365
 31
0.0
  0
LINE
  5
150
100
AcDbEntity
  8
ARMATUR
390
0
  6
DURCHGEHEND
 62
     1
100
AcDbLine
 10
74.678513
 20
72.517365
 30
0.0
 11
74.678513
 21
70.992371
 31
0.0
  0
LINE
  5
151
100
AcDbEntity
  8
ARMATUR
390
0
  6
DURCHGEHEND
 62
     1
100
AcDbLine
 10
74.455215
 20
70.992371
 30
0.0
 11
73.309586
 21
70.992371
 31
0.0
  0
LINE
  5
152
100
AcDbEntity
  8
ARMATUR
390
0
  6
DURCHGEHEND
 62
     1
100
AcDbLine
 10
74.455215
 20
70.992371
 30
0.0
 11
74.455215
 21
72.517365
 31
0.0
  0
LINE
  5
153
100
AcDbEntity
  8
ARMATUR
390
0
  6
DURCHGEHEND
 62
     1
100
AcDbLine
 10
73.309586
 20
72.517365
 30
0.0
 11
73.309586
 21
70.992371
 31
0.0
  0
LINE
  5
154
100
AcDbEntity
  8
ARMATUR
390
0
  6
DURCHGEHEND
 62
     1
100
AcDbLine
 10
73.086288
 20
70.992371
 30
0.0
 11
72.513443
 21
70.992371
 31
0.0
  0
LINE
  5
155
100
AcDbEntity
  8
ARMATUR
390
0
  6
DURCHGEHEND
 62
     1
100
AcDbLine
 10
73.086288
 20
70.992371
 30
0.0
 11
73.086288
 21
72.517365
 31
0.0
  0
LINE
  5
156
100
AcDbEntity
  8
ARMATUR
390
0
  6
DURCHGEHEND
 62
     1
100
AcDbLine
 10
72.513443
 20
72.517365
 30
0.0
 11
72.513443
 21
70.992371
 31
0.0
  0
LINE
  5
157
100
AcDbEntity
  8
ARMATUR
390
0
  6
DURCHGEHEND
 62
     1
100
AcDbLine
 10
75.257401
 20
70.742371
 30
0.0
 11
72.507401
 21
70.742371
 31
0.0
  0
LINE
  5
158
100
AcDbEntity
  8
ARMATUR
390
0
  6
DURCHGEHEND
 62
     1
100
AcDbLine
 10
73.244125
 20
67.617371
 30
0.0
 11
73.244125
 21
69.867371
 31
0.0
  0
LINE
  5
159
100
AcDbEntity
  8
ARMATUR
390
0
  6
DURCHGEHEND
 62
     1
100
AcDbLine
 10
73.472549
 20
69.867371
 30
0.0
 11
73.472549
 21
67.617371
 31
0.0
  0
LINE
  5
15A
100
AcDbEntity
  8
ARMATUR
390
0
  6
DURCHGEHEND
 62
     1
100
AcDbLine
 10
74.292221
 20
67.617371
 30
0.0
 11
74.292221
 21
69.867371
 31
0.0
  0
LINE
  5
15B
100
AcDbEntity
  8
ARMATUR
390
0
  6
DURCHGEHEND
 62
     1
100
AcDbLine
 10
74.520676
 20
69.867371
 30
0.0
 11
74.520676
 21
67.617371
 31
0.0
  0
LINE
  5
15C
100
AcDbEntity
  8
ARMATUR
390
0
  6
DURCHGEHEND
 62
     1
100
AcDbLine
 10
75.100266
 20
67.617371
 30
0.0
 11
75.100266
 21
69.867371
 31
0.0
  0
LINE
  5
15D
100
AcDbEntity
  8
ARMATUR
390
0
  6
DURCHGEHEND
 62
     1
100
AcDbLine
 10
75.194901
 20
69.867371
 30
0.0
 11
75.194901
 21
67.617371
 31
0.0
  0
LINE
  5
15E
100
AcDbEntity
  8
ARMATUR
390
0
  6
DURCHGEHEND
 62
     1
100
AcDbLine
 10
72.569901
 20
67.617371
 30
0.0
 11
72.569901
 21
69.867371
 31
0.0
  0
LINE
  5
15F
100
AcDbEntity
  8
ARMATUR
390
0
  6
DURCHGEHEND
 62
     1
100
AcDbLine
 10
72.632401
 20
63.492371
 30
0.0
 11
72.508102
 21
63.492371
 31
0.0
  0
LINE
  5
160
100
AcDbEntity
  8
ARMATUR
390
0
  6
DURCHGEHEND
 62
     1
100
AcDbLine
 10
72.632401
 20
59.742371
 30
0.0
 11
72.382401
 21
59.742371
 31
0.0
  0
LINE
  5
161
100
AcDbEntity
  8
ARMATUR
390
0
  6
DURCHGEHEND
 62
     1
100
AcDbLine
 10
72.632401
 20
61.242371
 30
0.0
 11
72.508102
 21
61.242371
 31
0.0
  0
LINE
  5
162
100
AcDbEntity
  8
ARMATUR
390
0
  6
DURCHGEHEND
 62
     1
100
AcDbLine
 10
72.638962
 20
64.492371
 30
0.0
 11
72.507401
 21
64.492371
 31
0.0
  0
LINE
  5
163
100
AcDbEntity
  8
ARMATUR
390
0
  6
DURCHGEHEND
 62
     1
100
AcDbLine
 10
72.632401
 20
65.117371
 30
0.0
 11
72.507401
 21
65.117371
 31
0.0
  0
LINE
  5
164
100
AcDbEntity
  8
ARMATUR
390
0
  6
DURCHGEHEND
 62
     1
100
AcDbLine
 10
72.508102
 20
63.492371
 30
0.0
 11
72.508102
 21
61.242371
 31
0.0
  0
LINE
  5
165
100
AcDbEntity
  8
ARMATUR
390
0
  6
_STITCHLINE
 62
     5
100
AcDbLine
 10
66.939651
 20
81.542358
 30
0.0
 11
66.939651
 21
80.217361
 31
0.0
  0
LINE
  5
166
100
AcDbEntity
  8
ARMATUR
390
0
  6
_STITCHLINE
 62
     5
100
AcDbLine
 10
66.939651
 20
81.542358
 30
0.0
 11
79.475113
 21
81.542358
 31
0.0
  0
LINE
  5
167
100
AcDbEntity
  8
ARMATUR
390
0
  6
_STITCHLINE
 62
     5
100
AcDbLine
 10
79.475113
 20
81.542358
 30
0.0
 11
79.475113
 21
80.217361
 31
0.0
  0
LINE
  5
168
100
AcDbEntity
  8
ARMATUR
390
0
  6
_STITCHLINE
 62
     5
100
AcDbLine
 10
66.939651
 20
80.217361
 30
0.0
 11
79.475113
 21
80.217361
 31
0.0
  0
LINE
  5
169
100
AcDbEntity
  8
ARMATUR
390
0
  6
_STITCHLINE
 62
     5
100
AcDbLine
 10
73.832382
 20
80.217361
 30
0.0
 11
73.832382
 21
78.751877
 31
0.0
  0
LINE
  5
16A
100
AcDbEntity
  8
ARMATUR
390
0
  6
_STITCHLINE
 62
     5
100
AcDbLine
 10
72.582382
 20
80.217361
 30
0.0
 11
72.582382
 21
78.751877
 31
0.0
  0
ARC
  5
16B
100
AcDbEntity
  8
ARMATUR
390
0
  6
_STITCHLINE
 62
     5
100
AcDbCircle
 10
73.207382
 20
73.792435
 30
0.0
 40
4.827698
100
AcDbArc
 50
82.561996
 51
97.439003
  0
LINE
  5
16C
100
AcDbEntity
  8
ARMATUR
390
0
  6
_STITCHLINE
 62
     5
100
AcDbLine
 10
72.582382
 20
78.579483
 30
0.0
 11
72.582382
 21
78.751877
 31
0.0
  0
LINE
  5
16D
100
AcDbEntity
  8
ARMATUR
390
0
  6
_STITCHLINE
 62
     5
100
AcDbLine
 10
73.832382
 20
78.751877
 30
0.0
 11
73.832382
 21
78.579483
 31
0.0
  0
LINE
  5
16E
100
AcDbEntity
  8
ARMATUR
390
0
  6
DURCHGEHEND
 62
     1
100
AcDbLine
 10
67.707382
 20
76.967361
 30
0.0
 11
78.707382
 21
76.967361
 31
0.0
  0
LINE
  5
16F
100
AcDbEntity
  8
ARMATUR
390
0
  6
_STITCHLINE
 62
     5
100
AcDbLine
 10
79.475113
 20
81.542358
 30
0.0
 11
84.061417
 21
81.542358
 31
0.0
  0
LINE
  5
170
100
AcDbEntity
  8
ARMATUR
390
0
  6
_STITCHLINE
 62
     5
100
AcDbLine
 10
79.475113
 20
80.217361
 30
0.0
 11
84.061417
 21
80.217361
 31
0.0
  0
LINE
  5
171
100
AcDbEntity
  8
ARMATUR
390
0
  6
_STITCHLINE
 62
     5
100
AcDbLine
 10
62.353382
 20
81.542358
 30
0.0
 11
66.939651
 21
81.542358
 31
0.0
  0
LINE
  5
172
100
AcDbEntity
  8
ARMATUR
390
0
  6
_STITCHLINE
 62
     5
100
AcDbLine
 10
62.353382
 20
80.217361
 30
0.0
 11
66.939651
 21
80.217361
 31
0.0
  0
LINE
  5
173
100
AcDbEntity
  8
ARMATUR
390
0
  6
_STITCHLINE
 62
     5
100
AcDbLine
 10
62.752247
 20
80.217361
 30
0.0
 11
67.707382
 21
78.834839
 31
0.0
  0
LINE
  5
174
100
AcDbEntity
  8
ARMATUR
390
0
  6
_STITCHLINE
 62
     5
100
AcDbLine
 10
78.707382
 20
78.297699
 30
0.0
 11
83.662552
 21
80.217361
 31
0.0
  0
LINE
  5
175
100
AcDbEntity
  8
ARMATUR
390
0
  6
_STITCHLINE
 62
     5
100
AcDbLine
 10
62.082386
 20
81.542358
 30
0.0
 11
62.353382
 21
81.542358
 31
0.0
  0
LINE
  5
176
100
AcDbEntity
  8
ARMATUR
390
0
  6
_STITCHLINE
 62
     5
100
AcDbLine
 10
62.082386
 20
80.217361
 30
0.0
 11
62.353382
 21
80.217361
 31
0.0
  0
LINE
  5
177
100
AcDbEntity
  8
ARMATUR
390
0
  6
_STITCHLINE
 62
     5
100
AcDbLine
 10
84.061417
 20
81.542358
 30
0.0
 11
84.332382
 21
81.542358
 31
0.0
  0
LINE
  5
178
100
AcDbEntity
  8
ARMATUR
390
0
  6
_STITCHLINE
 62
     5
100
AcDbLine
 10
84.061417
 20
80.217361
 30
0.0
 11
84.332382
 21
80.217361
 31
0.0
  0
LINE
  5
179
100
AcDbEntity
  8
ARMATUR
390
0
  6
DURCHGEHEND
 62
     1
100
AcDbLine
 10
73.207382
 20
76.217361
 30
0.0
 11
78.707382
 21
76.217361
 31
0.0
  0
LINE
  5
17A
100
AcDbEntity
  8
ARMATUR
390
0
  6
DURCHGEHEND
 62
     1
100
AcDbLine
 10
67.707382
 20
76.217361
 30
0.0
 11
73.207382
 21
76.217361
 31
0.0
  0
LINE
  5
17B
100
AcDbEntity
  8
ARMATUR
390
0
  6
DURCHGEHEND
 62
     1
100
AcDbLine
 10
73.207382
 20
75.767365
 30
0.0
 11
78.832382
 21
75.767365
 31
0.0
  0
LINE
  5
17C
100
AcDbEntity
  8
ARMATUR
390
0
  6
DURCHGEHEND
 62
     1
100
AcDbLine
 10
67.582382
 20
75.767365
 30
0.0
 11
73.207382
 21
75.767365
 31
0.0
  0
LINE
  5
17D
100
AcDbEntity
  8
ARMATUR
390
0
  6
DURCHGEHEND
 62
     1
100
AcDbLine
 10
73.207382
 20
75.017365
 30
0.0
 11
78.832382
 21
75.017365
 31
0.0
  0
LINE
  5
17E
100
AcDbEntity
  8
ARMATUR
390
0
  6
DURCHGEHEND
 62
     1
100
AcDbLine
 10
67.582382
 20
75.017365
 30
0.0
 11
73.207382
 21
75.017365
 31
0.0
  0
LINE
  5
17F
100
AcDbEntity
  8
ARMATUR
390
0
  6
DURCHGEHEND
 62
     1
100
AcDbLine
 10
75.925949
 20
74.967361
 30
0.0
 11
75.925949
 21
73.392639
 31
0.0
  0
LINE
  5
180
100
AcDbEntity
  8
ARMATUR
390
0
  6
DURCHGEHEND
 62
     1
100
AcDbLine
 10
75.737717
 20
73.392639
 30
0.0
 11
75.925949
 21
73.392639
 31
0.0
  0
LINE
  5
181
100
AcDbEntity
  8
ARMATUR
390
0
  6
DURCHGEHEND
 62
     1
100
AcDbLine
 10
75.737717
 20
73.392639
 30
0.0
 11
75.737717
 21
74.967361
 31
0.0
  0
LINE
  5
182
100
AcDbEntity
  8
ARMATUR
390
0
  6
DURCHGEHEND
 62
     1
100
AcDbLine
 10
70.677078
 20
74.967361
 30
0.0
 11
70.677078
 21
73.392639
 31
0.0
  0
LINE
  5
183
100
AcDbEntity
  8
ARMATUR
390
0
  6
DURCHGEHEND
 62
     1
100
AcDbLine
 10
70.488846
 20
73.392639
 30
0.0
 11
70.677078
 21
73.392639
 31
0.0
  0
LINE
  5
184
100
AcDbEntity
  8
ARMATUR
390
0
  6
DURCHGEHEND
 62
     1
100
AcDbLine
 10
70.488846
 20
73.392639
 30
0.0
 11
70.488846
 21
74.967361
 31
0.0
  0
LINE
  5
185
100
AcDbEntity
  8
ARMATUR
390
0
  6
DURCHGEHEND
 62
     1
100
AcDbLine
 10
73.207382
 20
73.017365
 30
0.0
 11
69.223679
 21
73.017365
 31
0.0
  0
POLYLINE
  5
186
100
AcDbEntity
  8
ARMATUR
390
0
  6
DURCHGEHEND
 62
     1
100
AcDb2dPolyline
 66
     1
 10
0.0
 20
0.0
 30
0.0
 75
     5
  0
VERTEX
  5
187
100
AcDbEntity
  8
0
390
0
100
AcDbVertex
100
AcDb2dVertex
 10
70.488846
 20
73.392639
 30
0.0
  0
VERTEX
  5
188
100
AcDbEntity
  8
0
390
0
100
AcDbVertex
100
AcDb2dVertex
 10
69.868118
 20
73.119652
 30
0.0
  0
VERTEX
  5
189
100
AcDbEntity
  8
0
390
0
100
AcDbVertex
100
AcDb2dVertex
 10
69.223679
 20
73.017365
 30
0.0
  0
SEQEND
  5
18A
100
AcDbEntity
  8
0
390
0
  0
ARC
  5
18B
100
AcDbEntity
  8
ARMATUR
390
0
  6
DURCHGEHEND
 62
     1
100
AcDbCircle
 10
73.368576
 20
82.822067
 30
0.0
 40
9.80603
100
AcDbArc
 50
254.069
 51
269.058014
  0
LINE
  5
18C
100
AcDbEntity
  8
ARMATUR
390
0
  6
DURCHGEHEND
 62
     1
100
AcDbLine
 10
77.191116
 20
73.017365
 30
0.0
 11
73.207382
 21
73.017365
 31
0.0
  0
ARC
  5
18D
100
AcDbEntity
  8
ARMATUR
390
0
  6
DURCHGEHEND
 62
     1
100
AcDbCircle
 10
73.159073
 20
82.061081
 30
0.0
 40
9.043854
100
AcDbArc
 50
270.306
 51
286.56601
  0
ARC
  5
18E
100
AcDbEntity
  8
ARMATUR
390
0
  6
DURCHGEHEND
 62
     1
100
AcDbCircle
 10
77.283218
 20
75.648087
 30
0.0
 40
2.632355
100
AcDbArc
 50
238.962006
 51
267.994995
  0
POLYLINE
  5
18F
100
AcDbEntity
  8
ARMATUR
390
0
  6
DURCHGEHEND
 62
     1
100
AcDb2dPolyline
 66
     1
 10
0.0
 20
0.0
 30
0.0
 75
     5
  0
VERTEX
  5
190
100
AcDbEntity
  8
0
390
0
100
AcDbVertex
100
AcDb2dVertex
 10
78.456284
 20
73.392639
 30
0.0
  0
VERTEX
  5
191
100
AcDbEntity
  8
0
390
0
100
AcDbVertex
100
AcDb2dVertex
 10
77.835556
 20
73.119652
 30
0.0
  0
VERTEX
  5
192
100
AcDbEntity
  8
0
390
0
100
AcDbVertex
100
AcDb2dVertex
 10
77.191116
 20
73.017365
 30
0.0
  0
SEQEND
  5
193
100
AcDbEntity
  8
0
390
0
  0
LINE
  5
194
100
AcDbEntity
  8
ARMATUR
390
0
  6
DURCHGEHEND
 62
     1
100
AcDbLine
 10
78.456284
 20
73.392639
 30
0.0
 11
78.456284
 21
74.967361
 31
0.0
  0
ARC
  5
195
100
AcDbEntity
  8
ARMATUR
390
0
  6
DURCHGEHEND
 62
     1
100
AcDbCircle
 10
69.315781
 20
75.648087
 30
0.0
 40
2.632324
100
AcDbArc
 50
238.962006
 51
267.994995
  0
LINE
  5
196
100
AcDbEntity
  8
ARMATUR
390
0
  6
DURCHGEHEND
 62
     1
100
AcDbLine
 10
67.958511
 20
74.967361
 30
0.0
 11
67.958511
 21
73.392639
 31
0.0
  0
LINE
  5
197
100
AcDbEntity
  8
ARMATUR
390
0
  6
DURCHGEHEND
 62
     1
100
AcDbLine
 10
78.456284
 20
73.392639
 30
0.0
 11
78.457382
 21
73.392639
 31
0.0
  0
LINE
  5
198
100
AcDbEntity
  8
ARMATUR
390
0
  6
DURCHGEHEND
 62
     1
100
AcDbLine
 10
77.807388
 20
73.017365
 30
0.0
 11
77.191116
 21
73.017365
 31
0.0
  0
LINE
  5
199
100
AcDbEntity
  8
ARMATUR
390
0
  6
DURCHGEHEND
 62
     1
100
AcDbLine
 10
67.957382
 20
73.392639
 30
0.0
 11
67.958511
 21
73.392639
 31
0.0
  0
LINE
  5
19A
100
AcDbEntity
  8
ARMATUR
390
0
  6
DURCHGEHEND
 62
     1
100
AcDbLine
 10
69.223679
 20
73.017365
 30
0.0
 11
68.607407
 21
73.017365
 31
0.0
  0
LINE
  5
19B
100
AcDbEntity
  8
ARMATUR
390
0
  6
DURCHGEHEND
 62
     1
100
AcDbLine
 10
72.632401
 20
64.43808
 30
0.0
 11
72.535873
 21
64.43808
 31
0.0
  0
LINE
  5
19C
100
AcDbEntity
  8
ARMATUR
390
0
  6
DURCHGEHEND
 62
     1
100
AcDbLine
 10
72.632401
 20
60.791672
 30
0.0
 11
72.382401
 21
60.791672
 31
0.0
  0
POLYLINE
  5
19D
100
AcDbEntity
  8
ARMATUR
390
0
  6
DURCHGEHEND
 62
     3
100
AcDb2dPolyline
 66
     1
 10
0.0
 20
0.0
 30
0.0
 75
     5
  0
VERTEX
  5
19E
100
AcDbEntity
  8
0
390
0
100
AcDbVertex
100
AcDb2dVertex
 10
72.632401
 20
53.276566
 30
0.0
  0
VERTEX
  5
19F
100
AcDbEntity
  8
0
390
0
100
AcDbVertex
100
AcDb2dVertex
 10
72.636818
 20
53.271294
 30
0.0
  0
VERTEX
  5
1A0
100
AcDbEntity
  8
0
390
0
100
AcDbVertex
100
AcDb2dVertex
 10
72.650452
 20
53.256481
 30
0.0
  0
VERTEX
  5
1A1
100
AcDbEntity
  8
0
390
0
100
AcDbVertex
100
AcDb2dVertex
 10
72.673874
 20
53.233646
 30
0.0
  0
VERTEX
  5
1A2
100
AcDbEntity
  8
0
390
0
100
AcDbVertex
100
AcDb2dVertex
 10
72.70768
 20
53.204308
 30
0.0
  0
VERTEX
  5
1A3
100
AcDbEntity
  8
0
390
0
100
AcDbVertex
100
AcDb2dVertex
 10
72.752441
 20
53.169971
 30
0.0
  0
VERTEX
  5
1A4
100
AcDbEntity
  8
0
390
0
100
AcDbVertex
100
AcDb2dVertex
 10
72.808731
 20
53.132153
 30
0.0
  0
VERTEX
  5
1A5
100
AcDbEntity
  8
0
390
0
100
AcDbVertex
100
AcDb2dVertex
 10
72.877144
 20
53.092373
 30
0.0
  0
VERTEX
  5
1A6
100
AcDbEntity
  8
0
390
0
100
AcDbVertex
100
AcDb2dVertex
 10
72.958244
 20
53.052139
 30
0.0
  0
VERTEX
  5
1A7
100
AcDbEntity
  8
0
390
0
100
AcDbVertex
100
AcDb2dVertex
 10
73.052612
 20
53.01297
 30
0.0
  0
VERTEX
  5
1A8
100
AcDbEntity
  8
0
390
0
100
AcDbVertex
100
AcDb2dVertex
 10
73.160843
 20
52.976379
 30
0.0
  0
VERTEX
  5
1A9
100
AcDbEntity
  8
0
390
0
100
AcDbVertex
100
AcDb2dVertex
 10
73.283493
 20
52.943882
 30
0.0
  0
VERTEX
  5
1AA
100
AcDbEntity
  8
0
390
0
100
AcDbVertex
100
AcDb2dVertex
 10
73.421165
 20
52.916988
 30
0.0
  0
VERTEX
  5
1AB
100
AcDbEntity
  8
0
390
0
100
AcDbVertex
100
AcDb2dVertex
 10
73.574417
 20
52.897217
 30
0.0
  0
VERTEX
  5
1AC
100
AcDbEntity
  8
0
390
0
100
AcDbVertex
100
AcDb2dVertex
 10
73.743843
 20
52.886078
 30
0.0
  0
VERTEX
  5
1AD
100
AcDbEntity
  8
0
390
0
100
AcDbVertex
100
AcDb2dVertex
 10
73.930016
 20
52.885094
 30
0.0
  0
VERTEX
  5
1AE
100
AcDbEntity
  8
0
390
0
100
AcDbVertex
100
AcDb2dVertex
 10
74.133522
 20
52.895771
 30
0.0
  0
VERTEX
  5
1AF
100
AcDbEntity
  8
0
390
0
100
AcDbVertex
100
AcDb2dVertex
 10
74.354935
 20
52.919624
 30
0.0
  0
VERTEX
  5
1B0
100
AcDbEntity
  8
0
390
0
100
AcDbVertex
100
AcDb2dVertex
 10
74.594826
 20
52.958172
 30
0.0
  0
VERTEX
  5
1B1
100
AcDbEntity
  8
0
390
0
100
AcDbVertex
100
AcDb2dVertex
 10
74.85379
 20
53.012928
 30
0.0
  0
VERTEX
  5
1B2
100
AcDbEntity
  8
0
390
0
100
AcDbVertex
100
AcDb2dVertex
 10
75.132401
 20
53.085403
 30
0.0
  0
SEQEND
  5
1B3
100
AcDbEntity
  8
0
390
0
  0
POLYLINE
  5
1B4
100
AcDbEntity
  8
ARMATUR
390
0
  6
DURCHGEHEND
 62
     3
100
AcDb2dPolyline
 66
     1
 10
0.0
 20
0.0
 30
0.0
 75
     5
  0
VERTEX
  5
1B5
100
AcDbEntity
  8
0
390
0
100
AcDbVertex
100
AcDb2dVertex
 10
76.907394
 20
54.832939
 30
0.0
  0
VERTEX
  5
1B6
100
AcDbEntity
  8
0
390
0
100
AcDbVertex
100
AcDb2dVertex
 10
76.901924
 20
54.826523
 30
0.0
  0
VERTEX
  5
1B7
100
AcDbEntity
  8
0
390
0
100
AcDbVertex
100
AcDb2dVertex
 10
76.885719
 20
54.808311
 30
0.0
  0
VERTEX
  5
1B8
100
AcDbEntity
  8
0
390
0
100
AcDbVertex
100
AcDb2dVertex
 10
76.859116
 20
54.779858
 30
0.0
  0
VERTEX
  5
1B9
100
AcDbEntity
  8
0
390
0
100
AcDbVertex
100
AcDb2dVertex
 10
76.822433
 20
54.742722
 30
0.0
  0
VERTEX
  5
1BA
100
AcDbEntity
  8
0
390
0
100
AcDbVertex
100
AcDb2dVertex
 10
76.776001
 20
54.698456
 30
0.0
  0
VERTEX
  5
1BB
100
AcDbEntity
  8
0
390
0
100
AcDbVertex
100
AcDb2dVertex
 10
76.720154
 20
54.648621
 30
0.0
  0
VERTEX
  5
1BC
100
AcDbEntity
  8
0
390
0
100
AcDbVertex
100
AcDb2dVertex
 10
76.655212
 20
54.594772
 30
0.0
  0
VERTEX
  5
1BD
100
AcDbEntity
  8
0
390
0
100
AcDbVertex
100
AcDb2dVertex
 10
76.581505
 20
54.53846
 30
0.0
  0
VERTEX
  5
1BE
100
AcDbEntity
  8
0
390
0
100
AcDbVertex
100
AcDb2dVertex
 10
76.499359
 20
54.481247
 30
0.0
  0
VERTEX
  5
1BF
100
AcDbEntity
  8
0
390
0
100
AcDbVertex
100
AcDb2dVertex
 10
76.409103
 20
54.424683
 30
0.0
  0
VERTEX
  5
1C0
100
AcDbEntity
  8
0
390
0
100
AcDbVertex
100
AcDb2dVertex
 10
76.311066
 20
54.370331
 30
0.0
  0
VERTEX
  5
1C1
100
AcDbEntity
  8
0
390
0
100
AcDbVertex
100
AcDb2dVertex
 10
76.205566
 20
54.319744
 30
0.0
  0
VERTEX
  5
1C2
100
AcDbEntity
  8
0
390
0
100
AcDbVertex
100
AcDb2dVertex
 10
76.092941
 20
54.274475
 30
0.0
  0
VERTEX
  5
1C3
100
AcDbEntity
  8
0
390
0
100
AcDbVertex
100
AcDb2dVertex
 10
75.973511
 20
54.236084
 30
0.0
  0
VERTEX
  5
1C4
100
AcDbEntity
  8
0
390
0
100
AcDbVertex
100
AcDb2dVertex
 10
75.847603
 20
54.206123
 30
0.0
  0
VERTEX
  5
1C5
100
AcDbEntity
  8
0
390
0
100
AcDbVertex
100
AcDb2dVertex
 10
75.715546
 20
54.186153
 30
0.0
  0
VERTEX
  5
1C6
100
AcDbEntity
  8
0
390
0
100
AcDbVertex
100
AcDb2dVertex
 10
75.577675
 20
54.177731
 30
0.0
  0
VERTEX
  5
1C7
100
AcDbEntity
  8
0
390
0
100
AcDbVertex
100
AcDb2dVertex
 10
75.434303
 20
54.182407
 30
0.0
  0
VERTEX
  5
1C8
100
AcDbEntity
  8
0
390
0
100
AcDbVertex
100
AcDb2dVertex
 10
75.285774
 20
54.20174
 30
0.0
  0
VERTEX
  5
1C9
100
AcDbEntity
  8
0
390
0
100
AcDbVertex
100
AcDb2dVertex
 10
75.132401
 20
54.237286
 30
0.0
  0
SEQEND
  5
1CA
100
AcDbEntity
  8
0
390
0
  0
LINE
  5
1CB
100
AcDbEntity
  8
ARMATUR
390
0
  6
DURCHGEHEND
 62
     1
100
AcDbLine
 10
136.688583
 20
72.953438
 30
0.0
 11
136.876083
 21
72.765938
 31
0.0
  0
LINE
  5
1CC
100
AcDbEntity
  8
ARMATUR
390
0
  6
DURCHGEHEND
 62
     1
100
AcDbLine
 10
145.001083
 20
72.765938
 30
0.0
 11
145.188583
 21
72.953438
 31
0.0
  0
LINE
  5
1CD
100
AcDbEntity
  8
ARMATUR
390
0
  6
DURCHGEHEND
 62
     1
100
AcDbLine
 10
136.688583
 20
85.040932
 30
0.0
 11
136.688583
 21
81.790932
 31
0.0
  0
LINE
  5
1CE
100
AcDbEntity
  8
ARMATUR
390
0
  6
DURCHGEHEND
 62
     1
100
AcDbLine
 10
136.688583
 20
73.265938
 30
0.0
 11
136.688583
 21
72.953438
 31
0.0
  0
LINE
  5
1CF
100
AcDbEntity
  8
ARMATUR
390
0
  6
DURCHGEHEND
 62
     1
100
AcDbLine
 10
145.188583
 20
72.953438
 30
0.0
 11
145.188583
 21
73.265938
 31
0.0
  0
LINE
  5
1D0
100
AcDbEntity
  8
ARMATUR
390
0
  6
DURCHGEHEND
 62
     1
100
AcDbLine
 10
145.188583
 20
81.790932
 30
0.0
 11
145.188583
 21
85.040932
 31
0.0
  0
ARC
  5
1D1
100
AcDbEntity
  8
ARMATUR
390
0
  6
DURCHGEHEND
 62
     1
100
AcDbCircle
 10
143.918777
 20
70.566628
 30
0.0
 40
0.875
100
AcDbArc
 50
0.0
 51
23.52
  0
ARC
  5
1D2
100
AcDbEntity
  8
ARMATUR
390
0
  6
DURCHGEHEND
 62
     1
100
AcDbCircle
 10
143.918777
 20
70.566628
 30
0.0
 40
0.875
100
AcDbArc
 50
328.997009
 51
360.0
  0
ARC
  5
1D3
100
AcDbEntity
  8
ARMATUR
390
0
  6
DURCHGEHEND
 62
     1
100
AcDbCircle
 10
142.668777
 20
70.566628
 30
0.0
 40
0.875
100
AcDbArc
 50
156.479004
 51
211.001999
  0
LINE
  5
1D4
100
AcDbEntity
  8
ARMATUR
390
0
  6
DURCHGEHEND
 62
     1
100
AcDbLine
 10
144.793777
 20
66.240944
 30
0.0
 11
144.793777
 21
67.415245
 31
0.0
  0
LINE
  5
1D5
100
AcDbEntity
  8
ARMATUR
390
0
  6
DURCHGEHEND
 62
     1
100
AcDbLine
 10
141.793777
 20
67.415245
 30
0.0
 11
141.793777
 21
66.240944
 31
0.0
  0
ARC
  5
1D6
100
AcDbEntity
  8
ARMATUR
390
0
  6
DURCHGEHEND
 62
     1
100
AcDbCircle
 10
143.918777
 20
67.415245
 30
0.0
 40
0.875
100
AcDbArc
 50
0.0
 51
31.003
  0
ARC
  5
1D7
100
AcDbEntity
  8
ARMATUR
390
0
  6
DURCHGEHEND
 62
     1
100
AcDbCircle
 10
142.668777
 20
67.415245
 30
0.0
 40
0.875
100
AcDbArc
 50
148.996994
 51
180.0
  0
ARC
  5
1D8
100
AcDbEntity
  8
ARMATUR
390
0
  6
DURCHGEHEND
 62
     1
100
AcDbCircle
 10
144.606461
 20
70.865944
 30
0.0
 40
0.125
100
AcDbArc
 50
23.514999
 51
89.995003
  0
ARC
  5
1D9
100
AcDbEntity
  8
ARMATUR
390
0
  6
DURCHGEHEND
 62
     1
100
AcDbCircle
 10
141.981094
 20
70.865944
 30
0.0
 40
0.125
100
AcDbArc
 50
90.0
 51
156.479996
  0
LINE
  5
1DA
100
AcDbEntity
  8
ARMATUR
390
0
  6
DURCHGEHEND
 62
     1
100
AcDbLine
 10
144.668777
 20
70.990944
 30
0.0
 11
144.668777
 21
71.240944
 31
0.0
  0
LINE
  5
1DB
100
AcDbEntity
  8
ARMATUR
390
0
  6
DURCHGEHEND
 62
     1
100
AcDbLine
 10
141.918777
 20
71.240944
 30
0.0
 11
141.918777
 21
70.990944
 31
0.0
  0
LINE
  5
1DC
100
AcDbEntity
  8
ARMATUR
390
0
  6
DURCHGEHEND
 62
     1
100
AcDbLine
 10
144.543777
 20
57.186459
 30
0.0
 11
144.543777
 21
66.240944
 31
0.0
  0
LINE
  5
1DD
100
AcDbEntity
  8
ARMATUR
390
0
  6
DURCHGEHEND
 62
     1
100
AcDbLine
 10
142.043777
 20
66.240944
 30
0.0
 11
142.043777
 21
56.625839
 31
0.0
  0
ARC
  5
1DE
100
AcDbEntity
  8
ARMATUR
390
0
  6
DURCHGEHEND
 62
     1
100
AcDbCircle
 10
139.20842
 20
64.191628
 30
0.0
 40
0.875
100
AcDbArc
 50
0.0
 51
34.453999
  0
ARC
  5
1DF
100
AcDbEntity
  8
ARMATUR
390
0
  6
DURCHGEHEND
 62
     1
100
AcDbCircle
 10
139.20842
 20
64.191628
 30
0.0
 40
0.875
100
AcDbArc
 50
328.997009
 51
360.0
  0
ARC
  5
1E0
100
AcDbEntity
  8
ARMATUR
390
0
  6
DURCHGEHEND
 62
     1
100
AcDbCircle
 10
137.95842
 20
64.191628
 30
0.0
 40
0.875031
100
AcDbArc
 50
145.546997
 51
211.003998
  0
LINE
  5
1E1
100
AcDbEntity
  8
ARMATUR
390
0
  6
DURCHGEHEND
 62
     1
100
AcDbLine
 10
140.08342
 20
59.990944
 30
0.0
 11
140.08342
 21
61.040245
 31
0.0
  0
LINE
  5
1E2
100
AcDbEntity
  8
ARMATUR
390
0
  6
DURCHGEHEND
 62
     1
100
AcDbLine
 10
137.08342
 20
61.040245
 30
0.0
 11
137.08342
 21
59.990944
 31
0.0
  0
ARC
  5
1E3
100
AcDbEntity
  8
ARMATUR
390
0
  6
DURCHGEHEND
 62
     1
100
AcDbCircle
 10
139.20842
 20
61.040245
 30
0.0
 40
0.875
100
AcDbArc
 50
0.0
 51
31.003
  0
ARC
  5
1E4
100
AcDbEntity
  8
ARMATUR
390
0
  6
DURCHGEHEND
 62
     1
100
AcDbCircle
 10
137.95842
 20
61.040245
 30
0.0
 40
0.875
100
AcDbArc
 50
148.996994
 51
180.0
  0
LINE
  5
1E5
100
AcDbEntity
  8
ARMATUR
390
0
  6
DURCHGEHEND
 62
     1
100
AcDbLine
 10
139.95842
 20
72.615944
 30
0.0
 11
139.95842
 21
72.765938
 31
0.0
  0
LINE
  5
1E6
100
AcDbEntity
  8
ARMATUR
390
0
  6
DURCHGEHEND
 62
     1
100
AcDbLine
 10
137.20842
 20
72.765938
 30
0.0
 11
137.20842
 21
72.615944
 31
0.0
  0
LINE
  5
1E7
100
AcDbEntity
  8
ARMATUR
390
0
  6
DURCHGEHEND
 62
     1
100
AcDbLine
 10
139.95842
 20
64.740944
 30
0.0
 11
139.95842
 21
65.365944
 31
0.0
  0
LINE
  5
1E8
100
AcDbEntity
  8
ARMATUR
390
0
  6
DURCHGEHEND
 62
     1
100
AcDbLine
 10
137.20842
 20
65.365944
 30
0.0
 11
137.20842
 21
64.740944
 31
0.0
  0
ELLIPSE
  5
1E9
100
AcDbEntity
  8
ARMATUR
390
0
  6
DURCHGEHEND
 62
     1
100
AcDbEllipse
 10
139.826859
 20
64.615944
 30
0.0
 11
-0.0707162544131279
 21
0.1030738135108898
 31
0.0
210
0.0
220
0.0
230
1.0
 40
0.9998
 41
4.7123889804000001
 42
5.6818493920125528
  0
ARC
  5
1EA
100
AcDbEntity
  8
ARMATUR
390
0
  6
DURCHGEHEND
 62
     1
100
AcDbCircle
 10
137.339981
 20
64.615944
 30
0.0
 40
0.125
100
AcDbArc
 50
90.0
 51
145.546005
  0
ARC
  5
1EB
100
AcDbEntity
  8
ARMATUR
390
0
  6
DURCHGEHEND
 62
     1
100
AcDbCircle
 10
139.89592
 20
72.490944
 30
0.0
 40
0.125
100
AcDbArc
 50
90.0
 51
180.0
  0
ARC
  5
1EC
100
AcDbEntity
  8
ARMATUR
390
0
  6
DURCHGEHEND
 62
     1
100
AcDbCircle
 10
137.27092
 20
72.490944
 30
0.0
 40
0.125
100
AcDbArc
 50
0.0
 51
90.0
  0
ARC
  5
1ED
100
AcDbEntity
  8
ARMATUR
390
0
  6
DURCHGEHEND
 62
     1
100
AcDbCircle
 10
139.89592
 20
65.490944
 30
0.0
 40
0.125
100
AcDbArc
 50
180.0
 51
270.0
  0
ARC
  5
1EE
100
AcDbEntity
  8
ARMATUR
390
0
  6
DURCHGEHEND
 62
     1
100
AcDbCircle
 10
137.27092
 20
65.490944
 30
0.0
 40
0.125
100
AcDbArc
 50
270.0
 51
360.0
  0
LINE
  5
1EF
100
AcDbEntity
  8
ARMATUR
390
0
  6
DURCHGEHEND
 62
     1
100
AcDbLine
 10
139.83342
 20
56.81271
 30
0.0
 11
139.83342
 21
59.990944
 31
0.0
  0
LINE
  5
1F0
100
AcDbEntity
  8
ARMATUR
390
0
  6
DURCHGEHEND
 62
     1
100
AcDbLine
 10
137.33342
 20
59.990944
 30
0.0
 11
137.33342
 21
56.438965
 31
0.0
  0
LINE
  5
1F1
100
AcDbEntity
  8
ARMATUR
390
0
  6
DURCHGEHEND
 62
     1
100
AcDbLine
 10
139.77092
 20
65.490944
 30
0.0
 11
139.77092
 21
72.490944
 31
0.0
  0
LINE
  5
1F2
100
AcDbEntity
  8
ARMATUR
390
0
  6
DURCHGEHEND
 62
     1
100
AcDbLine
 10
137.39592
 20
72.490944
 30
0.0
 11
137.39592
 21
65.490944
 31
0.0
  0
LINE
  5
1F3
100
AcDbEntity
  8
ARMATUR
390
0
  6
DURCHGEHEND
 62
     1
100
AcDbLine
 10
139.95842
 20
61.490944
 30
0.0
 11
139.95842
 21
63.740944
 31
0.0
  0
LINE
  5
1F4
100
AcDbEntity
  8
ARMATUR
390
0
  6
DURCHGEHEND
 62
     1
100
AcDbLine
 10
137.20842
 20
63.740944
 30
0.0
 11
137.20842
 21
61.490944
 31
0.0
  0
LINE
  5
1F5
100
AcDbEntity
  8
ARMATUR
390
0
  6
_STITCHLINE
 62
     5
100
AcDbLine
 10
148.188583
 20
80.465935
 30
0.0
 11
148.188583
 21
81.790932
 31
0.0
  0
LINE
  5
1F6
100
AcDbEntity
  8
ARMATUR
390
0
  6
_STITCHLINE
 62
     5
100
AcDbLine
 10
146.438583
 20
77.215935
 30
0.0
 11
146.438583
 21
78.86869
 31
0.0
  0
LINE
  5
1F7
100
AcDbEntity
  8
ARMATUR
390
0
  6
_STITCHLINE
 62
     5
100
AcDbLine
 10
135.438583
 20
80.040306
 30
0.0
 11
135.438583
 21
77.215935
 31
0.0
  0
ARC
  5
1F8
100
AcDbEntity
  8
ARMATUR
390
0
  6
_STITCHLINE
 62
     5
100
AcDbCircle
 10
146.688583
 20
78.86869
 30
0.0
 40
0.25
100
AcDbArc
 50
137.488007
 51
185.621994
  0
LINE
  5
1F9
100
AcDbEntity
  8
ARMATUR
390
0
  6
DURCHGEHEND
 62
     1
100
AcDbLine
 10
146.313583
 20
76.465935
 30
0.0
 11
146.313583
 21
77.215935
 31
0.0
  0
LINE
  5
1FA
100
AcDbEntity
  8
ARMATUR
390
0
  6
DURCHGEHEND
 62
     1
100
AcDbLine
 10
135.563583
 20
77.215935
 30
0.0
 11
135.563583
 21
76.465935
 31
0.0
  0
LINE
  5
1FB
100
AcDbEntity
  8
ARMATUR
390
0
  6
DURCHGEHEND
 62
     1
100
AcDbLine
 10
135.438583
 20
76.465935
 30
0.0
 11
135.438583
 21
76.015938
 31
0.0
  0
LINE
  5
1FC
100
AcDbEntity
  8
ARMATUR
390
0
  6
DURCHGEHEND
 62
     1
100
AcDbLine
 10
146.438583
 20
76.015938
 30
0.0
 11
146.438583
 21
76.465935
 31
0.0
  0
LINE
  5
1FD
100
AcDbEntity
  8
ARMATUR
390
0
  6
DURCHGEHEND
 62
     1
100
AcDbLine
 10
135.313583
 20
76.015938
 30
0.0
 11
135.313583
 21
75.265938
 31
0.0
  0
LINE
  5
1FE
100
AcDbEntity
  8
ARMATUR
390
0
  6
DURCHGEHEND
 62
     1
100
AcDbLine
 10
146.563583
 20
75.265938
 30
0.0
 11
146.563583
 21
76.015938
 31
0.0
  0
LINE
  5
1FF
100
AcDbEntity
  8
ARMATUR
390
0
  6
DURCHGEHEND
 62
     1
100
AcDbLine
 10
136.688583
 20
72.953438
 30
0.0
 11
145.188583
 21
72.953438
 31
0.0
  0
LINE
  5
200
100
AcDbEntity
  8
ARMATUR
390
0
  6
DURCHGEHEND
 62
     1
100
AcDbLine
 10
136.876083
 20
72.765938
 30
0.0
 11
145.001083
 21
72.765938
 31
0.0
  0
LINE
  5
201
100
AcDbEntity
  8
ARMATUR
390
0
  6
DURCHGEHEND
 62
     1
100
AcDbLine
 10
141.918777
 20
70.115944
 30
0.0
 11
141.576859
 21
70.115944
 31
0.0
  0
LINE
  5
202
100
AcDbEntity
  8
ARMATUR
390
0
  6
DURCHGEHEND
 62
     1
100
AcDbLine
 10
141.576859
 20
70.115944
 30
0.0
 11
141.348434
 21
70.115944
 31
0.0
  0
LINE
  5
203
100
AcDbEntity
  8
ARMATUR
390
0
  6
DURCHGEHEND
 62
     1
100
AcDbLine
 10
141.348434
 20
70.115944
 30
0.0
 11
140.528763
 21
70.115944
 31
0.0
  0
LINE
  5
204
100
AcDbEntity
  8
ARMATUR
390
0
  6
DURCHGEHEND
 62
     1
100
AcDbLine
 10
140.528763
 20
70.115944
 30
0.0
 11
140.300308
 21
70.115944
 31
0.0
  0
LINE
  5
205
100
AcDbEntity
  8
ARMATUR
390
0
  6
DURCHGEHEND
 62
     1
100
AcDbLine
 10
140.300308
 20
70.115944
 30
0.0
 11
139.77092
 21
70.115944
 31
0.0
  0
LINE
  5
206
100
AcDbEntity
  8
ARMATUR
390
0
  6
DURCHGEHEND
 62
     1
100
AcDbLine
 10
141.793777
 20
66.240944
 30
0.0
 11
139.77092
 21
66.240944
 31
0.0
  0
LINE
  5
207
100
AcDbEntity
  8
ARMATUR
390
0
  6
DURCHGEHEND
 62
     1
100
AcDbLine
 10
140.300308
 20
67.865944
 30
0.0
 11
139.77092
 21
67.865944
 31
0.0
  0
LINE
  5
208
100
AcDbEntity
  8
ARMATUR
390
0
  6
DURCHGEHEND
 62
     1
100
AcDbLine
 10
140.528763
 20
67.865944
 30
0.0
 11
140.300308
 21
67.865944
 31
0.0
  0
LINE
  5
209
100
AcDbEntity
  8
ARMATUR
390
0
  6
DURCHGEHEND
 62
     1
100
AcDbLine
 10
141.348434
 20
67.865944
 30
0.0
 11
140.528763
 21
67.865944
 31
0.0
  0
LINE
  5
20A
100
AcDbEntity
  8
ARMATUR
390
0
  6
DURCHGEHEND
 62
     1
100
AcDbLine
 10
141.576859
 20
67.865944
 30
0.0
 11
141.348434
 21
67.865944
 31
0.0
  0
LINE
  5
20B
100
AcDbEntity
  8
ARMATUR
390
0
  6
DURCHGEHEND
 62
     1
100
AcDbLine
 10
141.918777
 20
67.865944
 30
0.0
 11
141.576859
 21
67.865944
 31
0.0
  0
LINE
  5
20C
100
AcDbEntity
  8
ARMATUR
390
0
  6
DURCHGEHEND
 62
     1
100
AcDbLine
 10
139.81752
 20
72.588295
 30
0.0
 11
139.81752
 21
71.240944
 31
0.0
  0
LINE
  5
20D
100
AcDbEntity
  8
ARMATUR
390
0
  6
DURCHGEHEND
 62
     1
100
AcDbLine
 10
140.809677
 20
71.240944
 30
0.0
 11
139.81752
 21
71.240944
 31
0.0
  0
LINE
  5
20E
100
AcDbEntity
  8
ARMATUR
390
0
  6
DURCHGEHEND
 62
     1
100
AcDbLine
 10
140.809677
 20
71.240944
 30
0.0
 11
140.809677
 21
72.765938
 31
0.0
  0
LINE
  5
20F
100
AcDbEntity
  8
ARMATUR
390
0
  6
DURCHGEHEND
 62
     1
100
AcDbLine
 10
141.918777
 20
71.240944
 30
0.0
 11
141.06752
 21
71.240944
 31
0.0
  0
LINE
  5
210
100
AcDbEntity
  8
ARMATUR
390
0
  6
DURCHGEHEND
 62
     1
100
AcDbLine
 10
141.06752
 20
72.765938
 30
0.0
 11
141.06752
 21
71.240944
 31
0.0
  0
LINE
  5
211
100
AcDbEntity
  8
ARMATUR
390
0
  6
DURCHGEHEND
 62
     1
100
AcDbLine
 10
141.918777
 20
70.990944
 30
0.0
 11
139.77092
 21
70.990944
 31
0.0
  0
LINE
  5
212
100
AcDbEntity
  8
ARMATUR
390
0
  6
DURCHGEHEND
 62
     1
100
AcDbLine
 10
140.528763
 20
70.115944
 30
0.0
 11
140.528763
 21
67.865944
 31
0.0
  0
LINE
  5
213
100
AcDbEntity
  8
ARMATUR
390
0
  6
DURCHGEHEND
 62
     1
100
AcDbLine
 10
140.300308
 20
67.865944
 30
0.0
 11
140.300308
 21
70.115944
 31
0.0
  0
LINE
  5
214
100
AcDbEntity
  8
ARMATUR
390
0
  6
DURCHGEHEND
 62
     1
100
AcDbLine
 10
141.348434
 20
67.865944
 30
0.0
 11
141.348434
 21
70.115944
 31
0.0
  0
LINE
  5
215
100
AcDbEntity
  8
ARMATUR
390
0
  6
DURCHGEHEND
 62
     1
100
AcDbLine
 10
141.576859
 20
70.115944
 30
0.0
 11
141.576859
 21
67.865944
 31
0.0
  0
LINE
  5
216
100
AcDbEntity
  8
ARMATUR
390
0
  6
DURCHGEHEND
 62
     1
100
AcDbLine
 10
144.668777
 20
70.115944
 30
0.0
 11
144.606277
 21
70.115944
 31
0.0
  0
LINE
  5
217
100
AcDbEntity
  8
ARMATUR
390
0
  6
DURCHGEHEND
 62
     1
100
AcDbLine
 10
144.606277
 20
70.115944
 30
0.0
 11
144.511642
 21
70.115944
 31
0.0
  0
LINE
  5
218
100
AcDbEntity
  8
ARMATUR
390
0
  6
DURCHGEHEND
 62
     1
100
AcDbLine
 10
144.511642
 20
70.115944
 30
0.0
 11
143.932053
 21
70.115944
 31
0.0
  0
LINE
  5
219
100
AcDbEntity
  8
ARMATUR
390
0
  6
DURCHGEHEND
 62
     1
100
AcDbLine
 10
143.932053
 20
70.115944
 30
0.0
 11
143.703598
 21
70.115944
 31
0.0
  0
LINE
  5
21A
100
AcDbEntity
  8
ARMATUR
390
0
  6
DURCHGEHEND
 62
     1
100
AcDbLine
 10
143.703598
 20
70.115944
 30
0.0
 11
142.883926
 21
70.115944
 31
0.0
  0
LINE
  5
21B
100
AcDbEntity
  8
ARMATUR
390
0
  6
DURCHGEHEND
 62
     1
100
AcDbLine
 10
142.883926
 20
70.115944
 30
0.0
 11
142.655502
 21
70.115944
 31
0.0
  0
LINE
  5
21C
100
AcDbEntity
  8
ARMATUR
390
0
  6
DURCHGEHEND
 62
     1
100
AcDbLine
 10
142.655502
 20
70.115944
 30
0.0
 11
142.075882
 21
70.115944
 31
0.0
  0
LINE
  5
21D
100
AcDbEntity
  8
ARMATUR
390
0
  6
DURCHGEHEND
 62
     1
100
AcDbLine
 10
142.075882
 20
70.115944
 30
0.0
 11
141.981277
 21
70.115944
 31
0.0
  0
LINE
  5
21E
100
AcDbEntity
  8
ARMATUR
390
0
  6
DURCHGEHEND
 62
     1
100
AcDbLine
 10
141.981277
 20
70.115944
 30
0.0
 11
141.918777
 21
70.115944
 31
0.0
  0
LINE
  5
21F
100
AcDbEntity
  8
ARMATUR
390
0
  6
DURCHGEHEND
 62
     1
100
AcDbLine
 10
144.793777
 20
66.240944
 30
0.0
 11
141.793777
 21
66.240944
 31
0.0
  0
LINE
  5
220
100
AcDbEntity
  8
ARMATUR
390
0
  6
DURCHGEHEND
 62
     1
100
AcDbLine
 10
141.981277
 20
67.865944
 30
0.0
 11
141.918777
 21
67.865944
 31
0.0
  0
LINE
  5
221
100
AcDbEntity
  8
ARMATUR
390
0
  6
DURCHGEHEND
 62
     1
100
AcDbLine
 10
142.075882
 20
67.865944
 30
0.0
 11
141.981277
 21
67.865944
 31
0.0
  0
LINE
  5
222
100
AcDbEntity
  8
ARMATUR
390
0
  6
DURCHGEHEND
 62
     1
100
AcDbLine
 10
142.655502
 20
67.865944
 30
0.0
 11
142.075882
 21
67.865944
 31
0.0
  0
LINE
  5
223
100
AcDbEntity
  8
ARMATUR
390
0
  6
DURCHGEHEND
 62
     1
100
AcDbLine
 10
142.883926
 20
67.865944
 30
0.0
 11
142.655502
 21
67.865944
 31
0.0
  0
LINE
  5
224
100
AcDbEntity
  8
ARMATUR
390
0
  6
DURCHGEHEND
 62
     1
100
AcDbLine
 10
143.703598
 20
67.865944
 30
0.0
 11
142.883926
 21
67.865944
 31
0.0
  0
LINE
  5
225
100
AcDbEntity
  8
ARMATUR
390
0
  6
DURCHGEHEND
 62
     1
100
AcDbLine
 10
143.932053
 20
67.865944
 30
0.0
 11
143.703598
 21
67.865944
 31
0.0
  0
LINE
  5
226
100
AcDbEntity
  8
ARMATUR
390
0
  6
DURCHGEHEND
 62
     1
100
AcDbLine
 10
144.511642
 20
67.865944
 30
0.0
 11
143.932053
 21
67.865944
 31
0.0
  0
LINE
  5
227
100
AcDbEntity
  8
ARMATUR
390
0
  6
DURCHGEHEND
 62
     1
100
AcDbLine
 10
144.606277
 20
67.865944
 30
0.0
 11
144.511642
 21
67.865944
 31
0.0
  0
LINE
  5
228
100
AcDbEntity
  8
ARMATUR
390
0
  6
DURCHGEHEND
 62
     1
100
AcDbLine
 10
144.668777
 20
67.865944
 30
0.0
 11
144.606277
 21
67.865944
 31
0.0
  0
LINE
  5
229
100
AcDbEntity
  8
ARMATUR
390
0
  6
DURCHGEHEND
 62
     1
100
AcDbLine
 10
142.172684
 20
72.765938
 30
0.0
 11
142.172684
 21
71.240944
 31
0.0
  0
LINE
  5
22A
100
AcDbEntity
  8
ARMATUR
390
0
  6
DURCHGEHEND
 62
     1
100
AcDbLine
 10
143.164841
 20
71.240944
 30
0.0
 11
142.172684
 21
71.240944
 31
0.0
  0
LINE
  5
22B
100
AcDbEntity
  8
ARMATUR
390
0
  6
DURCHGEHEND
 62
     1
100
AcDbLine
 10
143.164841
 20
71.240944
 30
0.0
 11
143.164841
 21
72.765938
 31
0.0
  0
LINE
  5
22C
100
AcDbEntity
  8
ARMATUR
390
0
  6
DURCHGEHEND
 62
     1
100
AcDbLine
 10
142.043777
 20
71.240944
 30
0.0
 11
141.918777
 21
71.240944
 31
0.0
  0
LINE
  5
22D
100
AcDbEntity
  8
ARMATUR
390
0
  6
DURCHGEHEND
 62
     1
100
AcDbLine
 10
142.043777
 20
71.240944
 30
0.0
 11
142.043777
 21
72.765938
 31
0.0
  0
LINE
  5
22E
100
AcDbEntity
  8
ARMATUR
390
0
  6
DURCHGEHEND
 62
     1
100
AcDbLine
 10
144.668777
 20
71.240944
 30
0.0
 11
144.543777
 21
71.240944
 31
0.0
  0
LINE
  5
22F
100
AcDbEntity
  8
ARMATUR
390
0
  6
DURCHGEHEND
 62
     1
100
AcDbLine
 10
144.543777
 20
72.765938
 30
0.0
 11
144.543777
 21
71.240944
 31
0.0
  0
LINE
  5
230
100
AcDbEntity
  8
ARMATUR
390
0
  6
DURCHGEHEND
 62
     1
100
AcDbLine
 10
144.414841
 20
71.240944
 30
0.0
 11
143.422684
 21
71.240944
 31
0.0
  0
LINE
  5
231
100
AcDbEntity
  8
ARMATUR
390
0
  6
DURCHGEHEND
 62
     1
100
AcDbLine
 10
144.414841
 20
71.240944
 30
0.0
 11
144.414841
 21
72.765938
 31
0.0
  0
LINE
  5
232
100
AcDbEntity
  8
ARMATUR
390
0
  6
DURCHGEHEND
 62
     1
100
AcDbLine
 10
143.422684
 20
72.765938
 30
0.0
 11
143.422684
 21
71.240944
 31
0.0
  0
LINE
  5
233
100
AcDbEntity
  8
ARMATUR
390
0
  6
DURCHGEHEND
 62
     1
100
AcDbLine
 10
144.668777
 20
70.990944
 30
0.0
 11
141.918777
 21
70.990944
 31
0.0
  0
LINE
  5
234
100
AcDbEntity
  8
ARMATUR
390
0
  6
DURCHGEHEND
 62
     1
100
AcDbLine
 10
142.883926
 20
70.115944
 30
0.0
 11
142.883926
 21
67.865944
 31
0.0
  0
LINE
  5
235
100
AcDbEntity
  8
ARMATUR
390
0
  6
DURCHGEHEND
 62
     1
100
AcDbLine
 10
142.655502
 20
67.865944
 30
0.0
 11
142.655502
 21
70.115944
 31
0.0
  0
LINE
  5
236
100
AcDbEntity
  8
ARMATUR
390
0
  6
DURCHGEHEND
 62
     1
100
AcDbLine
 10
143.703598
 20
67.865944
 30
0.0
 11
143.703598
 21
70.115944
 31
0.0
  0
LINE
  5
237
100
AcDbEntity
  8
ARMATUR
390
0
  6
DURCHGEHEND
 62
     1
100
AcDbLine
 10
143.932053
 20
70.115944
 30
0.0
 11
143.932053
 21
67.865944
 31
0.0
  0
LINE
  5
238
100
AcDbEntity
  8
ARMATUR
390
0
  6
DURCHGEHEND
 62
     1
100
AcDbLine
 10
144.606277
 20
70.115944
 30
0.0
 11
144.606277
 21
67.865944
 31
0.0
  0
LINE
  5
239
100
AcDbEntity
  8
ARMATUR
390
0
  6
DURCHGEHEND
 62
     1
100
AcDbLine
 10
141.981277
 20
67.865944
 30
0.0
 11
141.981277
 21
70.115944
 31
0.0
  0
LINE
  5
23A
100
AcDbEntity
  8
ARMATUR
390
0
  6
DURCHGEHEND
 62
     1
100
AcDbLine
 10
139.95842
 20
63.740944
 30
0.0
 11
139.943344
 21
63.740944
 31
0.0
  0
LINE
  5
23B
100
AcDbEntity
  8
ARMATUR
390
0
  6
DURCHGEHEND
 62
     1
100
AcDbLine
 10
139.943344
 20
63.740944
 30
0.0
 11
139.586166
 21
63.740944
 31
0.0
  0
LINE
  5
23C
100
AcDbEntity
  8
ARMATUR
390
0
  6
DURCHGEHEND
 62
     1
100
AcDbLine
 10
139.586166
 20
63.740944
 30
0.0
 11
139.401443
 21
63.740944
 31
0.0
  0
LINE
  5
23D
100
AcDbEntity
  8
ARMATUR
390
0
  6
DURCHGEHEND
 62
     1
100
AcDbLine
 10
139.401443
 20
63.740944
 30
0.0
 11
138.627213
 21
63.740944
 31
0.0
  0
LINE
  5
23E
100
AcDbEntity
  8
ARMATUR
390
0
  6
DURCHGEHEND
 62
     1
100
AcDbLine
 10
138.627213
 20
63.740944
 30
0.0
 11
138.380356
 21
63.740944
 31
0.0
  0
LINE
  5
23F
100
AcDbEntity
  8
ARMATUR
390
0
  6
DURCHGEHEND
 62
     1
100
AcDbLine
 10
138.380356
 20
63.740944
 30
0.0
 11
137.642593
 21
63.740944
 31
0.0
  0
LINE
  5
240
100
AcDbEntity
  8
ARMATUR
390
0
  6
DURCHGEHEND
 62
     1
100
AcDbLine
 10
137.642593
 20
63.740944
 30
0.0
 11
137.478226
 21
63.740944
 31
0.0
  0
LINE
  5
241
100
AcDbEntity
  8
ARMATUR
390
0
  6
DURCHGEHEND
 62
     1
100
AcDbLine
 10
137.478226
 20
63.740944
 30
0.0
 11
137.209122
 21
63.740944
 31
0.0
  0
LINE
  5
242
100
AcDbEntity
  8
ARMATUR
390
0
  6
DURCHGEHEND
 62
     1
100
AcDbLine
 10
140.08342
 20
59.990944
 30
0.0
 11
137.08342
 21
59.990944
 31
0.0
  0
LINE
  5
243
100
AcDbEntity
  8
ARMATUR
390
0
  6
DURCHGEHEND
 62
     1
100
AcDbLine
 10
137.478226
 20
61.490944
 30
0.0
 11
137.209122
 21
61.490944
 31
0.0
  0
LINE
  5
244
100
AcDbEntity
  8
ARMATUR
390
0
  6
DURCHGEHEND
 62
     1
100
AcDbLine
 10
137.642593
 20
61.490944
 30
0.0
 11
137.478226
 21
61.490944
 31
0.0
  0
LINE
  5
245
100
AcDbEntity
  8
ARMATUR
390
0
  6
DURCHGEHEND
 62
     1
100
AcDbLine
 10
138.380356
 20
61.490944
 30
0.0
 11
137.642593
 21
61.490944
 31
0.0
  0
LINE
  5
246
100
AcDbEntity
  8
ARMATUR
390
0
  6
DURCHGEHEND
 62
     1
100
AcDbLine
 10
138.627213
 20
61.490944
 30
0.0
 11
138.380356
 21
61.490944
 31
0.0
  0
LINE
  5
247
100
AcDbEntity
  8
ARMATUR
390
0
  6
DURCHGEHEND
 62
     1
100
AcDbLine
 10
139.401443
 20
61.490944
 30
0.0
 11
138.627213
 21
61.490944
 31
0.0
  0
LINE
  5
248
100
AcDbEntity
  8
ARMATUR
390
0
  6
DURCHGEHEND
 62
     1
100
AcDbLine
 10
139.586166
 20
61.490944
 30
0.0
 11
139.401443
 21
61.490944
 31
0.0
  0
LINE
  5
249
100
AcDbEntity
  8
ARMATUR
390
0
  6
DURCHGEHEND
 62
     1
100
AcDbLine
 10
139.943344
 20
61.490944
 30
0.0
 11
139.586166
 21
61.490944
 31
0.0
  0
LINE
  5
24A
100
AcDbEntity
  8
ARMATUR
390
0
  6
DURCHGEHEND
 62
     1
100
AcDbLine
 10
139.95842
 20
61.490944
 30
0.0
 11
139.943344
 21
61.490944
 31
0.0
  0
LINE
  5
24B
100
AcDbEntity
  8
ARMATUR
390
0
  6
DURCHGEHEND
 62
     1
100
AcDbLine
 10
139.95842
 20
72.615944
 30
0.0
 11
137.20842
 21
72.615944
 31
0.0
  0
LINE
  5
24C
100
AcDbEntity
  8
ARMATUR
390
0
  6
DURCHGEHEND
 62
     1
100
AcDbLine
 10
139.95842
 20
65.365944
 30
0.0
 11
137.20842
 21
65.365944
 31
0.0
  0
LINE
  5
24D
100
AcDbEntity
  8
ARMATUR
390
0
  6
DURCHGEHEND
 62
     1
100
AcDbLine
 10
139.95842
 20
64.740944
 30
0.0
 11
137.20842
 21
64.740944
 31
0.0
  0
LINE
  5
24E
100
AcDbEntity
  8
ARMATUR
390
0
  6
DURCHGEHEND
 62
     1
100
AcDbLine
 10
138.627213
 20
63.740944
 30
0.0
 11
138.627213
 21
61.490944
 31
0.0
  0
LINE
  5
24F
100
AcDbEntity
  8
ARMATUR
390
0
  6
DURCHGEHEND
 62
     1
100
AcDbLine
 10
139.401443
 20
61.490944
 30
0.0
 11
139.401443
 21
63.740944
 31
0.0
  0
LINE
  5
250
100
AcDbEntity
  8
ARMATUR
390
0
  6
DURCHGEHEND
 62
     1
100
AcDbLine
 10
138.380356
 20
61.490944
 30
0.0
 11
138.380356
 21
63.740944
 31
0.0
  0
LINE
  5
251
100
AcDbEntity
  8
ARMATUR
390
0
  6
DURCHGEHEND
 62
     1
100
AcDbLine
 10
137.642593
 20
63.740944
 30
0.0
 11
137.642593
 21
61.490944
 31
0.0
  0
LINE
  5
252
100
AcDbEntity
  8
ARMATUR
390
0
  6
DURCHGEHEND
 62
     1
100
AcDbLine
 10
139.586166
 20
63.740944
 30
0.0
 11
139.586166
 21
61.490944
 31
0.0
  0
LINE
  5
253
100
AcDbEntity
  8
ARMATUR
390
0
  6
DURCHGEHEND
 62
     1
100
AcDbLine
 10
137.478226
 20
61.490944
 30
0.0
 11
137.478226
 21
63.740944
 31
0.0
  0
LINE
  5
254
100
AcDbEntity
  8
ARMATUR
390
0
  6
DURCHGEHEND
 62
     1
100
AcDbLine
 10
139.943344
 20
61.490944
 30
0.0
 11
139.943344
 21
63.740944
 31
0.0
  0
LINE
  5
255
100
AcDbEntity
  8
ARMATUR
390
0
  6
DURCHGEHEND
 62
     1
100
AcDbLine
 10
137.209122
 20
63.740944
 30
0.0
 11
137.209122
 21
61.490944
 31
0.0
  0
LINE
  5
256
100
AcDbEntity
  8
ARMATUR
390
0
  6
_STITCHLINE
 62
     5
100
AcDbLine
 10
133.688583
 20
81.790932
 30
0.0
 11
133.688583
 21
80.465935
 31
0.0
  0
LINE
  5
257
100
AcDbEntity
  8
ARMATUR
390
0
  6
_STITCHLINE
 62
     5
100
AcDbLine
 10
136.693802
 20
81.790932
 30
0.0
 11
136.693802
 21
80.465935
 31
0.0
  0
LINE
  5
258
100
AcDbEntity
  8
ARMATUR
390
0
  6
_STITCHLINE
 62
     5
100
AcDbLine
 10
133.688583
 20
81.790932
 30
0.0
 11
136.693802
 21
81.790932
 31
0.0
  0
LINE
  5
259
100
AcDbEntity
  8
ARMATUR
390
0
  6
_STITCHLINE
 62
     5
100
AcDbLine
 10
133.688583
 20
80.465935
 30
0.0
 11
136.693802
 21
80.465935
 31
0.0
  0
LINE
  5
25A
100
AcDbEntity
  8
ARMATUR
390
0
  6
_STITCHLINE
 62
     5
100
AcDbLine
 10
144.582504
 20
81.790932
 30
0.0
 11
144.582504
 21
80.465935
 31
0.0
  0
LINE
  5
25B
100
AcDbEntity
  8
ARMATUR
390
0
  6
_STITCHLINE
 62
     5
100
AcDbLine
 10
136.693802
 20
81.790932
 30
0.0
 11
144.582504
 21
81.790932
 31
0.0
  0
LINE
  5
25C
100
AcDbEntity
  8
ARMATUR
390
0
  6
_STITCHLINE
 62
     5
100
AcDbLine
 10
136.693802
 20
80.465935
 30
0.0
 11
144.582504
 21
80.465935
 31
0.0
  0
LINE
  5
25D
100
AcDbEntity
  8
ARMATUR
390
0
  6
_STITCHLINE
 62
     5
100
AcDbLine
 10
135.644363
 20
80.465935
 30
0.0
 11
138.659134
 21
79.003944
 31
0.0
  0
LINE
  5
25E
100
AcDbEntity
  8
ARMATUR
390
0
  6
_STITCHLINE
 62
     5
100
AcDbLine
 10
134.560898
 20
80.465935
 30
0.0
 11
137.575668
 21
79.003944
 31
0.0
  0
LINE
  5
25F
100
AcDbEntity
  8
ARMATUR
390
0
  6
_STITCHLINE
 62
     5
100
AcDbLine
 10
138.755264
 20
78.760185
 30
0.0
 11
138.755264
 21
80.465935
 31
0.0
  0
ARC
  5
260
100
AcDbEntity
  8
ARMATUR
390
0
  6
_STITCHLINE
 62
     5
100
AcDbCircle
 10
138.477188
 20
78.791344
 30
0.0
 40
0.279846
100
AcDbArc
 50
0.0
 51
49.443001
  0
ARC
  5
261
100
AcDbEntity
  8
ARMATUR
390
0
  6
_STITCHLINE
 62
     5
100
AcDbCircle
 10
138.477188
 20
78.791344
 30
0.0
 40
0.279846
100
AcDbArc
 50
353.602997
 51
360.0
  0
LINE
  5
262
100
AcDbEntity
  8
ARMATUR
390
0
  6
_STITCHLINE
 62
     5
100
AcDbLine
 10
144.582504
 20
81.790932
 30
0.0
 11
148.188583
 21
81.790932
 31
0.0
  0
LINE
  5
263
100
AcDbEntity
  8
ARMATUR
390
0
  6
_STITCHLINE
 62
     5
100
AcDbLine
 10
144.582504
 20
80.465935
 30
0.0
 11
148.188583
 21
80.465935
 31
0.0
  0
ARC
  5
264
100
AcDbEntity
  8
ARMATUR
390
0
  6
_STITCHLINE
 62
     5
100
AcDbCircle
 10
138.213547
 20
62.85183
 30
0.0
 40
15.917572
100
AcDbArc
 50
88.050003
 51
91.950996
  0
LINE
  5
265
100
AcDbEntity
  8
ARMATUR
390
0
  6
_STITCHLINE
 62
     5
100
AcDbLine
 10
146.402969
 20
78.828056
 30
0.0
 11
146.402969
 21
80.465935
 31
0.0
  0
LINE
  5
266
100
AcDbEntity
  8
ARMATUR
390
0
  6
DURCHGEHEND
 62
     1
100
AcDbLine
 10
135.438583
 20
77.215935
 30
0.0
 11
146.438583
 21
77.215935
 31
0.0
  0
ARC
  5
267
100
AcDbEntity
  8
ARMATUR
390
0
  6
_STITCHLINE
 62
     5
100
AcDbCircle
 10
137.39595
 20
78.792229
 30
0.0
 40
0.27771
100
AcDbArc
 50
0.0
 51
49.674999
  0
ARC
  5
268
100
AcDbEntity
  8
ARMATUR
390
0
  6
_STITCHLINE
 62
     5
100
AcDbCircle
 10
137.39595
 20
78.792229
 30
0.0
 40
0.27771
100
AcDbArc
 50
353.372009
 51
360.0
  0
LINE
  5
269
100
AcDbEntity
  8
ARMATUR
390
0
  6
_STITCHLINE
 62
     5
100
AcDbLine
 10
147.813583
 20
80.465935
 30
0.0
 11
146.47023
 21
79.00045
 31
0.0
  0
ARC
  5
26A
100
AcDbEntity
  8
ARMATUR
390
0
  6
_STITCHLINE
 62
     5
100
AcDbCircle
 10
146.658829
 20
78.827538
 30
0.0
 40
0.255859
100
AcDbArc
 50
137.483002
 51
179.882996
  0
LINE
  5
26B
100
AcDbEntity
  8
ARMATUR
390
0
  6
DURCHGEHEND
 62
     1
100
AcDbLine
 10
135.438583
 20
76.465935
 30
0.0
 11
146.438583
 21
76.465935
 31
0.0
  0
LINE
  5
26C
100
AcDbEntity
  8
ARMATUR
390
0
  6
DURCHGEHEND
 62
     1
100
AcDbLine
 10
135.313583
 20
76.015938
 30
0.0
 11
146.563583
 21
76.015938
 31
0.0
  0
LINE
  5
26D
100
AcDbEntity
  8
ARMATUR
390
0
  6
DURCHGEHEND
 62
     1
100
AcDbLine
 10
135.313583
 20
75.265938
 30
0.0
 11
146.563583
 21
75.265938
 31
0.0
  0
LINE
  5
26E
100
AcDbEntity
  8
ARMATUR
390
0
  6
DURCHGEHEND
 62
     1
100
AcDbLine
 10
140.82991
 20
73.641212
 30
0.0
 11
141.047287
 21
73.641212
 31
0.0
  0
ARC
  5
26F
100
AcDbEntity
  8
ARMATUR
390
0
  6
DURCHGEHEND
 62
     1
100
AcDbCircle
 10
143.337357
 20
80.427971
 30
0.0
 40
7.16272
100
AcDbArc
 50
251.354004
 51
269.209991
  0
LINE
  5
270
100
AcDbEntity
  8
ARMATUR
390
0
  6
DURCHGEHEND
 62
     1
100
AcDbLine
 10
143.238602
 20
73.265938
 30
0.0
 11
138.638596
 21
73.265938
 31
0.0
  0
POLYLINE
  5
271
100
AcDbEntity
  8
ARMATUR
390
0
  6
DURCHGEHEND
 62
     1
100
AcDb2dPolyline
 66
     1
 10
0.0
 20
0.0
 30
0.0
 75
     5
  0
VERTEX
  5
272
100
AcDbEntity
  8
0
390
0
100
AcDbVertex
100
AcDb2dVertex
 10
140.82991
 20
73.641212
 30
0.0
  0
VERTEX
  5
273
100
AcDbEntity
  8
0
390
0
100
AcDbVertex
100
AcDb2dVertex
 10
139.754807
 20
73.368225
 30
0.0
  0
VERTEX
  5
274
100
AcDbEntity
  8
0
390
0
100
AcDbVertex
100
AcDb2dVertex
 10
138.638596
 20
73.265938
 30
0.0
  0
SEQEND
  5
275
100
AcDbEntity
  8
0
390
0
  0
LINE
  5
276
100
AcDbEntity
  8
ARMATUR
390
0
  6
DURCHGEHEND
 62
     1
100
AcDbLine
 10
141.047287
 20
75.215935
 30
0.0
 11
141.047287
 21
73.641212
 31
0.0
  0
LINE
  5
277
100
AcDbEntity
  8
ARMATUR
390
0
  6
DURCHGEHEND
 62
     1
100
AcDbLine
 10
140.82991
 20
73.641212
 30
0.0
 11
140.82991
 21
75.215935
 31
0.0
  0
ARC
  5
278
100
AcDbEntity
  8
ARMATUR
390
0
  6
DURCHGEHEND
 62
     1
100
AcDbCircle
 10
138.73735
 20
80.427971
 30
0.0
 40
7.16272
100
AcDbArc
 50
251.354004
 51
269.209991
  0
LINE
  5
279
100
AcDbEntity
  8
ARMATUR
390
0
  6
DURCHGEHEND
 62
     1
100
AcDbLine
 10
136.447281
 20
75.215935
 30
0.0
 11
136.447281
 21
73.641212
 31
0.0
  0
POLYLINE
  5
27A
100
AcDbEntity
  8
ARMATUR
390
0
  6
DURCHGEHEND
 62
     1
100
AcDb2dPolyline
 66
     1
 10
0.0
 20
0.0
 30
0.0
 75
     5
  0
VERTEX
  5
27B
100
AcDbEntity
  8
0
390
0
100
AcDbVertex
100
AcDb2dVertex
 10
145.429916
 20
73.641212
 30
0.0
  0
VERTEX
  5
27C
100
AcDbEntity
  8
0
390
0
100
AcDbVertex
100
AcDb2dVertex
 10
144.354813
 20
73.368225
 30
0.0
  0
VERTEX
  5
27D
100
AcDbEntity
  8
0
390
0
100
AcDbVertex
100
AcDb2dVertex
 10
143.238602
 20
73.265938
 30
0.0
  0
SEQEND
  5
27E
100
AcDbEntity
  8
0
390
0
  0
LINE
  5
27F
100
AcDbEntity
  8
ARMATUR
390
0
  6
DURCHGEHEND
 62
     1
100
AcDbLine
 10
145.429916
 20
73.641212
 30
0.0
 11
145.429916
 21
75.215935
 31
0.0
  0
LINE
  5
280
100
AcDbEntity
  8
ARMATUR
390
0
  6
DURCHGEHEND
 62
     1
100
AcDbLine
 10
136.338577
 20
73.641212
 30
0.0
 11
136.447281
 21
73.641212
 31
0.0
  0
LINE
  5
281
100
AcDbEntity
  8
ARMATUR
390
0
  6
DURCHGEHEND
 62
     1
100
AcDbLine
 10
136.338577
 20
73.641212
 30
0.0
 11
136.338577
 21
73.265938
 31
0.0
  0
LINE
  5
282
100
AcDbEntity
  8
ARMATUR
390
0
  6
DURCHGEHEND
 62
     1
100
AcDbLine
 10
138.638596
 20
73.265938
 30
0.0
 11
136.338577
 21
73.265938
 31
0.0
  0
LINE
  5
283
100
AcDbEntity
  8
ARMATUR
390
0
  6
DURCHGEHEND
 62
     1
100
AcDbLine
 10
145.429916
 20
73.641212
 30
0.0
 11
145.538589
 21
73.641212
 31
0.0
  0
LINE
  5
284
100
AcDbEntity
  8
ARMATUR
390
0
  6
DURCHGEHEND
 62
     1
100
AcDbLine
 10
145.538589
 20
73.265938
 30
0.0
 11
145.538589
 21
73.641212
 31
0.0
  0
LINE
  5
285
100
AcDbEntity
  8
ARMATUR
390
0
  6
DURCHGEHEND
 62
     1
100
AcDbLine
 10
145.538589
 20
73.265938
 30
0.0
 11
143.238602
 21
73.265938
 31
0.0
  0
LINE
  5
286
100
AcDbEntity
  8
ARMATUR
390
0
  6
DURCHGEHEND
 62
     1
100
AcDbLine
 10
145.538589
 20
75.215935
 30
0.0
 11
145.538589
 21
73.641212
 31
0.0
  0
LINE
  5
287
100
AcDbEntity
  8
ARMATUR
390
0
  6
DURCHGEHEND
 62
     1
100
AcDbLine
 10
136.338577
 20
73.641212
 30
0.0
 11
136.338577
 21
75.215935
 31
0.0
  0
LINE
  5
288
100
AcDbEntity
  8
ARMATUR
390
0
  6
_STITCHLINE
 62
     5
100
AcDbLine
 10
146.438583
 20
78.86869
 30
0.0
 11
146.402969
 21
78.828056
 31
0.0
  0
POLYLINE
  5
289
100
AcDbEntity
  8
ARMATUR
390
0
  6
DURCHGEHEND
 62
     3
100
AcDb2dPolyline
 66
     1
 10
0.0
 20
0.0
 30
0.0
 75
     5
  0
VERTEX
  5
28A
100
AcDbEntity
  8
0
390
0
100
AcDbVertex
100
AcDb2dVertex
 10
137.33342
 20
56.438965
 30
0.0
  0
VERTEX
  5
28B
100
AcDbEntity
  8
0
390
0
100
AcDbVertex
100
AcDb2dVertex
 10
137.345688
 20
56.433739
 30
0.0
  0
VERTEX
  5
28C
100
AcDbEntity
  8
0
390
0
100
AcDbVertex
100
AcDb2dVertex
 10
137.381226
 20
56.419361
 30
0.0
  0
VERTEX
  5
28D
100
AcDbEntity
  8
0
390
0
100
AcDbVertex
100
AcDb2dVertex
 10
137.438141
 20
56.397774
 30
0.0
  0
VERTEX
  5
28E
100
AcDbEntity
  8
0
390
0
100
AcDbVertex
100
AcDb2dVertex
 10
137.514526
 20
56.370926
 30
0.0
  0
VERTEX
  5
28F
100
AcDbEntity
  8
0
390
0
100
AcDbVertex
100
AcDb2dVertex
 10
137.608475
 20
56.340759
 30
0.0
  0
VERTEX
  5
290
100
AcDbEntity
  8
0
390
0
100
AcDbVertex
100
AcDb2dVertex
 10
137.718094
 20
56.309219
 30
0.0
  0
VERTEX
  5
291
100
AcDbEntity
  8
0
390
0
100
AcDbVertex
100
AcDb2dVertex
 10
137.841492
 20
56.278252
 30
0.0
  0
VERTEX
  5
292
100
AcDbEntity
  8
0
390
0
100
AcDbVertex
100
AcDb2dVertex
 10
137.976746
 20
56.249798
 30
0.0
  0
VERTEX
  5
293
100
AcDbEntity
  8
0
390
0
100
AcDbVertex
100
AcDb2dVertex
 10
138.121964
 20
56.225811
 30
0.0
  0
VERTEX
  5
294
100
AcDbEntity
  8
0
390
0
100
AcDbVertex
100
AcDb2dVertex
 10
138.275238
 20
56.208229
 30
0.0
  0
VERTEX
  5
295
100
AcDbEntity
  8
0
390
0
100
AcDbVertex
100
AcDb2dVertex
 10
138.434692
 20
56.198997
 30
0.0
  0
VERTEX
  5
296
100
AcDbEntity
  8
0
390
0
100
AcDbVertex
100
AcDb2dVertex
 10
138.598404
 20
56.200066
 30
0.0
  0
VERTEX
  5
297
100
AcDbEntity
  8
0
390
0
100
AcDbVertex
100
AcDb2dVertex
 10
138.764465
 20
56.213375
 30
0.0
  0
VERTEX
  5
298
100
AcDbEntity
  8
0
390
0
100
AcDbVertex
100
AcDb2dVertex
 10
138.931
 20
56.240871
 30
0.0
  0
VERTEX
  5
299
100
AcDbEntity
  8
0
390
0
100
AcDbVertex
100
AcDb2dVertex
 10
139.0961
 20
56.2845
 30
0.0
  0
VERTEX
  5
29A
100
AcDbEntity
  8
0
390
0
100
AcDbVertex
100
AcDb2dVertex
 10
139.257843
 20
56.346207
 30
0.0
  0
VERTEX
  5
29B
100
AcDbEntity
  8
0
390
0
100
AcDbVertex
100
AcDb2dVertex
 10
139.414352
 20
56.427937
 30
0.0
  0
VERTEX
  5
29C
100
AcDbEntity
  8
0
390
0
100
AcDbVertex
100
AcDb2dVertex
 10
139.563721
 20
56.531635
 30
0.0
  0
VERTEX
  5
29D
100
AcDbEntity
  8
0
390
0
100
AcDbVertex
100
AcDb2dVertex
 10
139.704041
 20
56.659245
 30
0.0
  0
VERTEX
  5
29E
100
AcDbEntity
  8
0
390
0
100
AcDbVertex
100
AcDb2dVertex
 10
139.83342
 20
56.81271
 30
0.0
  0
SEQEND
  5
29F
100
AcDbEntity
  8
0
390
0
  0
POLYLINE
  5
2A0
100
AcDbEntity
  8
ARMATUR
390
0
  6
DURCHGEHEND
 62
     3
100
AcDb2dPolyline
 66
     1
 10
0.0
 20
0.0
 30
0.0
 75
     5
  0
VERTEX
  5
2A1
100
AcDbEntity
  8
0
390
0
100
AcDbVertex
100
AcDb2dVertex
 10
142.043777
 20
56.625839
 30
0.0
  0
VERTEX
  5
2A2
100
AcDbEntity
  8
0
390
0
100
AcDbVertex
100
AcDb2dVertex
 10
142.061905
 20
56.615162
 30
0.0
  0
VERTEX
  5
2A3
100
AcDbEntity
  8
0
390
0
100
AcDbVertex
100
AcDb2dVertex
 10
142.113785
 20
56.585674
 30
0.0
  0
VERTEX
  5
2A4
100
AcDbEntity
  8
0
390
0
100
AcDbVertex
100
AcDb2dVertex
 10
142.195648
 20
56.541191
 30
0.0
  0
VERTEX
  5
2A5
100
AcDbEntity
  8
0
390
0
100
AcDbVertex
100
AcDb2dVertex
 10
142.303772
 20
56.485527
 30
0.0
  0
VERTEX
  5
2A6
100
AcDbEntity
  8
0
390
0
100
AcDbVertex
100
AcDb2dVertex
 10
142.434402
 20
56.422493
 30
0.0
  0
VERTEX
  5
2A7
100
AcDbEntity
  8
0
390
0
100
AcDbVertex
100
AcDb2dVertex
 10
142.583771
 20
56.355907
 30
0.0
  0
VERTEX
  5
2A8
100
AcDbEntity
  8
0
390
0
100
AcDbVertex
100
AcDb2dVertex
 10
142.748154
 20
56.289577
 30
0.0
  0
VERTEX
  5
2A9
100
AcDbEntity
  8
0
390
0
100
AcDbVertex
100
AcDb2dVertex
 10
142.923782
 20
56.227325
 30
0.0
  0
VERTEX
  5
2AA
100
AcDbEntity
  8
0
390
0
100
AcDbVertex
100
AcDb2dVertex
 10
143.106903
 20
56.172962
 30
0.0
  0
VERTEX
  5
2AB
100
AcDbEntity
  8
0
390
0
100
AcDbVertex
100
AcDb2dVertex
 10
143.293777
 20
56.130302
 30
0.0
  0
VERTEX
  5
2AC
100
AcDbEntity
  8
0
390
0
100
AcDbVertex
100
AcDb2dVertex
 10
143.480652
 20
56.103157
 30
0.0
  0
VERTEX
  5
2AD
100
AcDbEntity
  8
0
390
0
100
AcDbVertex
100
AcDb2dVertex
 10
143.663773
 20
56.095345
 30
0.0
  0
VERTEX
  5
2AE
100
AcDbEntity
  8
0
390
0
100
AcDbVertex
100
AcDb2dVertex
 10
143.839401
 20
56.110676
 30
0.0
  0
VERTEX
  5
2AF
100
AcDbEntity
  8
0
390
0
100
AcDbVertex
100
AcDb2dVertex
 10
144.003784
 20
56.152969
 30
0.0
  0
VERTEX
  5
2B0
100
AcDbEntity
  8
0
390
0
100
AcDbVertex
100
AcDb2dVertex
 10
144.153152
 20
56.226032
 30
0.0
  0
VERTEX
  5
2B1
100
AcDbEntity
  8
0
390
0
100
AcDbVertex
100
AcDb2dVertex
 10
144.283783
 20
56.333687
 30
0.0
  0
VERTEX
  5
2B2
100
AcDbEntity
  8
0
390
0
100
AcDbVertex
100
AcDb2dVertex
 10
144.391907
 20
56.47974
 30
0.0
  0
VERTEX
  5
2B3
100
AcDbEntity
  8
0
390
0
100
AcDbVertex
100
AcDb2dVertex
 10
144.47377
 20
56.668011
 30
0.0
  0
VERTEX
  5
2B4
100
AcDbEntity
  8
0
390
0
100
AcDbVertex
100
AcDb2dVertex
 10
144.52565
 20
56.902313
 30
0.0
  0
VERTEX
  5
2B5
100
AcDbEntity
  8
0
390
0
100
AcDbVertex
100
AcDb2dVertex
 10
144.543777
 20
57.186459
 30
0.0
  0
SEQEND
  5
2B6
100
AcDbEntity
  8
0
390
0
  0
POLYLINE
  5
2B7
100
AcDbEntity
  8
ARMATUR
390
0
  6
DURCHGEHEND
 62
     3
100
AcDb2dPolyline
 66
     1
 10
0.0
 20
0.0
 30
0.0
 75
     5
  0
VERTEX
  5
2B8
100
AcDbEntity
  8
0
390
0
100
AcDbVertex
100
AcDb2dVertex
 10
142.043777
 20
57.793427
 30
0.0
  0
VERTEX
  5
2B9
100
AcDbEntity
  8
0
390
0
100
AcDbVertex
100
AcDb2dVertex
 10
142.030106
 20
57.784904
 30
0.0
  0
VERTEX
  5
2BA
100
AcDbEntity
  8
0
390
0
100
AcDbVertex
100
AcDb2dVertex
 10
141.990799
 20
57.761131
 30
0.0
  0
VERTEX
  5
2BB
100
AcDbEntity
  8
0
390
0
100
AcDbVertex
100
AcDb2dVertex
 10
141.928436
 20
57.724796
 30
0.0
  0
VERTEX
  5
2BC
100
AcDbEntity
  8
0
390
0
100
AcDbVertex
100
AcDb2dVertex
 10
141.845581
 20
57.678596
 30
0.0
  0
VERTEX
  5
2BD
100
AcDbEntity
  8
0
390
0
100
AcDbVertex
100
AcDb2dVertex
 10
141.744827
 20
57.625217
 30
0.0
  0
VERTEX
  5
2BE
100
AcDbEntity
  8
0
390
0
100
AcDbVertex
100
AcDb2dVertex
 10
141.628723
 20
57.567356
 30
0.0
  0
VERTEX
  5
2BF
100
AcDbEntity
  8
0
390
0
100
AcDbVertex
100
AcDb2dVertex
 10
141.499847
 20
57.507698
 30
0.0
  0
VERTEX
  5
2C0
100
AcDbEntity
  8
0
390
0
100
AcDbVertex
100
AcDb2dVertex
 10
141.360779
 20
57.448936
 30
0.0
  0
VERTEX
  5
2C1
100
AcDbEntity
  8
0
390
0
100
AcDbVertex
100
AcDb2dVertex
 10
141.214096
 20
57.393764
 30
0.0
  0
VERTEX
  5
2C2
100
AcDbEntity
  8
0
390
0
100
AcDbVertex
100
AcDb2dVertex
 10
141.062363
 20
57.344872
 30
0.0
  0
VERTEX
  5
2C3
100
AcDbEntity
  8
0
390
0
100
AcDbVertex
100
AcDb2dVertex
 10
140.908157
 20
57.304951
 30
0.0
  0
VERTEX
  5
2C4
100
AcDbEntity
  8
0
390
0
100
AcDbVertex
100
AcDb2dVertex
 10
140.754044
 20
57.276691
 30
0.0
  0
VERTEX
  5
2C5
100
AcDbEntity
  8
0
390
0
100
AcDbVertex
100
AcDb2dVertex
 10
140.6026
 20
57.262787
 30
0.0
  0
VERTEX
  5
2C6
100
AcDbEntity
  8
0
390
0
100
AcDbVertex
100
AcDb2dVertex
 10
140.456406
 20
57.265926
 30
0.0
  0
VERTEX
  5
2C7
100
AcDbEntity
  8
0
390
0
100
AcDbVertex
100
AcDb2dVertex
 10
140.318024
 20
57.288803
 30
0.0
  0
VERTEX
  5
2C8
100
AcDbEntity
  8
0
390
0
100
AcDbVertex
100
AcDb2dVertex
 10
140.190033
 20
57.334106
 30
0.0
  0
VERTEX
  5
2C9
100
AcDbEntity
  8
0
390
0
100
AcDbVertex
100
AcDb2dVertex
 10
140.075012
 20
57.40453
 30
0.0
  0
VERTEX
  5
2CA
100
AcDbEntity
  8
0
390
0
100
AcDbVertex
100
AcDb2dVertex
 10
139.97551
 20
57.502762
 30
0.0
  0
VERTEX
  5
2CB
100
AcDbEntity
  8
0
390
0
100
AcDbVertex
100
AcDb2dVertex
 10
139.894119
 20
57.631496
 30
0.0
  0
VERTEX
  5
2CC
100
AcDbEntity
  8
0
390
0
100
AcDbVertex
100
AcDb2dVertex
 10
139.83342
 20
57.793427
 30
0.0
  0
SEQEND
  5
2CD
100
AcDbEntity
  8
0
390
0
  0
LINE
  5
2CE
100
AcDbEntity
  8
ARMATUR
390
0
  6
_STITCHLINE
 62
     5
100
AcDbLine
 10
69.440887
 20
81.542358
 30
0.0
 11
69.440887
 21
85.239395
 31
0.0
  0
LINE
  5
2CF
100
AcDbEntity
  8
ARMATUR
390
0
  6
_STITCHLINE
 62
     5
100
AcDbLine
 10
76.994461
 20
81.542358
 30
0.0
 11
76.994461
 21
85.239395
 31
0.0
  0
LINE
  5
2D0
100
AcDbEntity
  8
ARMATUR
390
0
  6
DURCHGEHEND
 62
     1
100
AcDbLine
 10
69.603271
 20
160.205139
 30
0.0
 11
69.603271
 21
158.955933
 31
0.0
  0
LINE
  5
2D1
100
AcDbEntity
  8
ARMATUR
390
0
  6
DURCHGEHEND
 62
     1
100
AcDbLine
 10
76.853271
 20
158.955872
 30
0.0
 11
76.853271
 21
160.205139
 31
0.0
  0
LINE
  5
2D2
100
AcDbEntity
  8
ARMATUR
390
0
  6
DURCHGEHEND
 62
     1
100
AcDbLine
 10
70.228271
 20
158.706055
 30
0.0
 11
70.228271
 21
158.456207
 31
0.0
  0
LINE
  5
2D3
100
AcDbEntity
  8
ARMATUR
390
0
  6
DURCHGEHEND
 62
     1
100
AcDbLine
 10
76.228271
 20
158.456207
 30
0.0
 11
76.228271
 21
158.706055
 31
0.0
  0
LINE
  5
2D4
100
AcDbEntity
  8
ARMATUR
390
0
  6
DURCHGEHEND
 62
     1
100
AcDbLine
 10
67.85968
 20
160.355072
 30
0.0
 11
67.856277
 21
160.324554
 31
0.0
  0
LINE
  5
2D5
100
AcDbEntity
  8
ARMATUR
390
0
  6
DURCHGEHEND
 62
     1
100
AcDbLine
 10
67.856277
 20
160.324554
 30
0.0
 11
67.889893
 21
160.25415
 31
0.0
  0
LINE
  5
2D6
100
AcDbEntity
  8
ARMATUR
390
0
  6
DURCHGEHEND
 62
     1
100
AcDbLine
 10
67.889893
 20
160.25415
 30
0.0
 11
67.928284
 21
160.220001
 31
0.0
  0
LINE
  5
2D7
100
AcDbEntity
  8
ARMATUR
390
0
  6
DURCHGEHEND
 62
     1
100
AcDbLine
 10
67.928284
 20
160.220001
 30
0.0
 11
67.970642
 21
160.198639
 31
0.0
  0
LINE
  5
2D8
100
AcDbEntity
  8
ARMATUR
390
0
  6
DURCHGEHEND
 62
     1
100
AcDbLine
 10
67.970642
 20
160.198639
 30
0.0
 11
67.994781
 21
160.191589
 31
0.0
  0
LINE
  5
2D9
100
AcDbEntity
  8
ARMATUR
390
0
  6
DURCHGEHEND
 62
     1
100
AcDbLine
 10
78.603271
 20
160.35498
 30
0.0
 11
78.603271
 21
170.42392
 31
0.0
  0
LINE
  5
2DA
100
AcDbEntity
  8
ARMATUR
390
0
  6
DURCHGEHEND
 62
     1
100
AcDbLine
 10
67.853271
 20
170.42392
 30
0.0
 11
67.853271
 21
160.355103
 31
0.0
  0
LINE
  5
2DB
100
AcDbEntity
  8
ARMATUR
390
0
  6
DURCHGEHEND
 62
     1
100
AcDbLine
 10
78.596466
 20
170.420135
 30
0.0
 11
78.600281
 21
170.454407
 31
0.0
  0
LINE
  5
2DC
100
AcDbEntity
  8
ARMATUR
390
0
  6
DURCHGEHEND
 62
     1
100
AcDbLine
 10
78.600281
 20
170.454407
 30
0.0
 11
78.566666
 21
170.524811
 31
0.0
  0
LINE
  5
2DD
100
AcDbEntity
  8
ARMATUR
390
0
  6
DURCHGEHEND
 62
     1
100
AcDbLine
 10
78.566666
 20
170.524811
 30
0.0
 11
78.528259
 21
170.55896
 31
0.0
  0
LINE
  5
2DE
100
AcDbEntity
  8
ARMATUR
390
0
  6
DURCHGEHEND
 62
     1
100
AcDbLine
 10
78.528259
 20
170.55896
 30
0.0
 11
78.485901
 21
170.580322
 31
0.0
  0
LINE
  5
2DF
100
AcDbEntity
  8
ARMATUR
390
0
  6
DURCHGEHEND
 62
     1
100
AcDbLine
 10
78.485901
 20
170.580322
 30
0.0
 11
78.473434
 21
170.583984
 31
0.0
  0
LINE
  5
2E0
100
AcDbEntity
  8
ARMATUR
390
0
  6
DURCHGEHEND
 62
     1
100
AcDbLine
 10
69.478271
 20
160.078156
 30
0.0
 11
69.478271
 21
147.23938
 31
0.0
  0
LINE
  5
2E1
100
AcDbEntity
  8
ARMATUR
390
0
  6
DURCHGEHEND
 62
     1
100
AcDbLine
 10
76.978271
 20
147.23938
 30
0.0
 11
76.978271
 21
160.078156
 31
0.0
  0
LINE
  5
2E2
100
AcDbEntity
  8
ARMATUR
390
0
  6
DURCHGEHEND
 62
     1
100
AcDbLine
 10
76.978271
 20
119.239395
 30
0.0
 11
76.978271
 21
147.23938
 31
0.0
  0
LINE
  5
2E3
100
AcDbEntity
  8
ARMATUR
390
0
  6
DURCHGEHEND
 62
     1
100
AcDbLine
 10
69.478271
 20
147.23938
 30
0.0
 11
69.478271
 21
119.239395
 31
0.0
  0
LINE
  5
2E4
100
AcDbEntity
  8
ARMATUR
390
0
  6
DURCHGEHEND
 62
     1
100
AcDbLine
 10
92.883316
 20
102.425735
 30
0.0
 11
94.043472
 21
102.441933
 31
0.0
  0
LINE
  5
2E5
100
AcDbEntity
  8
ARMATUR
390
0
  6
DURCHGEHEND
 62
     1
100
AcDbLine
 10
91.02919
 20
102.399841
 30
0.0
 11
91.599396
 21
102.407806
 31
0.0
  0
LINE
  5
2E6
100
AcDbEntity
  8
ARMATUR
390
0
  6
DURCHGEHEND
 62
     1
100
AcDbLine
 10
88.860535
 20
113.109238
 30
0.0
 11
88.566818
 21
113.113327
 31
0.0
  0
LINE
  5
2E7
100
AcDbEntity
  8
ARMATUR
390
0
  6
DURCHGEHEND
 62
     1
100
AcDbLine
 10
94.240799
 20
102.657562
 30
0.0
 11
94.240799
 21
131.955688
 31
0.0
  0
LINE
  5
2E8
100
AcDbEntity
  8
ARMATUR
390
0
  6
DURCHGEHEND
 62
     1
100
AcDbLine
 10
87.978271
 20
102.821098
 30
0.0
 11
88.003281
 21
102.864395
 31
0.0
  0
LINE
  5
2E9
100
AcDbEntity
  8
ARMATUR
390
0
  6
DURCHGEHEND
 62
     1
100
AcDbLine
 10
88.003281
 20
112.614395
 30
0.0
 11
87.978271
 21
112.6577
 31
0.0
  0
LINE
  5
2EA
100
AcDbEntity
  8
ARMATUR
390
0
  6
DURCHGEHEND
 62
     1
100
AcDbLine
 10
88.490784
 20
112.426895
 30
0.0
 11
88.153275
 21
112.426895
 31
0.0
  0
LINE
  5
2EB
100
AcDbEntity
  8
ARMATUR
390
0
  6
DURCHGEHEND
 62
     1
100
AcDbLine
 10
88.153275
 20
103.051895
 30
0.0
 11
88.628281
 21
103.051895
 31
0.0
  0
LINE
  5
2EC
100
AcDbEntity
  8
ARMATUR
390
0
  6
DURCHGEHEND
 62
     1
100
AcDbLine
 10
66.978271
 20
119.089493
 30
0.0
 11
66.978271
 21
85.239395
 31
0.0
  0
LINE
  5
2ED
100
AcDbEntity
  8
ARMATUR
390
0
  6
DURCHGEHEND
 62
     1
100
AcDbLine
 10
79.478271
 20
113.48938
 30
0.0
 11
79.478271
 21
119.089493
 31
0.0
  0
LINE
  5
2EE
100
AcDbEntity
  8
ARMATUR
390
0
  6
DURCHGEHEND
 62
     1
100
AcDbLine
 10
79.478271
 20
85.239395
 30
0.0
 11
79.478271
 21
102.001846
 31
0.0
  0
LINE
  5
2EF
100
AcDbEntity
  8
ARMATUR
390
0
  6
DURCHGEHEND
 62
     1
100
AcDbLine
 10
79.843826
 20
102.364395
 30
0.0
 11
87.828384
 21
102.364395
 31
0.0
  0
LINE
  5
2F0
100
AcDbEntity
  8
ARMATUR
390
0
  6
DURCHGEHEND
 62
     1
100
AcDbLine
 10
87.828384
 20
113.114395
 30
0.0
 11
79.853226
 21
113.114395
 31
0.0
  0
LINE
  5
2F1
100
AcDbEntity
  8
ARMATUR
390
0
  6
DURCHGEHEND
 62
     1
100
AcDbLine
 10
77.320465
 20
160.111084
 30
0.0
 11
77.649353
 21
160.131409
 31
0.0
  0
LINE
  5
2F2
100
AcDbEntity
  8
ARMATUR
390
0
  6
DURCHGEHEND
 62
     1
100
AcDbLine
 10
77.790039
 20
160.267578
 30
0.0
 11
77.503952
 21
160.288666
 31
0.0
  0
LINE
  5
2F3
100
AcDbEntity
  8
ARMATUR
390
0
  6
DURCHGEHEND
 62
     1
100
AcDbLine
 10
77.503952
 20
160.288666
 30
0.0
 11
77.138229
 21
160.308197
 31
0.0
  0
LINE
  5
2F4
100
AcDbEntity
  8
ARMATUR
390
0
  6
DURCHGEHEND
 62
     1
100
AcDbLine
 10
77.138229
 20
160.308197
 30
0.0
 11
76.699661
 21
160.325836
 31
0.0
  0
LINE
  5
2F5
100
AcDbEntity
  8
ARMATUR
390
0
  6
DURCHGEHEND
 62
     1
100
AcDbLine
 10
76.699661
 20
160.325836
 30
0.0
 11
76.196426
 21
160.341217
 31
0.0
  0
LINE
  5
2F6
100
AcDbEntity
  8
ARMATUR
390
0
  6
DURCHGEHEND
 62
     1
100
AcDbLine
 10
76.196426
 20
160.341217
 30
0.0
 11
75.637909
 21
160.354034
 31
0.0
  0
LINE
  5
2F7
100
AcDbEntity
  8
ARMATUR
390
0
  6
DURCHGEHEND
 62
     1
100
AcDbLine
 10
75.637909
 20
160.354034
 30
0.0
 11
75.0345
 21
160.364105
 31
0.0
  0
LINE
  5
2F8
100
AcDbEntity
  8
ARMATUR
390
0
  6
DURCHGEHEND
 62
     1
100
AcDbLine
 10
75.0345
 20
160.364105
 30
0.0
 11
74.397446
 21
160.371216
 31
0.0
  0
LINE
  5
2F9
100
AcDbEntity
  8
ARMATUR
390
0
  6
DURCHGEHEND
 62
     1
100
AcDbLine
 10
74.397446
 20
160.371216
 30
0.0
 11
73.738602
 21
160.375214
 31
0.0
  0
LINE
  5
2FA
100
AcDbEntity
  8
ARMATUR
390
0
  6
DURCHGEHEND
 62
     1
100
AcDbLine
 10
73.070267
 20
160.376068
 30
0.0
 11
72.404861
 21
160.373718
 31
0.0
  0
LINE
  5
2FB
100
AcDbEntity
  8
ARMATUR
390
0
  6
DURCHGEHEND
 62
     1
100
AcDbLine
 10
72.404861
 20
160.373718
 30
0.0
 11
71.754807
 21
160.368225
 31
0.0
  0
LINE
  5
2FC
100
AcDbEntity
  8
ARMATUR
390
0
  6
DURCHGEHEND
 62
     1
100
AcDbLine
 10
71.754807
 20
160.368225
 30
0.0
 11
71.132187
 21
160.359711
 31
0.0
  0
LINE
  5
2FD
100
AcDbEntity
  8
ARMATUR
390
0
  6
DURCHGEHEND
 62
     1
100
AcDbLine
 10
71.132187
 20
160.359711
 30
0.0
 11
70.54863
 21
160.348297
 31
0.0
  0
LINE
  5
2FE
100
AcDbEntity
  8
ARMATUR
390
0
  6
DURCHGEHEND
 62
     1
100
AcDbLine
 10
70.54863
 20
160.348297
 30
0.0
 11
70.014984
 21
160.334229
 31
0.0
  0
LINE
  5
2FF
100
AcDbEntity
  8
ARMATUR
390
0
  6
DURCHGEHEND
 62
     1
100
AcDbLine
 10
70.014984
 20
160.334229
 30
0.0
 11
69.541183
 21
160.31778
 31
0.0
  0
LINE
  5
300
100
AcDbEntity
  8
ARMATUR
390
0
  6
DURCHGEHEND
 62
     1
100
AcDbLine
 10
69.541183
 20
160.31778
 30
0.0
 11
69.136078
 21
160.299194
 31
0.0
  0
LINE
  5
301
100
AcDbEntity
  8
ARMATUR
390
0
  6
DURCHGEHEND
 62
     1
100
AcDbLine
 10
76.853271
 20
160.090088
 30
0.0
 11
76.915359
 21
160.092499
 31
0.0
  0
LINE
  5
302
100
AcDbEntity
  8
ARMATUR
390
0
  6
DURCHGEHEND
 62
     1
100
AcDbLine
 10
76.915359
 20
160.092499
 30
0.0
 11
77.320465
 21
160.111084
 31
0.0
  0
LINE
  5
303
100
AcDbEntity
  8
ARMATUR
390
0
  6
DURCHGEHEND
 62
     1
100
AcDbLine
 10
69.603271
 20
160.132843
 30
0.0
 11
69.591721
 21
160.133575
 31
0.0
  0
LINE
  5
304
100
AcDbEntity
  8
ARMATUR
390
0
  6
DURCHGEHEND
 62
     1
100
AcDbLine
 10
69.591721
 20
160.133575
 30
0.0
 11
69.331863
 21
160.152802
 31
0.0
  0
LINE
  5
305
100
AcDbEntity
  8
ARMATUR
390
0
  6
DURCHGEHEND
 62
     1
100
AcDbLine
 10
69.331863
 20
160.152802
 30
0.0
 11
69.15506
 21
160.173157
 31
0.0
  0
LINE
  5
306
100
AcDbEntity
  8
ARMATUR
390
0
  6
DURCHGEHEND
 62
     1
100
AcDbLine
 10
69.15506
 20
160.173157
 30
0.0
 11
69.065048
 21
160.194214
 31
0.0
  0
LINE
  5
307
100
AcDbEntity
  8
ARMATUR
390
0
  6
DURCHGEHEND
 62
     1
100
AcDbLine
 10
69.065048
 20
160.194214
 30
0.0
 11
69.063782
 21
160.215485
 31
0.0
  0
LINE
  5
308
100
AcDbEntity
  8
ARMATUR
390
0
  6
DURCHGEHEND
 62
     1
100
AcDbLine
 10
69.063782
 20
160.215485
 30
0.0
 11
69.151276
 21
160.236511
 31
0.0
  0
LINE
  5
309
100
AcDbEntity
  8
ARMATUR
390
0
  6
DURCHGEHEND
 62
     1
100
AcDbLine
 10
69.151276
 20
160.236511
 30
0.0
 11
69.325668
 21
160.256897
 31
0.0
  0
LINE
  5
30A
100
AcDbEntity
  8
ARMATUR
390
0
  6
DURCHGEHEND
 62
     1
100
AcDbLine
 10
69.325668
 20
160.256897
 30
0.0
 11
69.583237
 21
160.276184
 31
0.0
  0
LINE
  5
30B
100
AcDbEntity
  8
ARMATUR
390
0
  6
DURCHGEHEND
 62
     1
100
AcDbLine
 10
69.583237
 20
160.276184
 30
0.0
 11
69.918488
 21
160.293945
 31
0.0
  0
LINE
  5
30C
100
AcDbEntity
  8
ARMATUR
390
0
  6
DURCHGEHEND
 62
     1
100
AcDbLine
 10
69.918488
 20
160.293945
 30
0.0
 11
70.32428
 21
160.309814
 31
0.0
  0
LINE
  5
30D
100
AcDbEntity
  8
ARMATUR
390
0
  6
DURCHGEHEND
 62
     1
100
AcDbLine
 10
70.32428
 20
160.309814
 30
0.0
 11
70.791962
 21
160.323456
 31
0.0
  0
LINE
  5
30E
100
AcDbEntity
  8
ARMATUR
390
0
  6
DURCHGEHEND
 62
     1
100
AcDbLine
 10
70.791962
 20
160.323456
 30
0.0
 11
71.311584
 21
160.334595
 31
0.0
  0
LINE
  5
30F
100
AcDbEntity
  8
ARMATUR
390
0
  6
DURCHGEHEND
 62
     1
100
AcDbLine
 10
71.311584
 20
160.334595
 30
0.0
 11
71.872055
 21
160.342957
 31
0.0
  0
LINE
  5
310
100
AcDbEntity
  8
ARMATUR
390
0
  6
DURCHGEHEND
 62
     1
100
AcDbLine
 10
71.872055
 20
160.342957
 30
0.0
 11
72.461426
 21
160.348358
 31
0.0
  0
LINE
  5
311
100
AcDbEntity
  8
ARMATUR
390
0
  6
DURCHGEHEND
 62
     1
100
AcDbLine
 10
72.461426
 20
160.348358
 30
0.0
 11
73.067139
 21
160.350739
 31
0.0
  0
LINE
  5
312
100
AcDbEntity
  8
ARMATUR
390
0
  6
DURCHGEHEND
 62
     1
100
AcDbLine
 10
73.676285
 20
160.350006
 30
0.0
 11
74.275879
 21
160.346191
 31
0.0
  0
LINE
  5
313
100
AcDbEntity
  8
ARMATUR
390
0
  6
DURCHGEHEND
 62
     1
100
AcDbLine
 10
74.275879
 20
160.346191
 30
0.0
 11
74.853165
 21
160.339355
 31
0.0
  0
LINE
  5
314
100
AcDbEntity
  8
ARMATUR
390
0
  6
DURCHGEHEND
 62
     1
100
AcDbLine
 10
74.853165
 20
160.339355
 30
0.0
 11
75.395798
 21
160.329681
 31
0.0
  0
LINE
  5
315
100
AcDbEntity
  8
ARMATUR
390
0
  6
DURCHGEHEND
 62
     1
100
AcDbLine
 10
75.395798
 20
160.329681
 30
0.0
 11
75.892242
 21
160.317322
 31
0.0
  0
LINE
  5
316
100
AcDbEntity
  8
ARMATUR
390
0
  6
DURCHGEHEND
 62
     1
100
AcDbLine
 10
75.892242
 20
160.317322
 30
0.0
 11
76.331909
 21
160.302612
 31
0.0
  0
LINE
  5
317
100
AcDbEntity
  8
ARMATUR
390
0
  6
DURCHGEHEND
 62
     1
100
AcDbLine
 10
76.331909
 20
160.302612
 30
0.0
 11
76.705429
 21
160.285797
 31
0.0
  0
LINE
  5
318
100
AcDbEntity
  8
ARMATUR
390
0
  6
DURCHGEHEND
 62
     1
100
AcDbLine
 10
76.705429
 20
160.285797
 30
0.0
 11
77.004837
 21
160.267273
 31
0.0
  0
LINE
  5
319
100
AcDbEntity
  8
ARMATUR
390
0
  6
DURCHGEHEND
 62
     1
100
AcDbLine
 10
77.004837
 20
160.267273
 30
0.0
 11
77.223755
 21
160.247406
 31
0.0
  0
LINE
  5
31A
100
AcDbEntity
  8
ARMATUR
390
0
  6
DURCHGEHEND
 62
     1
100
AcDbLine
 10
77.223755
 20
160.247406
 30
0.0
 11
77.357513
 21
160.226654
 31
0.0
  0
LINE
  5
31B
100
AcDbEntity
  8
ARMATUR
390
0
  6
DURCHGEHEND
 62
     1
100
AcDbLine
 10
77.357513
 20
160.226654
 30
0.0
 11
77.403259
 21
160.205444
 31
0.0
  0
LINE
  5
31C
100
AcDbEntity
  8
ARMATUR
390
0
  6
DURCHGEHEND
 62
     1
100
AcDbLine
 10
77.403259
 20
160.205444
 30
0.0
 11
77.360031
 21
160.184235
 31
0.0
  0
LINE
  5
31D
100
AcDbEntity
  8
ARMATUR
390
0
  6
DURCHGEHEND
 62
     1
100
AcDbLine
 10
77.360031
 20
160.184235
 30
0.0
 11
77.228745
 21
160.163452
 31
0.0
  0
LINE
  5
31E
100
AcDbEntity
  8
ARMATUR
390
0
  6
DURCHGEHEND
 62
     1
100
AcDbLine
 10
77.228745
 20
160.163452
 30
0.0
 11
77.012192
 21
160.143555
 31
0.0
  0
LINE
  5
31F
100
AcDbEntity
  8
ARMATUR
390
0
  6
DURCHGEHEND
 62
     1
100
AcDbLine
 10
77.012192
 20
160.143555
 30
0.0
 11
76.853271
 21
160.132843
 31
0.0
  0
LINE
  5
320
100
AcDbEntity
  8
ARMATUR
390
0
  6
DURCHGEHEND
 62
     1
100
AcDbLine
 10
73.838562
 20
160.345306
 30
0.0
 11
74.430359
 21
160.340576
 31
0.0
  0
LINE
  5
321
100
AcDbEntity
  8
ARMATUR
390
0
  6
DURCHGEHEND
 62
     1
100
AcDbLine
 10
74.430359
 20
160.340576
 30
0.0
 11
74.9953
 21
160.332794
 31
0.0
  0
LINE
  5
322
100
AcDbEntity
  8
ARMATUR
390
0
  6
DURCHGEHEND
 62
     1
100
AcDbLine
 10
74.9953
 20
160.332794
 30
0.0
 11
75.520767
 21
160.322174
 31
0.0
  0
LINE
  5
323
100
AcDbEntity
  8
ARMATUR
390
0
  6
DURCHGEHEND
 62
     1
100
AcDbLine
 10
75.520767
 20
160.322174
 30
0.0
 11
75.995041
 21
160.30896
 31
0.0
  0
LINE
  5
324
100
AcDbEntity
  8
ARMATUR
390
0
  6
DURCHGEHEND
 62
     1
100
AcDbLine
 10
75.995041
 20
160.30896
 30
0.0
 11
76.407486
 21
160.293396
 31
0.0
  0
LINE
  5
325
100
AcDbEntity
  8
ARMATUR
390
0
  6
DURCHGEHEND
 62
     1
100
AcDbLine
 10
76.407486
 20
160.293396
 30
0.0
 11
76.748932
 21
160.275879
 31
0.0
  0
LINE
  5
326
100
AcDbEntity
  8
ARMATUR
390
0
  6
DURCHGEHEND
 62
     1
100
AcDbLine
 10
76.748932
 20
160.275879
 30
0.0
 11
77.011719
 21
160.256775
 31
0.0
  0
LINE
  5
327
100
AcDbEntity
  8
ARMATUR
390
0
  6
DURCHGEHEND
 62
     1
100
AcDbLine
 10
77.011719
 20
160.256775
 30
0.0
 11
77.190002
 21
160.236511
 31
0.0
  0
LINE
  5
328
100
AcDbEntity
  8
ARMATUR
390
0
  6
DURCHGEHEND
 62
     1
100
AcDbLine
 10
77.190002
 20
160.236511
 30
0.0
 11
77.27977
 21
160.215576
 31
0.0
  0
LINE
  5
329
100
AcDbEntity
  8
ARMATUR
390
0
  6
DURCHGEHEND
 62
     1
100
AcDbLine
 10
77.27977
 20
160.215576
 30
0.0
 11
77.279053
 21
160.194366
 31
0.0
  0
LINE
  5
32A
100
AcDbEntity
  8
ARMATUR
390
0
  6
DURCHGEHEND
 62
     1
100
AcDbLine
 10
77.279053
 20
160.194366
 30
0.0
 11
77.187836
 21
160.173431
 31
0.0
  0
LINE
  5
32B
100
AcDbEntity
  8
ARMATUR
390
0
  6
DURCHGEHEND
 62
     1
100
AcDbLine
 10
77.187836
 20
160.173431
 30
0.0
 11
77.008179
 21
160.153198
 31
0.0
  0
LINE
  5
32C
100
AcDbEntity
  8
ARMATUR
390
0
  6
DURCHGEHEND
 62
     1
100
AcDbLine
 10
77.008179
 20
160.153198
 30
0.0
 11
76.853271
 21
160.141144
 31
0.0
  0
LINE
  5
32D
100
AcDbEntity
  8
ARMATUR
390
0
  6
DURCHGEHEND
 62
     1
100
AcDbLine
 10
69.603271
 20
160.141144
 30
0.0
 11
69.444824
 21
160.153503
 31
0.0
  0
LINE
  5
32E
100
AcDbEntity
  8
ARMATUR
390
0
  6
DURCHGEHEND
 62
     1
100
AcDbLine
 10
69.444824
 20
160.153503
 30
0.0
 11
69.266556
 21
160.173767
 31
0.0
  0
LINE
  5
32F
100
AcDbEntity
  8
ARMATUR
390
0
  6
DURCHGEHEND
 62
     1
100
AcDbLine
 10
69.266556
 20
160.173767
 30
0.0
 11
69.176773
 21
160.194702
 31
0.0
  0
LINE
  5
330
100
AcDbEntity
  8
ARMATUR
390
0
  6
DURCHGEHEND
 62
     1
100
AcDbLine
 10
69.176773
 20
160.194702
 30
0.0
 11
69.177505
 21
160.215912
 31
0.0
  0
LINE
  5
331
100
AcDbEntity
  8
ARMATUR
390
0
  6
DURCHGEHEND
 62
     1
100
AcDbLine
 10
69.177505
 20
160.215912
 30
0.0
 11
69.268707
 21
160.236847
 31
0.0
  0
LINE
  5
332
100
AcDbEntity
  8
ARMATUR
390
0
  6
DURCHGEHEND
 62
     1
100
AcDbLine
 10
69.268707
 20
160.236847
 30
0.0
 11
69.44838
 21
160.257111
 31
0.0
  0
LINE
  5
333
100
AcDbEntity
  8
ARMATUR
390
0
  6
DURCHGEHEND
 62
     1
100
AcDbLine
 10
69.44838
 20
160.257111
 30
0.0
 11
69.712479
 21
160.276184
 31
0.0
  0
LINE
  5
334
100
AcDbEntity
  8
ARMATUR
390
0
  6
DURCHGEHEND
 62
     1
100
AcDbLine
 10
69.712479
 20
160.276184
 30
0.0
 11
70.055115
 21
160.293671
 31
0.0
  0
LINE
  5
335
100
AcDbEntity
  8
ARMATUR
390
0
  6
DURCHGEHEND
 62
     1
100
AcDbLine
 10
70.055115
 20
160.293671
 30
0.0
 11
70.468628
 21
160.309174
 31
0.0
  0
LINE
  5
336
100
AcDbEntity
  8
ARMATUR
390
0
  6
DURCHGEHEND
 62
     1
100
AcDbLine
 10
70.468628
 20
160.309174
 30
0.0
 11
70.943802
 21
160.322388
 31
0.0
  0
LINE
  5
337
100
AcDbEntity
  8
ARMATUR
390
0
  6
DURCHGEHEND
 62
     1
100
AcDbLine
 10
70.943802
 20
160.322388
 30
0.0
 11
71.470001
 21
160.332947
 31
0.0
  0
LINE
  5
338
100
AcDbEntity
  8
ARMATUR
390
0
  6
DURCHGEHEND
 62
     1
100
AcDbLine
 10
71.470001
 20
160.332947
 30
0.0
 11
72.035477
 21
160.340668
 31
0.0
  0
LINE
  5
339
100
AcDbEntity
  8
ARMATUR
390
0
  6
DURCHGEHEND
 62
     1
100
AcDbLine
 10
72.035477
 20
160.340668
 30
0.0
 11
72.627594
 21
160.345367
 31
0.0
  0
LINE
  5
33A
100
AcDbEntity
  8
ARMATUR
390
0
  6
DURCHGEHEND
 62
     1
100
AcDbLine
 10
72.627594
 20
160.345367
 30
0.0
 11
73.233124
 21
160.346924
 31
0.0
  0
LINE
  5
33B
100
AcDbEntity
  8
ARMATUR
390
0
  6
DURCHGEHEND
 62
     1
100
AcDbLine
 10
73.799622
 20
160.330078
 30
0.0
 11
74.352585
 21
160.325409
 31
0.0
  0
LINE
  5
33C
100
AcDbEntity
  8
ARMATUR
390
0
  6
DURCHGEHEND
 62
     1
100
AcDbLine
 10
74.352585
 20
160.325409
 30
0.0
 11
74.877853
 21
160.31778
 31
0.0
  0
LINE
  5
33D
100
AcDbEntity
  8
ARMATUR
390
0
  6
DURCHGEHEND
 62
     1
100
AcDbLine
 10
74.877853
 20
160.31778
 30
0.0
 11
75.362503
 21
160.307404
 31
0.0
  0
LINE
  5
33E
100
AcDbEntity
  8
ARMATUR
390
0
  6
DURCHGEHEND
 62
     1
100
AcDbLine
 10
75.362503
 20
160.307404
 30
0.0
 11
75.794601
 21
160.294495
 31
0.0
  0
LINE
  5
33F
100
AcDbEntity
  8
ARMATUR
390
0
  6
DURCHGEHEND
 62
     1
100
AcDbLine
 10
75.794601
 20
160.294495
 30
0.0
 11
76.163513
 21
160.279388
 31
0.0
  0
LINE
  5
340
100
AcDbEntity
  8
ARMATUR
390
0
  6
DURCHGEHEND
 62
     1
100
AcDbLine
 10
76.163513
 20
160.279388
 30
0.0
 11
76.460144
 21
160.262451
 31
0.0
  0
LINE
  5
341
100
AcDbEntity
  8
ARMATUR
390
0
  6
DURCHGEHEND
 62
     1
100
AcDbLine
 10
76.460144
 20
160.262451
 30
0.0
 11
76.677185
 21
160.24408
 31
0.0
  0
LINE
  5
342
100
AcDbEntity
  8
ARMATUR
390
0
  6
DURCHGEHEND
 62
     1
100
AcDbLine
 10
76.677185
 20
160.24408
 30
0.0
 11
76.809326
 21
160.224792
 31
0.0
  0
LINE
  5
343
100
AcDbEntity
  8
ARMATUR
390
0
  6
DURCHGEHEND
 62
     1
100
AcDbLine
 10
76.809326
 20
160.224792
 30
0.0
 11
76.853271
 21
160.205139
 31
0.0
  0
LINE
  5
344
100
AcDbEntity
  8
ARMATUR
390
0
  6
DURCHGEHEND
 62
     1
100
AcDbLine
 10
69.603271
 20
160.205139
 30
0.0
 11
69.603271
 21
160.205292
 31
0.0
  0
LINE
  5
345
100
AcDbEntity
  8
ARMATUR
390
0
  6
DURCHGEHEND
 62
     1
100
AcDbLine
 10
69.603271
 20
160.205292
 30
0.0
 11
69.64859
 21
160.225067
 31
0.0
  0
LINE
  5
346
100
AcDbEntity
  8
ARMATUR
390
0
  6
DURCHGEHEND
 62
     1
100
AcDbLine
 10
69.64859
 20
160.225067
 30
0.0
 11
69.782043
 21
160.244385
 31
0.0
  0
LINE
  5
347
100
AcDbEntity
  8
ARMATUR
390
0
  6
DURCHGEHEND
 62
     1
100
AcDbLine
 10
69.782043
 20
160.244385
 30
0.0
 11
70.000351
 21
160.262695
 31
0.0
  0
LINE
  5
348
100
AcDbEntity
  8
ARMATUR
390
0
  6
DURCHGEHEND
 62
     1
100
AcDbLine
 10
70.000351
 20
160.262695
 30
0.0
 11
70.298141
 21
160.279633
 31
0.0
  0
LINE
  5
349
100
AcDbEntity
  8
ARMATUR
390
0
  6
DURCHGEHEND
 62
     1
100
AcDbLine
 10
70.298141
 20
160.279633
 30
0.0
 11
70.668076
 21
160.294708
 31
0.0
  0
LINE
  5
34A
100
AcDbEntity
  8
ARMATUR
390
0
  6
DURCHGEHEND
 62
     1
100
AcDbLine
 10
70.668076
 20
160.294708
 30
0.0
 11
71.101059
 21
160.307587
 31
0.0
  0
LINE
  5
34B
100
AcDbEntity
  8
ARMATUR
390
0
  6
DURCHGEHEND
 62
     1
100
AcDbLine
 10
71.101059
 20
160.307587
 30
0.0
 11
71.586426
 21
160.317932
 31
0.0
  0
LINE
  5
34C
100
AcDbEntity
  8
ARMATUR
390
0
  6
DURCHGEHEND
 62
     1
100
AcDbLine
 10
71.586426
 20
160.317932
 30
0.0
 11
72.112213
 21
160.3255
 31
0.0
  0
LINE
  5
34D
100
AcDbEntity
  8
ARMATUR
390
0
  6
DURCHGEHEND
 62
     1
100
AcDbLine
 10
72.112213
 20
160.3255
 30
0.0
 11
72.665482
 21
160.330109
 31
0.0
  0
LINE
  5
34E
100
AcDbEntity
  8
ARMATUR
390
0
  6
DURCHGEHEND
 62
     1
100
AcDbLine
 10
72.665482
 20
160.330109
 30
0.0
 11
73.232605
 21
160.331665
 31
0.0
  0
LINE
  5
34F
100
AcDbEntity
  8
ARMATUR
390
0
  6
DURCHGEHEND
 62
     1
100
AcDbLine
 10
73.2323
 20
158.823853
 30
0.0
 11
73.787766
 21
158.822205
 31
0.0
  0
LINE
  5
350
100
AcDbEntity
  8
ARMATUR
390
0
  6
DURCHGEHEND
 62
     1
100
AcDbLine
 10
73.787766
 20
158.822205
 30
0.0
 11
74.327957
 21
158.817413
 31
0.0
  0
LINE
  5
351
100
AcDbEntity
  8
ARMATUR
390
0
  6
DURCHGEHEND
 62
     1
100
AcDbLine
 10
74.327957
 20
158.817413
 30
0.0
 11
74.83815
 21
158.80957
 31
0.0
  0
LINE
  5
352
100
AcDbEntity
  8
ARMATUR
390
0
  6
DURCHGEHEND
 62
     1
100
AcDbLine
 10
74.83815
 20
158.80957
 30
0.0
 11
75.304428
 21
158.79892
 31
0.0
  0
LINE
  5
353
100
AcDbEntity
  8
ARMATUR
390
0
  6
DURCHGEHEND
 62
     1
100
AcDbLine
 10
75.304428
 20
158.79892
 30
0.0
 11
75.714081
 21
158.785736
 31
0.0
  0
LINE
  5
354
100
AcDbEntity
  8
ARMATUR
390
0
  6
DURCHGEHEND
 62
     1
100
AcDbLine
 10
75.714081
 20
158.785736
 30
0.0
 11
76.055923
 21
158.770355
 31
0.0
  0
LINE
  5
355
100
AcDbEntity
  8
ARMATUR
390
0
  6
DURCHGEHEND
 62
     1
100
AcDbLine
 10
76.055923
 20
158.770355
 30
0.0
 11
76.320633
 21
158.753235
 31
0.0
  0
LINE
  5
356
100
AcDbEntity
  8
ARMATUR
390
0
  6
DURCHGEHEND
 62
     1
100
AcDbLine
 10
76.320633
 20
158.753235
 30
0.0
 11
76.500992
 21
158.734833
 31
0.0
  0
LINE
  5
357
100
AcDbEntity
  8
ARMATUR
390
0
  6
DURCHGEHEND
 62
     1
100
AcDbLine
 10
76.500992
 20
158.734833
 30
0.0
 11
76.592072
 21
158.715637
 31
0.0
  0
LINE
  5
358
100
AcDbEntity
  8
ARMATUR
390
0
  6
DURCHGEHEND
 62
     1
100
AcDbLine
 10
76.592072
 20
158.715637
 30
0.0
 11
76.595993
 21
158.713776
 31
0.0
  0
LINE
  5
359
100
AcDbEntity
  8
ARMATUR
390
0
  6
DURCHGEHEND
 62
     1
100
AcDbLine
 10
76.543869
 20
158.684052
 30
0.0
 11
76.499008
 21
158.677002
 31
0.0
  0
LINE
  5
35A
100
AcDbEntity
  8
ARMATUR
390
0
  6
DURCHGEHEND
 62
     1
100
AcDbLine
 10
76.499008
 20
158.677002
 30
0.0
 11
76.317383
 21
158.6586
 31
0.0
  0
LINE
  5
35B
100
AcDbEntity
  8
ARMATUR
390
0
  6
DURCHGEHEND
 62
     1
100
AcDbLine
 10
76.317383
 20
158.6586
 30
0.0
 11
76.228271
 21
158.6521
 31
0.0
  0
LINE
  5
35C
100
AcDbEntity
  8
ARMATUR
390
0
  6
DURCHGEHEND
 62
     1
100
AcDbLine
 10
70.228271
 20
158.6521
 30
0.0
 11
70.135925
 21
158.658875
 31
0.0
  0
LINE
  5
35D
100
AcDbEntity
  8
ARMATUR
390
0
  6
DURCHGEHEND
 62
     1
100
AcDbLine
 10
70.135925
 20
158.658875
 30
0.0
 11
69.955566
 21
158.677277
 31
0.0
  0
LINE
  5
35E
100
AcDbEntity
  8
ARMATUR
390
0
  6
DURCHGEHEND
 62
     1
100
AcDbLine
 10
69.955566
 20
158.677277
 30
0.0
 11
69.887131
 21
158.689423
 31
0.0
  0
LINE
  5
35F
100
AcDbEntity
  8
ARMATUR
390
0
  6
DURCHGEHEND
 62
     1
100
AcDbLine
 10
69.862106
 20
158.714569
 30
0.0
 11
69.865143
 21
158.715912
 31
0.0
  0
LINE
  5
360
100
AcDbEntity
  8
ARMATUR
390
0
  6
DURCHGEHEND
 62
     1
100
AcDbLine
 10
69.865143
 20
158.715912
 30
0.0
 11
69.957535
 21
158.735107
 31
0.0
  0
LINE
  5
361
100
AcDbEntity
  8
ARMATUR
390
0
  6
DURCHGEHEND
 62
     1
100
AcDbLine
 10
69.957535
 20
158.735107
 30
0.0
 11
70.13916
 21
158.75351
 31
0.0
  0
LINE
  5
362
100
AcDbEntity
  8
ARMATUR
390
0
  6
DURCHGEHEND
 62
     1
100
AcDbLine
 10
70.13916
 20
158.75351
 30
0.0
 11
70.405045
 21
158.770599
 31
0.0
  0
LINE
  5
363
100
AcDbEntity
  8
ARMATUR
390
0
  6
DURCHGEHEND
 62
     1
100
AcDbLine
 10
70.405045
 20
158.770599
 30
0.0
 11
70.74794
 21
158.785919
 31
0.0
  0
LINE
  5
364
100
AcDbEntity
  8
ARMATUR
390
0
  6
DURCHGEHEND
 62
     1
100
AcDbLine
 10
70.74794
 20
158.785919
 30
0.0
 11
71.158493
 21
158.799103
 31
0.0
  0
LINE
  5
365
100
AcDbEntity
  8
ARMATUR
390
0
  6
DURCHGEHEND
 62
     1
100
AcDbLine
 10
71.158493
 20
158.799103
 30
0.0
 11
71.625504
 21
158.809723
 31
0.0
  0
LINE
  5
366
100
AcDbEntity
  8
ARMATUR
390
0
  6
DURCHGEHEND
 62
     1
100
AcDbLine
 10
71.625504
 20
158.809723
 30
0.0
 11
72.13623
 21
158.817505
 31
0.0
  0
LINE
  5
367
100
AcDbEntity
  8
ARMATUR
390
0
  6
DURCHGEHEND
 62
     1
100
AcDbLine
 10
72.13623
 20
158.817505
 30
0.0
 11
72.676743
 21
158.822266
 31
0.0
  0
LINE
  5
368
100
AcDbEntity
  8
ARMATUR
390
0
  6
DURCHGEHEND
 62
     1
100
AcDbLine
 10
72.676743
 20
158.822266
 30
0.0
 11
73.2323
 21
158.823853
 31
0.0
  0
LINE
  5
369
100
AcDbEntity
  8
ARMATUR
390
0
  6
DURCHGEHEND
 62
     1
100
AcDbLine
 10
73.231857
 20
158.81076
 30
0.0
 11
73.752747
 21
158.809143
 31
0.0
  0
LINE
  5
36A
100
AcDbEntity
  8
ARMATUR
390
0
  6
DURCHGEHEND
 62
     1
100
AcDbLine
 10
73.752747
 20
158.809143
 30
0.0
 11
74.257706
 21
158.804382
 31
0.0
  0
LINE
  5
36B
100
AcDbEntity
  8
ARMATUR
390
0
  6
DURCHGEHEND
 62
     1
100
AcDbLine
 10
74.257706
 20
158.804382
 30
0.0
 11
74.731384
 21
158.796661
 31
0.0
  0
LINE
  5
36C
100
AcDbEntity
  8
ARMATUR
390
0
  6
DURCHGEHEND
 62
     1
100
AcDbLine
 10
74.731384
 20
158.796661
 30
0.0
 11
75.159378
 21
158.786163
 31
0.0
  0
LINE
  5
36D
100
AcDbEntity
  8
ARMATUR
390
0
  6
DURCHGEHEND
 62
     1
100
AcDbLine
 10
75.159378
 20
158.786163
 30
0.0
 11
75.528717
 21
158.773254
 31
0.0
  0
LINE
  5
36E
100
AcDbEntity
  8
ARMATUR
390
0
  6
DURCHGEHEND
 62
     1
100
AcDbLine
 10
75.528717
 20
158.773254
 30
0.0
 11
75.82814
 21
158.758301
 31
0.0
  0
LINE
  5
36F
100
AcDbEntity
  8
ARMATUR
390
0
  6
DURCHGEHEND
 62
     1
100
AcDbLine
 10
75.82814
 20
158.758301
 30
0.0
 11
76.048584
 21
158.74176
 31
0.0
  0
LINE
  5
370
100
AcDbEntity
  8
ARMATUR
390
0
  6
DURCHGEHEND
 62
     1
100
AcDbLine
 10
76.048584
 20
158.74176
 30
0.0
 11
76.183319
 21
158.724121
 31
0.0
  0
LINE
  5
371
100
AcDbEntity
  8
ARMATUR
390
0
  6
DURCHGEHEND
 62
     1
100
AcDbLine
 10
76.183319
 20
158.724121
 30
0.0
 11
76.228271
 21
158.706055
 31
0.0
  0
LINE
  5
372
100
AcDbEntity
  8
ARMATUR
390
0
  6
DURCHGEHEND
 62
     1
100
AcDbLine
 10
70.228271
 20
158.706055
 30
0.0
 11
70.228271
 21
158.706177
 31
0.0
  0
LINE
  5
373
100
AcDbEntity
  8
ARMATUR
390
0
  6
DURCHGEHEND
 62
     1
100
AcDbLine
 10
70.228271
 20
158.706177
 30
0.0
 11
70.274475
 21
158.724365
 31
0.0
  0
LINE
  5
374
100
AcDbEntity
  8
ARMATUR
390
0
  6
DURCHGEHEND
 62
     1
100
AcDbLine
 10
70.274475
 20
158.724365
 30
0.0
 11
70.410431
 21
158.741974
 31
0.0
  0
LINE
  5
375
100
AcDbEntity
  8
ARMATUR
390
0
  6
DURCHGEHEND
 62
     1
100
AcDbLine
 10
70.410431
 20
158.741974
 30
0.0
 11
70.631989
 21
158.758514
 31
0.0
  0
LINE
  5
376
100
AcDbEntity
  8
ARMATUR
390
0
  6
DURCHGEHEND
 62
     1
100
AcDbLine
 10
70.631989
 20
158.758514
 30
0.0
 11
70.932449
 21
158.773438
 31
0.0
  0
LINE
  5
377
100
AcDbEntity
  8
ARMATUR
390
0
  6
DURCHGEHEND
 62
     1
100
AcDbLine
 10
70.932449
 20
158.773438
 30
0.0
 11
71.302658
 21
158.786346
 31
0.0
  0
LINE
  5
378
100
AcDbEntity
  8
ARMATUR
390
0
  6
DURCHGEHEND
 62
     1
100
AcDbLine
 10
71.302658
 20
158.786346
 30
0.0
 11
71.731384
 21
158.796783
 31
0.0
  0
LINE
  5
379
100
AcDbEntity
  8
ARMATUR
390
0
  6
DURCHGEHEND
 62
     1
100
AcDbLine
 10
71.731384
 20
158.796783
 30
0.0
 11
72.205582
 21
158.804474
 31
0.0
  0
LINE
  5
37A
100
AcDbEntity
  8
ARMATUR
390
0
  6
DURCHGEHEND
 62
     1
100
AcDbLine
 10
72.205582
 20
158.804474
 30
0.0
 11
72.710861
 21
158.809174
 31
0.0
  0
LINE
  5
37B
100
AcDbEntity
  8
ARMATUR
390
0
  6
DURCHGEHEND
 62
     1
100
AcDbLine
 10
72.710861
 20
158.809174
 30
0.0
 11
73.231857
 21
158.81076
 31
0.0
  0
LINE
  5
37C
100
AcDbEntity
  8
ARMATUR
390
0
  6
DURCHGEHEND
 62
     1
100
AcDbLine
 10
73.231857
 20
158.560913
 30
0.0
 11
73.752747
 21
158.559296
 31
0.0
  0
LINE
  5
37D
100
AcDbEntity
  8
ARMATUR
390
0
  6
DURCHGEHEND
 62
     1
100
AcDbLine
 10
73.752747
 20
158.559296
 30
0.0
 11
74.257706
 21
158.554535
 31
0.0
  0
LINE
  5
37E
100
AcDbEntity
  8
ARMATUR
390
0
  6
DURCHGEHEND
 62
     1
100
AcDbLine
 10
74.257706
 20
158.554535
 30
0.0
 11
74.731384
 21
158.546814
 31
0.0
  0
LINE
  5
37F
100
AcDbEntity
  8
ARMATUR
390
0
  6
DURCHGEHEND
 62
     1
100
AcDbLine
 10
74.731384
 20
158.546814
 30
0.0
 11
75.159378
 21
158.536316
 31
0.0
  0
LINE
  5
380
100
AcDbEntity
  8
ARMATUR
390
0
  6
DURCHGEHEND
 62
     1
100
AcDbLine
 10
75.159378
 20
158.536316
 30
0.0
 11
75.528717
 21
158.523407
 31
0.0
  0
LINE
  5
381
100
AcDbEntity
  8
ARMATUR
390
0
  6
DURCHGEHEND
 62
     1
100
AcDbLine
 10
75.528717
 20
158.523407
 30
0.0
 11
75.82814
 21
158.508453
 31
0.0
  0
LINE
  5
382
100
AcDbEntity
  8
ARMATUR
390
0
  6
DURCHGEHEND
 62
     1
100
AcDbLine
 10
75.82814
 20
158.508453
 30
0.0
 11
76.048584
 21
158.491882
 31
0.0
  0
LINE
  5
383
100
AcDbEntity
  8
ARMATUR
390
0
  6
DURCHGEHEND
 62
     1
100
AcDbLine
 10
76.048584
 20
158.491882
 30
0.0
 11
76.183319
 21
158.474274
 31
0.0
  0
LINE
  5
384
100
AcDbEntity
  8
ARMATUR
390
0
  6
DURCHGEHEND
 62
     1
100
AcDbLine
 10
76.183319
 20
158.474274
 30
0.0
 11
76.228271
 21
158.456085
 31
0.0
  0
LINE
  5
385
100
AcDbEntity
  8
ARMATUR
390
0
  6
DURCHGEHEND
 62
     1
100
AcDbLine
 10
76.228271
 20
158.456085
 30
0.0
 11
76.182068
 21
158.437897
 31
0.0
  0
LINE
  5
386
100
AcDbEntity
  8
ARMATUR
390
0
  6
DURCHGEHEND
 62
     1
100
AcDbLine
 10
76.182068
 20
158.437897
 30
0.0
 11
76.046127
 21
158.420288
 31
0.0
  0
LINE
  5
387
100
AcDbEntity
  8
ARMATUR
390
0
  6
DURCHGEHEND
 62
     1
100
AcDbLine
 10
76.046127
 20
158.420288
 30
0.0
 11
75.824554
 21
158.403748
 31
0.0
  0
LINE
  5
388
100
AcDbEntity
  8
ARMATUR
390
0
  6
DURCHGEHEND
 62
     1
100
AcDbLine
 10
75.824554
 20
158.403748
 30
0.0
 11
75.524109
 21
158.388824
 31
0.0
  0
LINE
  5
389
100
AcDbEntity
  8
ARMATUR
390
0
  6
DURCHGEHEND
 62
     1
100
AcDbLine
 10
75.524109
 20
158.388824
 30
0.0
 11
75.153885
 21
158.375916
 31
0.0
  0
LINE
  5
38A
100
AcDbEntity
  8
ARMATUR
390
0
  6
DURCHGEHEND
 62
     1
100
AcDbLine
 10
75.153885
 20
158.375916
 30
0.0
 11
74.725174
 21
158.365479
 31
0.0
  0
LINE
  5
38B
100
AcDbEntity
  8
ARMATUR
390
0
  6
DURCHGEHEND
 62
     1
100
AcDbLine
 10
74.725174
 20
158.365479
 30
0.0
 11
74.250961
 21
158.357788
 31
0.0
  0
LINE
  5
38C
100
AcDbEntity
  8
ARMATUR
390
0
  6
DURCHGEHEND
 62
     1
100
AcDbLine
 10
74.250961
 20
158.357788
 30
0.0
 11
73.745697
 21
158.353088
 31
0.0
  0
LINE
  5
38D
100
AcDbEntity
  8
ARMATUR
390
0
  6
DURCHGEHEND
 62
     1
100
AcDbLine
 10
73.745697
 20
158.353088
 30
0.0
 11
73.224686
 21
158.351501
 31
0.0
  0
LINE
  5
38E
100
AcDbEntity
  8
ARMATUR
390
0
  6
DURCHGEHEND
 62
     1
100
AcDbLine
 10
73.224686
 20
158.351501
 30
0.0
 11
72.703796
 21
158.353119
 31
0.0
  0
LINE
  5
38F
100
AcDbEntity
  8
ARMATUR
390
0
  6
DURCHGEHEND
 62
     1
100
AcDbLine
 10
72.703796
 20
158.353119
 30
0.0
 11
72.198853
 21
158.35788
 31
0.0
  0
LINE
  5
390
100
AcDbEntity
  8
ARMATUR
390
0
  6
DURCHGEHEND
 62
     1
100
AcDbLine
 10
72.198853
 20
158.35788
 30
0.0
 11
71.725174
 21
158.365601
 31
0.0
  0
LINE
  5
391
100
AcDbEntity
  8
ARMATUR
390
0
  6
DURCHGEHEND
 62
     1
100
AcDbLine
 10
71.725174
 20
158.365601
 30
0.0
 11
71.297165
 21
158.376068
 31
0.0
  0
LINE
  5
392
100
AcDbEntity
  8
ARMATUR
390
0
  6
DURCHGEHEND
 62
     1
100
AcDbLine
 10
71.297165
 20
158.376068
 30
0.0
 11
70.927841
 21
158.389008
 31
0.0
  0
LINE
  5
393
100
AcDbEntity
  8
ARMATUR
390
0
  6
DURCHGEHEND
 62
     1
100
AcDbLine
 10
70.927841
 20
158.389008
 30
0.0
 11
70.628403
 21
158.403961
 31
0.0
  0
LINE
  5
394
100
AcDbEntity
  8
ARMATUR
390
0
  6
DURCHGEHEND
 62
     1
100
AcDbLine
 10
70.628403
 20
158.403961
 30
0.0
 11
70.407974
 21
158.420502
 31
0.0
  0
LINE
  5
395
100
AcDbEntity
  8
ARMATUR
390
0
  6
DURCHGEHEND
 62
     1
100
AcDbLine
 10
70.407974
 20
158.420502
 30
0.0
 11
70.273224
 21
158.438141
 31
0.0
  0
LINE
  5
396
100
AcDbEntity
  8
ARMATUR
390
0
  6
DURCHGEHEND
 62
     1
100
AcDbLine
 10
70.273224
 20
158.438141
 30
0.0
 11
70.228271
 21
158.456329
 31
0.0
  0
LINE
  5
397
100
AcDbEntity
  8
ARMATUR
390
0
  6
DURCHGEHEND
 62
     1
100
AcDbLine
 10
70.228271
 20
158.456329
 30
0.0
 11
70.274475
 21
158.474518
 31
0.0
  0
LINE
  5
398
100
AcDbEntity
  8
ARMATUR
390
0
  6
DURCHGEHEND
 62
     1
100
AcDbLine
 10
70.274475
 20
158.474518
 30
0.0
 11
70.410431
 21
158.492126
 31
0.0
  0
LINE
  5
399
100
AcDbEntity
  8
ARMATUR
390
0
  6
DURCHGEHEND
 62
     1
100
AcDbLine
 10
70.410431
 20
158.492126
 30
0.0
 11
70.631989
 21
158.508667
 31
0.0
  0
LINE
  5
39A
100
AcDbEntity
  8
ARMATUR
390
0
  6
DURCHGEHEND
 62
     1
100
AcDbLine
 10
70.631989
 20
158.508667
 30
0.0
 11
70.932449
 21
158.52359
 31
0.0
  0
LINE
  5
39B
100
AcDbEntity
  8
ARMATUR
390
0
  6
DURCHGEHEND
 62
     1
100
AcDbLine
 10
70.932449
 20
158.52359
 30
0.0
 11
71.302658
 21
158.536499
 31
0.0
  0
LINE
  5
39C
100
AcDbEntity
  8
ARMATUR
390
0
  6
DURCHGEHEND
 62
     1
100
AcDbLine
 10
71.302658
 20
158.536499
 30
0.0
 11
71.731384
 21
158.546936
 31
0.0
  0
LINE
  5
39D
100
AcDbEntity
  8
ARMATUR
390
0
  6
DURCHGEHEND
 62
     1
100
AcDbLine
 10
71.731384
 20
158.546936
 30
0.0
 11
72.205582
 21
158.554626
 31
0.0
  0
LINE
  5
39E
100
AcDbEntity
  8
ARMATUR
390
0
  6
DURCHGEHEND
 62
     1
100
AcDbLine
 10
72.205582
 20
158.554626
 30
0.0
 11
72.710861
 21
158.559326
 31
0.0
  0
LINE
  5
39F
100
AcDbEntity
  8
ARMATUR
390
0
  6
DURCHGEHEND
 62
     1
100
AcDbLine
 10
72.710861
 20
158.559326
 30
0.0
 11
73.231857
 21
158.560913
 31
0.0
  0
LINE
  5
3A0
100
AcDbEntity
  8
ARMATUR
390
0
  6
DURCHGEHEND
 62
     1
100
AcDbLine
 10
73.230667
 20
158.526001
 30
0.0
 11
73.660553
 21
158.524353
 31
0.0
  0
LINE
  5
3A1
100
AcDbEntity
  8
ARMATUR
390
0
  6
DURCHGEHEND
 62
     1
100
AcDbLine
 10
73.660553
 20
158.524353
 30
0.0
 11
74.070221
 21
158.519531
 31
0.0
  0
LINE
  5
3A2
100
AcDbEntity
  8
ARMATUR
390
0
  6
DURCHGEHEND
 62
     1
100
AcDbLine
 10
74.070221
 20
158.519531
 30
0.0
 11
74.440521
 21
158.511719
 31
0.0
  0
LINE
  5
3A3
100
AcDbEntity
  8
ARMATUR
390
0
  6
DURCHGEHEND
 62
     1
100
AcDbLine
 10
74.440521
 20
158.511719
 30
0.0
 11
74.75415
 21
158.501343
 31
0.0
  0
LINE
  5
3A4
100
AcDbEntity
  8
ARMATUR
390
0
  6
DURCHGEHEND
 62
     1
100
AcDbLine
 10
74.75415
 20
158.501343
 30
0.0
 11
74.996414
 21
158.488831
 31
0.0
  0
LINE
  5
3A5
100
AcDbEntity
  8
ARMATUR
390
0
  6
DURCHGEHEND
 62
     1
100
AcDbLine
 10
74.996414
 20
158.488831
 30
0.0
 11
75.156021
 21
158.474792
 31
0.0
  0
LINE
  5
3A6
100
AcDbEntity
  8
ARMATUR
390
0
  6
DURCHGEHEND
 62
     1
100
AcDbLine
 10
75.156021
 20
158.474792
 30
0.0
 11
75.225464
 21
158.4599
 31
0.0
  0
LINE
  5
3A7
100
AcDbEntity
  8
ARMATUR
390
0
  6
DURCHGEHEND
 62
     1
100
AcDbLine
 10
75.225464
 20
158.4599
 30
0.0
 11
75.201538
 21
158.444824
 31
0.0
  0
LINE
  5
3A8
100
AcDbEntity
  8
ARMATUR
390
0
  6
DURCHGEHEND
 62
     1
100
AcDbLine
 10
75.201538
 20
158.444824
 30
0.0
 11
75.085342
 21
158.430298
 31
0.0
  0
LINE
  5
3A9
100
AcDbEntity
  8
ARMATUR
390
0
  6
DURCHGEHEND
 62
     1
100
AcDbLine
 10
75.085342
 20
158.430298
 30
0.0
 11
74.882309
 21
158.416962
 31
0.0
  0
LINE
  5
3AA
100
AcDbEntity
  8
ARMATUR
390
0
  6
DURCHGEHEND
 62
     1
100
AcDbLine
 10
74.882309
 20
158.416962
 30
0.0
 11
74.601944
 21
158.405487
 31
0.0
  0
LINE
  5
3AB
100
AcDbEntity
  8
ARMATUR
390
0
  6
DURCHGEHEND
 62
     1
100
AcDbLine
 10
74.601944
 20
158.405487
 30
0.0
 11
74.257339
 21
158.396362
 31
0.0
  0
LINE
  5
3AC
100
AcDbEntity
  8
ARMATUR
390
0
  6
DURCHGEHEND
 62
     1
100
AcDbLine
 10
74.257339
 20
158.396362
 30
0.0
 11
73.864609
 21
158.390045
 31
0.0
  0
LINE
  5
3AD
100
AcDbEntity
  8
ARMATUR
390
0
  6
DURCHGEHEND
 62
     1
100
AcDbLine
 10
73.864609
 20
158.390045
 30
0.0
 11
73.442139
 21
158.38681
 31
0.0
  0
LINE
  5
3AE
100
AcDbEntity
  8
ARMATUR
390
0
  6
DURCHGEHEND
 62
     1
100
AcDbLine
 10
73.442139
 20
158.38681
 30
0.0
 11
73.009659
 21
158.38681
 31
0.0
  0
LINE
  5
3AF
100
AcDbEntity
  8
ARMATUR
390
0
  6
DURCHGEHEND
 62
     1
100
AcDbLine
 10
73.009659
 20
158.38681
 30
0.0
 11
72.587402
 21
158.390076
 31
0.0
  0
LINE
  5
3B0
100
AcDbEntity
  8
ARMATUR
390
0
  6
DURCHGEHEND
 62
     1
100
AcDbLine
 10
72.587402
 20
158.390076
 30
0.0
 11
72.195114
 21
158.396454
 31
0.0
  0
LINE
  5
3B1
100
AcDbEntity
  8
ARMATUR
390
0
  6
DURCHGEHEND
 62
     1
100
AcDbLine
 10
72.195114
 20
158.396454
 30
0.0
 11
71.851135
 21
158.405579
 31
0.0
  0
LINE
  5
3B2
100
AcDbEntity
  8
ARMATUR
390
0
  6
DURCHGEHEND
 62
     1
100
AcDbLine
 10
71.851135
 20
158.405579
 30
0.0
 11
71.571564
 21
158.417114
 31
0.0
  0
LINE
  5
3B3
100
AcDbEntity
  8
ARMATUR
390
0
  6
DURCHGEHEND
 62
     1
100
AcDbLine
 10
71.571564
 20
158.417114
 30
0.0
 11
71.369446
 21
158.43045
 31
0.0
  0
LINE
  5
3B4
100
AcDbEntity
  8
ARMATUR
390
0
  6
DURCHGEHEND
 62
     1
100
AcDbLine
 10
71.369446
 20
158.43045
 30
0.0
 11
71.254242
 21
158.445007
 31
0.0
  0
LINE
  5
3B5
100
AcDbEntity
  8
ARMATUR
390
0
  6
DURCHGEHEND
 62
     1
100
AcDbLine
 10
71.254242
 20
158.445007
 30
0.0
 11
71.231339
 21
158.460083
 31
0.0
  0
LINE
  5
3B6
100
AcDbEntity
  8
ARMATUR
390
0
  6
DURCHGEHEND
 62
     1
100
AcDbLine
 10
71.231339
 20
158.460083
 30
0.0
 11
71.301819
 21
158.474945
 31
0.0
  0
LINE
  5
3B7
100
AcDbEntity
  8
ARMATUR
390
0
  6
DURCHGEHEND
 62
     1
100
AcDbLine
 10
71.301819
 20
158.474945
 30
0.0
 11
71.462372
 21
158.488983
 31
0.0
  0
LINE
  5
3B8
100
AcDbEntity
  8
ARMATUR
390
0
  6
DURCHGEHEND
 62
     1
100
AcDbLine
 10
71.462372
 20
158.488983
 30
0.0
 11
71.705505
 21
158.501465
 31
0.0
  0
LINE
  5
3B9
100
AcDbEntity
  8
ARMATUR
390
0
  6
DURCHGEHEND
 62
     1
100
AcDbLine
 10
71.705505
 20
158.501465
 30
0.0
 11
72.019836
 21
158.51181
 31
0.0
  0
LINE
  5
3BA
100
AcDbEntity
  8
ARMATUR
390
0
  6
DURCHGEHEND
 62
     1
100
AcDbLine
 10
72.019836
 20
158.51181
 30
0.0
 11
72.390671
 21
158.519592
 31
0.0
  0
LINE
  5
3BB
100
AcDbEntity
  8
ARMATUR
390
0
  6
DURCHGEHEND
 62
     1
100
AcDbLine
 10
72.390671
 20
158.519592
 30
0.0
 11
72.800674
 21
158.524384
 31
0.0
  0
LINE
  5
3BC
100
AcDbEntity
  8
ARMATUR
390
0
  6
DURCHGEHEND
 62
     1
100
AcDbLine
 10
72.800674
 20
158.524384
 30
0.0
 11
73.230667
 21
158.526001
 31
0.0
  0
LINE
  5
3BD
100
AcDbEntity
  8
ARMATUR
390
0
  6
DURCHGEHEND
 62
     1
100
AcDbLine
 10
76.853271
 20
160.073822
 30
0.0
 11
76.922913
 21
160.076202
 31
0.0
  0
LINE
  5
3BE
100
AcDbEntity
  8
ARMATUR
390
0
  6
DURCHGEHEND
 62
     1
100
AcDbLine
 10
76.922913
 20
160.076202
 30
0.0
 11
77.37355
 21
160.094147
 31
0.0
  0
LINE
  5
3BF
100
AcDbEntity
  8
ARMATUR
390
0
  6
DURCHGEHEND
 62
     1
100
AcDbLine
 10
77.37355
 20
160.094147
 30
0.0
 11
77.753265
 21
160.113953
 31
0.0
  0
LINE
  5
3C0
100
AcDbEntity
  8
ARMATUR
390
0
  6
DURCHGEHEND
 62
     1
100
AcDbLine
 10
77.753265
 20
160.113953
 30
0.0
 11
78.055542
 21
160.135345
 31
0.0
  0
LINE
  5
3C1
100
AcDbEntity
  8
ARMATUR
390
0
  6
DURCHGEHEND
 62
     1
100
AcDbLine
 10
78.055542
 20
160.135345
 30
0.0
 11
78.275238
 21
160.157959
 31
0.0
  0
LINE
  5
3C2
100
AcDbEntity
  8
ARMATUR
390
0
  6
DURCHGEHEND
 62
     1
100
AcDbLine
 10
78.275238
 20
160.157959
 30
0.0
 11
78.408569
 21
160.181335
 31
0.0
  0
LINE
  5
3C3
100
AcDbEntity
  8
ARMATUR
390
0
  6
DURCHGEHEND
 62
     1
100
AcDbLine
 10
78.408569
 20
160.181335
 30
0.0
 11
78.424774
 21
160.186127
 31
0.0
  0
LINE
  5
3C4
100
AcDbEntity
  8
ARMATUR
390
0
  6
DURCHGEHEND
 62
     1
100
AcDbLine
 10
78.449203
 20
160.212341
 30
0.0
 11
78.408569
 21
160.228943
 31
0.0
  0
LINE
  5
3C5
100
AcDbEntity
  8
ARMATUR
390
0
  6
DURCHGEHEND
 62
     1
100
AcDbLine
 10
78.408569
 20
160.228943
 30
0.0
 11
78.275238
 21
160.25235
 31
0.0
  0
LINE
  5
3C6
100
AcDbEntity
  8
ARMATUR
390
0
  6
DURCHGEHEND
 62
     1
100
AcDbLine
 10
78.275238
 20
160.25235
 30
0.0
 11
78.055542
 21
160.274933
 31
0.0
  0
LINE
  5
3C7
100
AcDbEntity
  8
ARMATUR
390
0
  6
DURCHGEHEND
 62
     1
100
AcDbLine
 10
78.055542
 20
160.274933
 30
0.0
 11
77.753265
 21
160.296326
 31
0.0
  0
LINE
  5
3C8
100
AcDbEntity
  8
ARMATUR
390
0
  6
DURCHGEHEND
 62
     1
100
AcDbLine
 10
77.753265
 20
160.296326
 30
0.0
 11
77.37355
 21
160.316162
 31
0.0
  0
LINE
  5
3C9
100
AcDbEntity
  8
ARMATUR
390
0
  6
DURCHGEHEND
 62
     1
100
AcDbLine
 10
77.37355
 20
160.316162
 30
0.0
 11
76.922913
 21
160.334076
 31
0.0
  0
LINE
  5
3CA
100
AcDbEntity
  8
ARMATUR
390
0
  6
DURCHGEHEND
 62
     1
100
AcDbLine
 10
76.922913
 20
160.334076
 30
0.0
 11
76.409058
 21
160.349823
 31
0.0
  0
LINE
  5
3CB
100
AcDbEntity
  8
ARMATUR
390
0
  6
DURCHGEHEND
 62
     1
100
AcDbLine
 10
76.409058
 20
160.349823
 30
0.0
 11
75.840775
 21
160.363068
 31
0.0
  0
LINE
  5
3CC
100
AcDbEntity
  8
ARMATUR
390
0
  6
DURCHGEHEND
 62
     1
100
AcDbLine
 10
75.840775
 20
160.363068
 30
0.0
 11
75.227798
 21
160.373596
 31
0.0
  0
LINE
  5
3CD
100
AcDbEntity
  8
ARMATUR
390
0
  6
DURCHGEHEND
 62
     1
100
AcDbLine
 10
75.227798
 20
160.373596
 30
0.0
 11
74.580612
 21
160.381287
 31
0.0
  0
LINE
  5
3CE
100
AcDbEntity
  8
ARMATUR
390
0
  6
DURCHGEHEND
 62
     1
100
AcDbLine
 10
74.580612
 20
160.381287
 30
0.0
 11
73.910278
 21
160.385925
 31
0.0
  0
LINE
  5
3CF
100
AcDbEntity
  8
ARMATUR
390
0
  6
DURCHGEHEND
 62
     1
100
AcDbLine
 10
73.910278
 20
160.385925
 30
0.0
 11
73.228271
 21
160.387482
 31
0.0
  0
LINE
  5
3D0
100
AcDbEntity
  8
ARMATUR
390
0
  6
DURCHGEHEND
 62
     1
100
AcDbLine
 10
73.228271
 20
160.387482
 30
0.0
 11
72.54628
 21
160.385925
 31
0.0
  0
LINE
  5
3D1
100
AcDbEntity
  8
ARMATUR
390
0
  6
DURCHGEHEND
 62
     1
100
AcDbLine
 10
72.54628
 20
160.385925
 30
0.0
 11
71.875946
 21
160.381287
 31
0.0
  0
LINE
  5
3D2
100
AcDbEntity
  8
ARMATUR
390
0
  6
DURCHGEHEND
 62
     1
100
AcDbLine
 10
71.875946
 20
160.381287
 30
0.0
 11
71.22876
 21
160.373596
 31
0.0
  0
LINE
  5
3D3
100
AcDbEntity
  8
ARMATUR
390
0
  6
DURCHGEHEND
 62
     1
100
AcDbLine
 10
71.22876
 20
160.373596
 30
0.0
 11
70.615768
 21
160.363068
 31
0.0
  0
LINE
  5
3D4
100
AcDbEntity
  8
ARMATUR
390
0
  6
DURCHGEHEND
 62
     1
100
AcDbLine
 10
70.615768
 20
160.363068
 30
0.0
 11
70.047501
 21
160.349823
 31
0.0
  0
LINE
  5
3D5
100
AcDbEntity
  8
ARMATUR
390
0
  6
DURCHGEHEND
 62
     1
100
AcDbLine
 10
70.047501
 20
160.349823
 30
0.0
 11
69.533646
 21
160.334076
 31
0.0
  0
LINE
  5
3D6
100
AcDbEntity
  8
ARMATUR
390
0
  6
DURCHGEHEND
 62
     1
100
AcDbLine
 10
69.533646
 20
160.334076
 30
0.0
 11
69.083008
 21
160.316162
 31
0.0
  0
LINE
  5
3D7
100
AcDbEntity
  8
ARMATUR
390
0
  6
DURCHGEHEND
 62
     1
100
AcDbLine
 10
69.083008
 20
160.316162
 30
0.0
 11
68.703293
 21
160.296326
 31
0.0
  0
LINE
  5
3D8
100
AcDbEntity
  8
ARMATUR
390
0
  6
DURCHGEHEND
 62
     1
100
AcDbLine
 10
68.703293
 20
160.296326
 30
0.0
 11
68.401001
 21
160.274933
 31
0.0
  0
LINE
  5
3D9
100
AcDbEntity
  8
ARMATUR
390
0
  6
DURCHGEHEND
 62
     1
100
AcDbLine
 10
68.401001
 20
160.274933
 30
0.0
 11
68.181305
 21
160.25235
 31
0.0
  0
LINE
  5
3DA
100
AcDbEntity
  8
ARMATUR
390
0
  6
DURCHGEHEND
 62
     1
100
AcDbLine
 10
68.181305
 20
160.25235
 30
0.0
 11
68.047974
 21
160.228943
 31
0.0
  0
LINE
  5
3DB
100
AcDbEntity
  8
ARMATUR
390
0
  6
DURCHGEHEND
 62
     1
100
AcDbLine
 10
68.047974
 20
160.228943
 30
0.0
 11
68.008408
 21
160.213226
 31
0.0
  0
LINE
  5
3DC
100
AcDbEntity
  8
ARMATUR
390
0
  6
DURCHGEHEND
 62
     1
100
AcDbLine
 10
68.037964
 20
160.184174
 30
0.0
 11
68.047974
 21
160.181335
 31
0.0
  0
LINE
  5
3DD
100
AcDbEntity
  8
ARMATUR
390
0
  6
DURCHGEHEND
 62
     1
100
AcDbLine
 10
68.047974
 20
160.181335
 30
0.0
 11
68.181305
 21
160.157959
 31
0.0
  0
LINE
  5
3DE
100
AcDbEntity
  8
ARMATUR
390
0
  6
DURCHGEHEND
 62
     1
100
AcDbLine
 10
68.181305
 20
160.157959
 30
0.0
 11
68.401001
 21
160.135345
 31
0.0
  0
LINE
  5
3DF
100
AcDbEntity
  8
ARMATUR
390
0
  6
DURCHGEHEND
 62
     1
100
AcDbLine
 10
68.401001
 20
160.135345
 30
0.0
 11
68.703293
 21
160.113953
 31
0.0
  0
LINE
  5
3E0
100
AcDbEntity
  8
ARMATUR
390
0
  6
DURCHGEHEND
 62
     1
100
AcDbLine
 10
68.703293
 20
160.113953
 30
0.0
 11
69.083008
 21
160.094147
 31
0.0
  0
LINE
  5
3E1
100
AcDbEntity
  8
ARMATUR
390
0
  6
DURCHGEHEND
 62
     1
100
AcDbLine
 10
69.083008
 20
160.094147
 30
0.0
 11
69.533646
 21
160.076202
 31
0.0
  0
LINE
  5
3E2
100
AcDbEntity
  8
ARMATUR
390
0
  6
DURCHGEHEND
 62
     1
100
AcDbLine
 10
69.574097
 20
160.086029
 30
0.0
 11
69.143433
 21
160.104523
 31
0.0
  0
LINE
  5
3E3
100
AcDbEntity
  8
ARMATUR
390
0
  6
DURCHGEHEND
 62
     1
100
AcDbLine
 10
69.143433
 20
160.104523
 30
0.0
 11
68.788849
 21
160.124847
 31
0.0
  0
LINE
  5
3E4
100
AcDbEntity
  8
ARMATUR
390
0
  6
DURCHGEHEND
 62
     1
100
AcDbLine
 10
68.788849
 20
160.124847
 30
0.0
 11
68.516968
 21
160.146698
 31
0.0
  0
LINE
  5
3E5
100
AcDbEntity
  8
ARMATUR
390
0
  6
DURCHGEHEND
 62
     1
100
AcDbLine
 10
68.516968
 20
160.146698
 30
0.0
 11
68.332855
 21
160.169647
 31
0.0
  0
LINE
  5
3E6
100
AcDbEntity
  8
ARMATUR
390
0
  6
DURCHGEHEND
 62
     1
100
AcDbLine
 10
68.332855
 20
160.169647
 30
0.0
 11
68.239929
 21
160.193237
 31
0.0
  0
LINE
  5
3E7
100
AcDbEntity
  8
ARMATUR
390
0
  6
DURCHGEHEND
 62
     1
100
AcDbLine
 10
68.239929
 20
160.193237
 30
0.0
 11
68.239929
 21
160.217041
 31
0.0
  0
LINE
  5
3E8
100
AcDbEntity
  8
ARMATUR
390
0
  6
DURCHGEHEND
 62
     1
100
AcDbLine
 10
68.239929
 20
160.217041
 30
0.0
 11
68.332855
 21
160.240631
 31
0.0
  0
LINE
  5
3E9
100
AcDbEntity
  8
ARMATUR
390
0
  6
DURCHGEHEND
 62
     1
100
AcDbLine
 10
68.332855
 20
160.240631
 30
0.0
 11
68.516968
 21
160.26358
 31
0.0
  0
LINE
  5
3EA
100
AcDbEntity
  8
ARMATUR
390
0
  6
DURCHGEHEND
 62
     1
100
AcDbLine
 10
68.516968
 20
160.26358
 30
0.0
 11
68.788849
 21
160.285431
 31
0.0
  0
LINE
  5
3EB
100
AcDbEntity
  8
ARMATUR
390
0
  6
DURCHGEHEND
 62
     1
100
AcDbLine
 10
68.788849
 20
160.285431
 30
0.0
 11
69.143433
 21
160.305756
 31
0.0
  0
LINE
  5
3EC
100
AcDbEntity
  8
ARMATUR
390
0
  6
DURCHGEHEND
 62
     1
100
AcDbLine
 10
69.574097
 20
160.324249
 30
0.0
 11
70.07283
 21
160.340485
 31
0.0
  0
LINE
  5
3ED
100
AcDbEntity
  8
ARMATUR
390
0
  6
DURCHGEHEND
 62
     1
100
AcDbLine
 10
70.07283
 20
160.340485
 30
0.0
 11
70.630356
 21
160.354248
 31
0.0
  0
LINE
  5
3EE
100
AcDbEntity
  8
ARMATUR
390
0
  6
DURCHGEHEND
 62
     1
100
AcDbLine
 10
70.630356
 20
160.354248
 30
0.0
 11
71.236267
 21
160.365204
 31
0.0
  0
LINE
  5
3EF
100
AcDbEntity
  8
ARMATUR
390
0
  6
DURCHGEHEND
 62
     1
100
AcDbLine
 10
71.236267
 20
160.365204
 30
0.0
 11
71.879288
 21
160.373169
 31
0.0
  0
LINE
  5
3F0
100
AcDbEntity
  8
ARMATUR
390
0
  6
DURCHGEHEND
 62
     1
100
AcDbLine
 10
71.879288
 20
160.373169
 30
0.0
 11
72.54744
 21
160.378021
 31
0.0
  0
LINE
  5
3F1
100
AcDbEntity
  8
ARMATUR
390
0
  6
DURCHGEHEND
 62
     1
100
AcDbLine
 10
72.54744
 20
160.378021
 30
0.0
 11
73.228271
 21
160.379639
 31
0.0
  0
LINE
  5
3F2
100
AcDbEntity
  8
ARMATUR
390
0
  6
DURCHGEHEND
 62
     1
100
AcDbLine
 10
73.228271
 20
160.379639
 30
0.0
 11
73.909103
 21
160.378021
 31
0.0
  0
LINE
  5
3F3
100
AcDbEntity
  8
ARMATUR
390
0
  6
DURCHGEHEND
 62
     1
100
AcDbLine
 10
73.909103
 20
160.378021
 30
0.0
 11
74.577255
 21
160.373169
 31
0.0
  0
LINE
  5
3F4
100
AcDbEntity
  8
ARMATUR
390
0
  6
DURCHGEHEND
 62
     1
100
AcDbLine
 10
74.577255
 20
160.373169
 30
0.0
 11
75.220276
 21
160.365204
 31
0.0
  0
LINE
  5
3F5
100
AcDbEntity
  8
ARMATUR
390
0
  6
DURCHGEHEND
 62
     1
100
AcDbLine
 10
75.220276
 20
160.365204
 30
0.0
 11
75.826202
 21
160.354248
 31
0.0
  0
LINE
  5
3F6
100
AcDbEntity
  8
ARMATUR
390
0
  6
DURCHGEHEND
 62
     1
100
AcDbLine
 10
75.826202
 20
160.354248
 30
0.0
 11
76.383713
 21
160.340485
 31
0.0
  0
LINE
  5
3F7
100
AcDbEntity
  8
ARMATUR
390
0
  6
DURCHGEHEND
 62
     1
100
AcDbLine
 10
76.383713
 20
160.340485
 30
0.0
 11
76.882462
 21
160.324249
 31
0.0
  0
LINE
  5
3F8
100
AcDbEntity
  8
ARMATUR
390
0
  6
DURCHGEHEND
 62
     1
100
AcDbLine
 10
76.882462
 20
160.324249
 30
0.0
 11
77.313126
 21
160.305756
 31
0.0
  0
LINE
  5
3F9
100
AcDbEntity
  8
ARMATUR
390
0
  6
DURCHGEHEND
 62
     1
100
AcDbLine
 10
77.313126
 20
160.305756
 30
0.0
 11
77.667709
 21
160.285431
 31
0.0
  0
LINE
  5
3FA
100
AcDbEntity
  8
ARMATUR
390
0
  6
DURCHGEHEND
 62
     1
100
AcDbLine
 10
77.667709
 20
160.285431
 30
0.0
 11
77.939575
 21
160.26358
 31
0.0
  0
LINE
  5
3FB
100
AcDbEntity
  8
ARMATUR
390
0
  6
DURCHGEHEND
 62
     1
100
AcDbLine
 10
77.939575
 20
160.26358
 30
0.0
 11
78.123703
 21
160.240631
 31
0.0
  0
LINE
  5
3FC
100
AcDbEntity
  8
ARMATUR
390
0
  6
DURCHGEHEND
 62
     1
100
AcDbLine
 10
78.123703
 20
160.240631
 30
0.0
 11
78.216614
 21
160.217041
 31
0.0
  0
LINE
  5
3FD
100
AcDbEntity
  8
ARMATUR
390
0
  6
DURCHGEHEND
 62
     1
100
AcDbLine
 10
78.216614
 20
160.217041
 30
0.0
 11
78.216614
 21
160.193237
 31
0.0
  0
LINE
  5
3FE
100
AcDbEntity
  8
ARMATUR
390
0
  6
DURCHGEHEND
 62
     1
100
AcDbLine
 10
78.216614
 20
160.193237
 30
0.0
 11
78.123703
 21
160.169647
 31
0.0
  0
LINE
  5
3FF
100
AcDbEntity
  8
ARMATUR
390
0
  6
DURCHGEHEND
 62
     1
100
AcDbLine
 10
78.123703
 20
160.169647
 30
0.0
 11
77.939575
 21
160.146698
 31
0.0
  0
LINE
  5
400
100
AcDbEntity
  8
ARMATUR
390
0
  6
DURCHGEHEND
 62
     1
100
AcDbLine
 10
77.939575
 20
160.146698
 30
0.0
 11
77.667709
 21
160.124847
 31
0.0
  0
LINE
  5
401
100
AcDbEntity
  8
ARMATUR
390
0
  6
DURCHGEHEND
 62
     1
100
AcDbLine
 10
77.667709
 20
160.124847
 30
0.0
 11
77.313126
 21
160.104523
 31
0.0
  0
LINE
  5
402
100
AcDbEntity
  8
ARMATUR
390
0
  6
DURCHGEHEND
 62
     1
100
AcDbLine
 10
77.313126
 20
160.104523
 30
0.0
 11
76.882462
 21
160.086029
 31
0.0
  0
LINE
  5
403
100
AcDbEntity
  8
ARMATUR
390
0
  6
DURCHGEHEND
 62
     1
100
AcDbLine
 10
76.882462
 20
160.086029
 30
0.0
 11
76.853271
 21
160.084961
 31
0.0
  0
LINE
  5
404
100
AcDbEntity
  8
ARMATUR
390
0
  6
DURCHGEHEND
 62
     1
100
AcDbLine
 10
68.038452
 20
170.59494
 30
0.0
 11
68.047974
 21
170.597626
 31
0.0
  0
LINE
  5
405
100
AcDbEntity
  8
ARMATUR
390
0
  6
DURCHGEHEND
 62
     1
100
AcDbLine
 10
68.047974
 20
170.597626
 30
0.0
 11
68.181305
 21
170.621002
 31
0.0
  0
LINE
  5
406
100
AcDbEntity
  8
ARMATUR
390
0
  6
DURCHGEHEND
 62
     1
100
AcDbLine
 10
68.181305
 20
170.621002
 30
0.0
 11
68.401001
 21
170.643616
 31
0.0
  0
LINE
  5
407
100
AcDbEntity
  8
ARMATUR
390
0
  6
DURCHGEHEND
 62
     1
100
AcDbLine
 10
68.401001
 20
170.643616
 30
0.0
 11
68.703293
 21
170.665009
 31
0.0
  0
LINE
  5
408
100
AcDbEntity
  8
ARMATUR
390
0
  6
DURCHGEHEND
 62
     1
100
AcDbLine
 10
68.703293
 20
170.665009
 30
0.0
 11
69.083008
 21
170.684814
 31
0.0
  0
LINE
  5
409
100
AcDbEntity
  8
ARMATUR
390
0
  6
DURCHGEHEND
 62
     1
100
AcDbLine
 10
69.083008
 20
170.684814
 30
0.0
 11
69.533646
 21
170.702759
 31
0.0
  0
LINE
  5
40A
100
AcDbEntity
  8
ARMATUR
390
0
  6
DURCHGEHEND
 62
     1
100
AcDbLine
 10
69.533646
 20
170.702759
 30
0.0
 11
70.047501
 21
170.718475
 31
0.0
  0
LINE
  5
40B
100
AcDbEntity
  8
ARMATUR
390
0
  6
DURCHGEHEND
 62
     1
100
AcDbLine
 10
70.047501
 20
170.718475
 30
0.0
 11
70.615768
 21
170.73175
 31
0.0
  0
LINE
  5
40C
100
AcDbEntity
  8
ARMATUR
390
0
  6
DURCHGEHEND
 62
     1
100
AcDbLine
 10
70.615768
 20
170.73175
 30
0.0
 11
71.22876
 21
170.742279
 31
0.0
  0
LINE
  5
40D
100
AcDbEntity
  8
ARMATUR
390
0
  6
DURCHGEHEND
 62
     1
100
AcDbLine
 10
71.22876
 20
170.742279
 30
0.0
 11
71.875946
 21
170.749969
 31
0.0
  0
LINE
  5
40E
100
AcDbEntity
  8
ARMATUR
390
0
  6
DURCHGEHEND
 62
     1
100
AcDbLine
 10
71.875946
 20
170.749969
 30
0.0
 11
72.54628
 21
170.754608
 31
0.0
  0
LINE
  5
40F
100
AcDbEntity
  8
ARMATUR
390
0
  6
DURCHGEHEND
 62
     1
100
AcDbLine
 10
72.54628
 20
170.754608
 30
0.0
 11
73.228271
 21
170.756165
 31
0.0
  0
LINE
  5
410
100
AcDbEntity
  8
ARMATUR
390
0
  6
DURCHGEHEND
 62
     1
100
AcDbLine
 10
73.228271
 20
170.756165
 30
0.0
 11
73.910278
 21
170.754608
 31
0.0
  0
LINE
  5
411
100
AcDbEntity
  8
ARMATUR
390
0
  6
DURCHGEHEND
 62
     1
100
AcDbLine
 10
73.910278
 20
170.754608
 30
0.0
 11
74.580612
 21
170.749969
 31
0.0
  0
LINE
  5
412
100
AcDbEntity
  8
ARMATUR
390
0
  6
DURCHGEHEND
 62
     1
100
AcDbLine
 10
74.580612
 20
170.749969
 30
0.0
 11
75.227798
 21
170.742279
 31
0.0
  0
LINE
  5
413
100
AcDbEntity
  8
ARMATUR
390
0
  6
DURCHGEHEND
 62
     1
100
AcDbLine
 10
75.227798
 20
170.742279
 30
0.0
 11
75.840775
 21
170.73175
 31
0.0
  0
LINE
  5
414
100
AcDbEntity
  8
ARMATUR
390
0
  6
DURCHGEHEND
 62
     1
100
AcDbLine
 10
75.840775
 20
170.73175
 30
0.0
 11
76.409058
 21
170.718475
 31
0.0
  0
LINE
  5
415
100
AcDbEntity
  8
ARMATUR
390
0
  6
DURCHGEHEND
 62
     1
100
AcDbLine
 10
76.409058
 20
170.718475
 30
0.0
 11
76.922913
 21
170.702759
 31
0.0
  0
LINE
  5
416
100
AcDbEntity
  8
ARMATUR
390
0
  6
DURCHGEHEND
 62
     1
100
AcDbLine
 10
76.922913
 20
170.702759
 30
0.0
 11
77.37355
 21
170.684814
 31
0.0
  0
LINE
  5
417
100
AcDbEntity
  8
ARMATUR
390
0
  6
DURCHGEHEND
 62
     1
100
AcDbLine
 10
77.37355
 20
170.684814
 30
0.0
 11
77.753265
 21
170.665009
 31
0.0
  0
LINE
  5
418
100
AcDbEntity
  8
ARMATUR
390
0
  6
DURCHGEHEND
 62
     1
100
AcDbLine
 10
77.753265
 20
170.665009
 30
0.0
 11
78.055542
 21
170.643616
 31
0.0
  0
LINE
  5
419
100
AcDbEntity
  8
ARMATUR
390
0
  6
DURCHGEHEND
 62
     1
100
AcDbLine
 10
78.055542
 20
170.643616
 30
0.0
 11
78.275238
 21
170.621002
 31
0.0
  0
LINE
  5
41A
100
AcDbEntity
  8
ARMATUR
390
0
  6
DURCHGEHEND
 62
     1
100
AcDbLine
 10
78.275238
 20
170.621002
 30
0.0
 11
78.408569
 21
170.597626
 31
0.0
  0
LINE
  5
41B
100
AcDbEntity
  8
ARMATUR
390
0
  6
DURCHGEHEND
 62
     1
100
AcDbLine
 10
78.408569
 20
170.597626
 30
0.0
 11
78.425751
 21
170.592499
 31
0.0
  0
LINE
  5
41C
100
AcDbEntity
  8
ARMATUR
390
0
  6
DURCHGEHEND
 62
     1
100
AcDbLine
 10
90.960464
 20
102.443146
 30
0.0
 11
91.029175
 21
102.400497
 31
0.0
  0
LINE
  5
41D
100
AcDbEntity
  8
ARMATUR
390
0
  6
DURCHGEHEND
 62
     1
100
AcDbLine
 10
91.788666
 20
102.430954
 30
0.0
 11
91.725662
 21
102.42395
 31
0.0
  0
LINE
  5
41E
100
AcDbEntity
  8
ARMATUR
390
0
  6
DURCHGEHEND
 62
     1
100
AcDbLine
 10
90.960464
 20
102.443146
 30
0.0
 11
88.490784
 21
107.739395
 31
0.0
  0
LINE
  5
41F
100
AcDbEntity
  8
ARMATUR
390
0
  6
DURCHGEHEND
 62
     1
100
AcDbLine
 10
94.238235
 20
112.710312
 30
0.0
 11
94.235489
 21
112.569931
 31
0.0
  0
LINE
  5
420
100
AcDbEntity
  8
ARMATUR
390
0
  6
DURCHGEHEND
 62
     1
100
AcDbLine
 10
94.236618
 20
102.850197
 30
0.0
 11
94.240067
 21
102.677269
 31
0.0
  0
LINE
  5
421
100
AcDbEntity
  8
ARMATUR
390
0
  6
DURCHGEHEND
 62
     1
100
AcDbLine
 10
94.240128
 20
102.673576
 30
0.0
 11
94.240463
 21
102.657761
 31
0.0
  0
LINE
  5
422
100
AcDbEntity
  8
ARMATUR
390
0
  6
DURCHGEHEND
 62
     1
100
AcDbLine
 10
88.490784
 20
107.739395
 30
0.0
 11
88.490784
 21
113.038345
 31
0.0
  0
LINE
  5
423
100
AcDbEntity
  8
ARMATUR
390
0
  6
DURCHGEHEND
 62
     1
100
AcDbLine
 10
94.239578
 20
131.955597
 30
0.0
 11
94.239578
 21
113.149063
 31
0.0
  0
LINE
  5
424
100
AcDbEntity
  8
ARMATUR
390
0
  6
DURCHGEHEND
 62
     1
100
AcDbLine
 10
88.490784
 20
112.426895
 30
0.0
 11
88.490784
 21
112.782852
 31
0.0
  0
LINE
  5
425
100
AcDbEntity
  8
ARMATUR
390
0
  6
DURCHGEHEND
 62
     1
100
AcDbLine
 10
89.240387
 20
113.402023
 30
0.0
 11
89.240784
 21
113.419617
 31
0.0
  0
LINE
  5
426
100
AcDbEntity
  8
ARMATUR
390
0
  6
DURCHGEHEND
 62
     1
100
AcDbLine
 10
89.240784
 20
113.419617
 30
0.0
 11
89.240784
 21
132.035858
 31
0.0
  0
LINE
  5
427
100
AcDbEntity
  8
ARMATUR
390
0
  6
DURCHGEHEND
 62
     1
100
AcDbLine
 10
89.44426
 20
132.23584
 30
0.0
 11
94.043076
 21
132.155548
 31
0.0
  0
LINE
  5
428
100
AcDbEntity
  8
ARMATUR
390
0
  6
DURCHGEHEND
 62
     1
100
AcDbLine
 10
94.239578
 20
131.955597
 30
0.0
 11
94.235825
 21
131.994171
 31
0.0
  0
LINE
  5
429
100
AcDbEntity
  8
ARMATUR
390
0
  6
DURCHGEHEND
 62
     1
100
AcDbLine
 10
94.235825
 20
131.994171
 30
0.0
 11
94.224686
 21
132.031311
 31
0.0
  0
LINE
  5
42A
100
AcDbEntity
  8
ARMATUR
390
0
  6
DURCHGEHEND
 62
     1
100
AcDbLine
 10
94.224686
 20
132.031311
 30
0.0
 11
94.206589
 21
132.065613
 31
0.0
  0
LINE
  5
42B
100
AcDbEntity
  8
ARMATUR
390
0
  6
DURCHGEHEND
 62
     1
100
AcDbLine
 10
94.206589
 20
132.065613
 30
0.0
 11
94.182205
 21
132.095764
 31
0.0
  0
LINE
  5
42C
100
AcDbEntity
  8
ARMATUR
390
0
  6
DURCHGEHEND
 62
     1
100
AcDbLine
 10
94.182205
 20
132.095764
 30
0.0
 11
94.152481
 21
132.120667
 31
0.0
  0
LINE
  5
42D
100
AcDbEntity
  8
ARMATUR
390
0
  6
DURCHGEHEND
 62
     1
100
AcDbLine
 10
94.152481
 20
132.120667
 30
0.0
 11
94.118515
 21
132.139343
 31
0.0
  0
LINE
  5
42E
100
AcDbEntity
  8
ARMATUR
390
0
  6
DURCHGEHEND
 62
     1
100
AcDbLine
 10
94.118515
 20
132.139343
 30
0.0
 11
94.081589
 21
132.151123
 31
0.0
  0
LINE
  5
42F
100
AcDbEntity
  8
ARMATUR
390
0
  6
DURCHGEHEND
 62
     1
100
AcDbLine
 10
67.207352
 20
119.239395
 30
0.0
 11
79.2491
 21
119.239395
 31
0.0
  0
LINE
  5
430
100
AcDbEntity
  8
ARMATUR
390
0
  6
DURCHGEHEND
 62
     1
100
AcDbLine
 10
66.978271
 20
85.239395
 30
0.0
 11
79.478271
 21
85.239395
 31
0.0
  0
LINE
  5
431
100
AcDbEntity
  8
ARMATUR
390
0
  6
DURCHGEHEND
 62
     1
100
AcDbLine
 10
87.978271
 20
107.739395
 30
0.0
 11
87.978271
 21
112.885315
 31
0.0
  0
LINE
  5
432
100
AcDbEntity
  8
ARMATUR
390
0
  6
DURCHGEHEND
 62
     1
100
AcDbLine
 10
87.978271
 20
102.593483
 30
0.0
 11
87.978271
 21
107.739395
 31
0.0
  0
LINE
  5
433
100
AcDbEntity
  8
ARMATUR
390
0
  6
DURCHGEHEND
 62
     1
100
AcDbLine
 10
76.595993
 20
158.713776
 30
0.0
 11
76.591415
 21
158.696198
 31
0.0
  0
LINE
  5
434
100
AcDbEntity
  8
ARMATUR
390
0
  6
DURCHGEHEND
 62
     1
100
AcDbLine
 10
76.591415
 20
158.696198
 30
0.0
 11
76.543869
 21
158.684052
 31
0.0
  0
LINE
  5
435
100
AcDbEntity
  8
ARMATUR
390
0
  6
DURCHGEHEND
 62
     1
100
AcDbLine
 10
69.887131
 20
158.689423
 30
0.0
 11
69.864471
 21
158.696472
 31
0.0
  0
LINE
  5
436
100
AcDbEntity
  8
ARMATUR
390
0
  6
DURCHGEHEND
 62
     1
100
AcDbLine
 10
69.864471
 20
158.696472
 30
0.0
 11
69.862106
 21
158.714569
 31
0.0
  0
LINE
  5
437
100
AcDbEntity
  8
ARMATUR
390
0
  6
DURCHGEHEND
 62
     1
100
AcDbLine
 10
78.424774
 20
160.186127
 30
0.0
 11
78.453278
 21
160.205139
 31
0.0
  0
LINE
  5
438
100
AcDbEntity
  8
ARMATUR
390
0
  6
DURCHGEHEND
 62
     1
100
AcDbLine
 10
78.453278
 20
160.205139
 30
0.0
 11
78.449203
 21
160.212341
 31
0.0
  0
LINE
  5
439
100
AcDbEntity
  8
ARMATUR
390
0
  6
DURCHGEHEND
 62
     1
100
AcDbLine
 10
68.008408
 20
160.213226
 30
0.0
 11
68.003281
 21
160.205139
 31
0.0
  0
LINE
  5
43A
100
AcDbEntity
  8
ARMATUR
390
0
  6
DURCHGEHEND
 62
     1
100
AcDbLine
 10
68.003281
 20
160.205139
 30
0.0
 11
68.037964
 21
160.184174
 31
0.0
  0
LINE
  5
43B
100
AcDbEntity
  8
ARMATUR
390
0
  6
DURCHGEHEND
 62
     1
100
AcDbLine
 10
78.603271
 20
170.42392
 30
0.0
 11
78.557297
 21
170.448395
 31
0.0
  0
LINE
  5
43C
100
AcDbEntity
  8
ARMATUR
390
0
  6
DURCHGEHEND
 62
     1
100
AcDbLine
 10
94.240067
 20
102.677254
 30
0.0
 11
94.240128
 21
102.673576
 31
0.0
  0
LINE
  5
43D
100
AcDbEntity
  8
ARMATUR
390
0
  6
DURCHGEHEND
 62
     1
100
AcDbLine
 10
94.240799
 20
131.955688
 30
0.0
 11
94.239578
 21
131.955597
 31
0.0
  0
LINE
  5
43E
100
AcDbEntity
  8
ARMATUR
390
0
  6
DURCHGEHEND
 62
     1
100
AcDbLine
 10
79.468094
 20
102.001846
 30
0.0
 11
79.453781
 21
102.019325
 31
0.0
  0
LINE
  5
43F
100
AcDbEntity
  8
ARMATUR
390
0
  6
DURCHGEHEND
 62
     1
100
AcDbLine
 10
79.453781
 20
102.019325
 30
0.0
 11
79.357117
 21
102.137863
 31
0.0
  0
LINE
  5
440
100
AcDbEntity
  8
ARMATUR
390
0
  6
DURCHGEHEND
 62
     1
100
AcDbLine
 10
79.357117
 20
102.137863
 30
0.0
 11
79.188644
 21
102.345993
 31
0.0
  0
LINE
  5
441
100
AcDbEntity
  8
ARMATUR
390
0
  6
DURCHGEHEND
 62
     1
100
AcDbLine
 10
79.188644
 20
102.345993
 30
0.0
 11
78.951523
 21
102.642738
 31
0.0
  0
LINE
  5
442
100
AcDbEntity
  8
ARMATUR
390
0
  6
DURCHGEHEND
 62
     1
100
AcDbLine
 10
78.951523
 20
102.642738
 30
0.0
 11
78.658539
 21
103.016663
 31
0.0
  0
LINE
  5
443
100
AcDbEntity
  8
ARMATUR
390
0
  6
DURCHGEHEND
 62
     1
100
AcDbLine
 10
78.658539
 20
103.016663
 30
0.0
 11
78.157776
 21
103.68042
 31
0.0
  0
LINE
  5
444
100
AcDbEntity
  8
ARMATUR
390
0
  6
DURCHGEHEND
 62
     1
100
AcDbLine
 10
78.157776
 20
103.68042
 30
0.0
 11
77.602432
 21
104.4729
 31
0.0
  0
LINE
  5
445
100
AcDbEntity
  8
ARMATUR
390
0
  6
DURCHGEHEND
 62
     1
100
AcDbLine
 10
77.602432
 20
104.4729
 30
0.0
 11
77.052139
 21
105.372726
 31
0.0
  0
LINE
  5
446
100
AcDbEntity
  8
ARMATUR
390
0
  6
DURCHGEHEND
 62
     1
100
AcDbLine
 10
77.052139
 20
105.372726
 30
0.0
 11
76.574615
 21
106.415054
 31
0.0
  0
LINE
  5
447
100
AcDbEntity
  8
ARMATUR
390
0
  6
DURCHGEHEND
 62
     1
100
AcDbLine
 10
76.574615
 20
106.415054
 30
0.0
 11
76.428436
 21
106.915558
 31
0.0
  0
LINE
  5
448
100
AcDbEntity
  8
ARMATUR
390
0
  6
DURCHGEHEND
 62
     1
100
AcDbLine
 10
76.428436
 20
106.915558
 30
0.0
 11
76.344833
 21
107.447235
 31
0.0
  0
LINE
  5
449
100
AcDbEntity
  8
ARMATUR
390
0
  6
DURCHGEHEND
 62
     1
100
AcDbLine
 10
76.344833
 20
107.447235
 30
0.0
 11
76.358627
 21
108.166168
 31
0.0
  0
LINE
  5
44A
100
AcDbEntity
  8
ARMATUR
390
0
  6
DURCHGEHEND
 62
     1
100
AcDbLine
 10
76.358627
 20
108.166168
 30
0.0
 11
76.493713
 21
108.813156
 31
0.0
  0
LINE
  5
44B
100
AcDbEntity
  8
ARMATUR
390
0
  6
DURCHGEHEND
 62
     1
100
AcDbLine
 10
76.493713
 20
108.813156
 30
0.0
 11
76.724335
 21
109.443787
 31
0.0
  0
LINE
  5
44C
100
AcDbEntity
  8
ARMATUR
390
0
  6
DURCHGEHEND
 62
     1
100
AcDbLine
 10
76.724335
 20
109.443787
 30
0.0
 11
77.169754
 21
110.313751
 31
0.0
  0
LINE
  5
44D
100
AcDbEntity
  8
ARMATUR
390
0
  6
DURCHGEHEND
 62
     1
100
AcDbLine
 10
77.169754
 20
110.313751
 30
0.0
 11
77.677719
 21
111.118217
 31
0.0
  0
LINE
  5
44E
100
AcDbEntity
  8
ARMATUR
390
0
  6
DURCHGEHEND
 62
     1
100
AcDbLine
 10
77.677719
 20
111.118217
 30
0.0
 11
78.201599
 21
111.858017
 31
0.0
  0
LINE
  5
44F
100
AcDbEntity
  8
ARMATUR
390
0
  6
DURCHGEHEND
 62
     1
100
AcDbLine
 10
78.201599
 20
111.858017
 30
0.0
 11
78.696594
 21
112.51123
 31
0.0
  0
LINE
  5
450
100
AcDbEntity
  8
ARMATUR
390
0
  6
DURCHGEHEND
 62
     1
100
AcDbLine
 10
78.696594
 20
112.51123
 30
0.0
 11
79.009842
 21
112.909485
 31
0.0
  0
LINE
  5
451
100
AcDbEntity
  8
ARMATUR
390
0
  6
DURCHGEHEND
 62
     1
100
AcDbLine
 10
79.009842
 20
112.909485
 30
0.0
 11
79.262405
 21
113.224197
 31
0.0
  0
LINE
  5
452
100
AcDbEntity
  8
ARMATUR
390
0
  6
DURCHGEHEND
 62
     1
100
AcDbLine
 10
79.262405
 20
113.224197
 30
0.0
 11
79.40242
 21
113.396561
 31
0.0
  0
LINE
  5
453
100
AcDbEntity
  8
ARMATUR
390
0
  6
DURCHGEHEND
 62
     1
100
AcDbLine
 10
79.40242
 20
113.396561
 30
0.0
 11
79.472641
 21
113.482498
 31
0.0
  0
LINE
  5
454
100
AcDbEntity
  8
ARMATUR
390
0
  6
DURCHGEHEND
 62
     1
100
AcDbLine
 10
79.472641
 20
113.482498
 30
0.0
 11
79.478256
 21
113.48938
 31
0.0
  0
ARC
  5
455
100
AcDbEntity
  8
ARMATUR
390
0
  6
DURCHGEHEND
 62
     1
100
AcDbCircle
 10
76.574707
 20
158.962372
 30
0.0
 40
0.27433
100
AcDbArc
 50
272.55899
 51
358.641998
  0
ARC
  5
456
100
AcDbEntity
  8
ARMATUR
390
0
  6
DURCHGEHEND
 62
     1
100
AcDbCircle
 10
69.871399
 20
158.959808
 30
0.0
 40
0.265991
100
AcDbArc
 50
180.376999
 51
259.996002
  0
ELLIPSE
  5
457
100
AcDbEntity
  8
ARMATUR
390
0
  6
DURCHGEHEND
 62
     1
100
AcDbEllipse
 10
78.438293
 20
160.350189
 30
0.0
 11
0.0337021425366402
 21
-0.1550557496089258
 31
0.0
210
0.0
220
0.0
230
1.0
 40
0.999842
 41
0.0
 42
1.3872226354894241
  0
ARC
  5
458
100
AcDbEntity
  8
ARMATUR
390
0
  6
DURCHGEHEND
 62
     1
100
AcDbCircle
 10
68.021454
 20
170.427948
 30
0.0
 40
0.161377
100
AcDbArc
 50
99.334999
 51
180.091003
  0
ARC
  5
459
100
AcDbEntity
  8
ARMATUR
390
0
  6
DURCHGEHEND
 62
     1
100
AcDbCircle
 10
94.033798
 20
102.652824
 30
0.0
 40
0.207428
100
AcDbArc
 50
0.0
 51
5.741
  0
ARC
  5
45A
100
AcDbEntity
  8
ARMATUR
390
0
  6
DURCHGEHEND
 62
     1
100
AcDbCircle
 10
94.033798
 20
102.652824
 30
0.0
 40
0.207428
100
AcDbArc
 50
272.721985
 51
360.0
  0
ARC
  5
45B
100
AcDbEntity
  8
ARMATUR
390
0
  6
DURCHGEHEND
 62
     1
100
AcDbCircle
 10
88.565781
 20
113.038345
 30
0.0
 40
0.074997
100
AcDbArc
 50
89.197998
 51
179.998001
  0
ARC
  5
45C
100
AcDbEntity
  8
ARMATUR
390
0
  6
DURCHGEHEND
 62
     1
100
AcDbCircle
 10
88.865784
 20
113.484207
 30
0.0
 40
0.375
100
AcDbArc
 50
269.197998
 51
360.0
  0
ARC
  5
45D
100
AcDbEntity
  8
ARMATUR
390
0
  6
DURCHGEHEND
 62
     1
100
AcDbCircle
 10
94.040787
 20
131.955566
 30
0.0
 40
0.199997
100
AcDbArc
 50
0.036
 51
89.001999
  0
ARC
  5
45E
100
AcDbEntity
  8
ARMATUR
390
0
  6
DURCHGEHEND
 62
     1
100
AcDbCircle
 10
88.153275
 20
112.576889
 30
0.0
 40
0.149994
100
AcDbArc
 50
180.0
 51
270.0
  0
ARC
  5
45F
100
AcDbEntity
  8
ARMATUR
390
0
  6
DURCHGEHEND
 62
     1
100
AcDbCircle
 10
88.153275
 20
102.901901
 30
0.0
 40
0.149994
100
AcDbArc
 50
90.0
 51
180.0
  0
ARC
  5
460
100
AcDbEntity
  8
ARMATUR
390
0
  6
DURCHGEHEND
 62
     1
100
AcDbCircle
 10
88.628281
 20
107.739395
 30
0.0
 40
4.6875
100
AcDbArc
 50
270.0
 51
293.47699
  0
ARC
  5
461
100
AcDbEntity
  8
ARMATUR
390
0
  6
DURCHGEHEND
 62
     1
100
AcDbCircle
 10
67.207352
 20
118.989395
 30
0.0
 40
0.25
100
AcDbArc
 50
90.0
 51
156.395004
  0
ARC
  5
462
100
AcDbEntity
  8
ARMATUR
390
0
  6
DURCHGEHEND
 62
     1
100
AcDbCircle
 10
79.249191
 20
118.989395
 30
0.0
 40
0.25
100
AcDbArc
 50
23.604
 51
89.999001
  0
ARC
  5
463
100
AcDbEntity
  8
ARMATUR
390
0
  6
DURCHGEHEND
 62
     1
100
AcDbCircle
 10
79.850647
 20
101.996445
 30
0.0
 40
0.367874
100
AcDbArc
 50
91.195
 51
179.270004
  0
ARC
  5
464
100
AcDbEntity
  8
ARMATUR
390
0
  6
DURCHGEHEND
 62
     1
100
AcDbCircle
 10
79.845383
 20
113.485397
 30
0.0
 40
0.366257
100
AcDbArc
 50
179.401993
 51
271.266998
  0
ARC
  5
465
100
AcDbEntity
  8
ARMATUR
390
0
  6
DURCHGEHEND
 62
     1
100
AcDbCircle
 10
87.728271
 20
102.593483
 30
0.0
 40
0.25
100
AcDbArc
 50
293.604004
 51
360.0
  0
ARC
  5
466
100
AcDbEntity
  8
ARMATUR
390
0
  6
DURCHGEHEND
 62
     1
100
AcDbCircle
 10
87.728271
 20
112.885315
 30
0.0
 40
0.25
100
AcDbArc
 50
0.0
 51
66.394997
  0
ARC
  5
467
100
AcDbEntity
  8
ARMATUR
390
0
  6
DURCHGEHEND
 62
     1
100
AcDbCircle
 10
92.31456
 20
97.134071
 30
0.0
 40
5.323044
100
AcDbArc
 50
83.865997
 51
97.721001
  0
LINE
  5
468
100
AcDbEntity
  8
ARMATUR
390
0
  6
DURCHGEHEND
 62
     1
100
AcDbLine
 10
94.238235
 20
112.710312
 30
0.0
 11
94.239578
 21
113.149063
 31
0.0
  0
ARC
  5
469
100
AcDbEntity
  8
ARMATUR
390
0
  6
DURCHGEHEND
 62
     1
100
AcDbCircle
 10
89.440781
 20
132.035858
 30
0.0
 40
0.199997
100
AcDbArc
 50
89.003998
 51
180.003998
  0
LINE
  5
46A
100
AcDbEntity
  8
ARMATUR
390
0
  6
DURCHGEHEND
 62
     1
100
AcDbLine
 10
165.642838
 20
167.395447
 30
0.0
 11
165.367996
 21
167.385834
 31
0.0
  0
LINE
  5
46B
100
AcDbEntity
  8
ARMATUR
390
0
  6
DURCHGEHEND
 62
     1
100
AcDbLine
 10
196.091751
 20
160.078644
 30
0.0
 11
196.135361
 21
158.829376
 31
0.0
  0
LINE
  5
46C
100
AcDbEntity
  8
ARMATUR
390
0
  6
DURCHGEHEND
 62
     1
100
AcDbLine
 10
203.380936
 20
159.082397
 30
0.0
 11
203.337326
 21
160.331665
 31
0.0
  0
LINE
  5
46D
100
AcDbEntity
  8
ARMATUR
390
0
  6
DURCHGEHEND
 62
     1
100
AcDbLine
 10
196.768723
 20
158.601349
 30
0.0
 11
196.77742
 21
158.351501
 31
0.0
  0
LINE
  5
46E
100
AcDbEntity
  8
ARMATUR
390
0
  6
DURCHGEHEND
 62
     1
100
AcDbLine
 10
202.773788
 20
158.560913
 30
0.0
 11
202.76506
 21
158.81076
 31
0.0
  0
LINE
  5
46F
100
AcDbEntity
  8
ARMATUR
390
0
  6
DURCHGEHEND
 62
     1
100
AcDbLine
 10
165.46904
 20
160.910431
 30
0.0
 11
165.593979
 21
160.914795
 31
0.0
  0
LINE
  5
470
100
AcDbEntity
  8
ARMATUR
390
0
  6
DURCHGEHEND
 62
     1
100
AcDbLine
 10
165.342697
 20
168.110382
 30
0.0
 11
165.217758
 21
168.106049
 31
0.0
  0
LINE
  5
471
100
AcDbEntity
  8
ARMATUR
390
0
  6
DURCHGEHEND
 62
     1
100
AcDbLine
 10
161.720322
 20
160.706787
 30
0.0
 11
161.841995
 21
160.685333
 31
0.0
  0
LINE
  5
472
100
AcDbEntity
  8
ARMATUR
390
0
  6
DURCHGEHEND
 62
     1
100
AcDbLine
 10
144.691574
 20
119.239395
 30
0.0
 11
144.691574
 21
147.23938
 31
0.0
  0
LINE
  5
473
100
AcDbEntity
  8
ARMATUR
390
0
  6
DURCHGEHEND
 62
     1
100
AcDbLine
 10
137.191574
 20
147.23938
 30
0.0
 11
137.191574
 21
119.239395
 31
0.0
  0
LINE
  5
474
100
AcDbEntity
  8
ARMATUR
390
0
  6
DURCHGEHEND
 62
     1
100
AcDbLine
 10
165.21254
 20
168.255951
 30
0.0
 11
157.217422
 21
167.976746
 31
0.0
  0
LINE
  5
475
100
AcDbEntity
  8
ARMATUR
390
0
  6
DURCHGEHEND
 62
     1
100
AcDbLine
 10
162.615891
 20
160.660706
 30
0.0
 11
165.474289
 21
160.760498
 31
0.0
  0
LINE
  5
476
100
AcDbEntity
  8
ARMATUR
390
0
  6
DURCHGEHEND
 62
     1
100
AcDbLine
 10
157.479172
 20
160.481323
 30
0.0
 11
161.07695
 21
160.606964
 31
0.0
  0
LINE
  5
477
100
AcDbEntity
  8
ARMATUR
390
0
  6
DURCHGEHEND
 62
     1
100
AcDbLine
 10
134.691574
 20
114.240921
 30
0.0
 11
134.691574
 21
85.239395
 31
0.0
  0
LINE
  5
478
100
AcDbEntity
  8
ARMATUR
390
0
  6
DURCHGEHEND
 62
     1
100
AcDbLine
 10
134.691574
 20
119.089493
 30
0.0
 11
134.691574
 21
114.049103
 31
0.0
  0
LINE
  5
479
100
AcDbEntity
  8
ARMATUR
390
0
  6
DURCHGEHEND
 62
     1
100
AcDbLine
 10
147.191574
 20
85.239395
 30
0.0
 11
147.191574
 21
119.089493
 31
0.0
  0
LINE
  5
47A
100
AcDbEntity
  8
ARMATUR
390
0
  6
DURCHGEHEND
 62
     1
100
AcDbLine
 10
165.905685
 20
161.255371
 30
0.0
 11
165.902725
 21
161.263
 31
0.0
  0
LINE
  5
47B
100
AcDbEntity
  8
ARMATUR
390
0
  6
DURCHGEHEND
 62
     1
100
AcDbLine
 10
165.902725
 20
161.263
 30
0.0
 11
165.898514
 21
161.27005
 31
0.0
  0
LINE
  5
47C
100
AcDbEntity
  8
ARMATUR
390
0
  6
DURCHGEHEND
 62
     1
100
AcDbLine
 10
165.898514
 20
161.27005
 30
0.0
 11
165.893234
 21
161.276306
 31
0.0
  0
LINE
  5
47D
100
AcDbEntity
  8
ARMATUR
390
0
  6
DURCHGEHEND
 62
     1
100
AcDbLine
 10
165.893234
 20
161.276306
 30
0.0
 11
165.886978
 21
161.281616
 31
0.0
  0
LINE
  5
47E
100
AcDbEntity
  8
ARMATUR
390
0
  6
DURCHGEHEND
 62
     1
100
AcDbLine
 10
165.886978
 20
161.281616
 30
0.0
 11
165.879929
 21
161.285828
 31
0.0
  0
LINE
  5
47F
100
AcDbEntity
  8
ARMATUR
390
0
  6
DURCHGEHEND
 62
     1
100
AcDbLine
 10
165.906296
 20
161.238373
 30
0.0
 11
165.905685
 21
161.255371
 31
0.0
  0
LINE
  5
480
100
AcDbEntity
  8
ARMATUR
390
0
  6
DURCHGEHEND
 62
     1
100
AcDbLine
 10
196.393936
 20
158.588257
 30
0.0
 11
203.139816
 21
158.823853
 31
0.0
  0
LINE
  5
481
100
AcDbEntity
  8
ARMATUR
390
0
  6
DURCHGEHEND
 62
     1
100
AcDbLine
 10
196.77742
 20
158.351501
 30
0.0
 11
202.773788
 21
158.560913
 31
0.0
  0
LINE
  5
482
100
AcDbEntity
  8
ARMATUR
390
0
  6
DURCHGEHEND
 62
     1
100
AcDbLine
 10
194.016281
 20
169.368195
 30
0.0
 11
194.017136
 21
169.367065
 31
0.0
  0
LINE
  5
483
100
AcDbEntity
  8
ARMATUR
390
0
  6
DURCHGEHEND
 62
     1
100
AcDbLine
 10
194.017136
 20
169.367065
 30
0.0
 11
194.040237
 21
169.336273
 31
0.0
  0
LINE
  5
484
100
AcDbEntity
  8
ARMATUR
390
0
  6
DURCHGEHEND
 62
     1
100
AcDbLine
 10
194.306076
 20
161.692108
 30
0.0
 11
194.285446
 21
161.660217
 31
0.0
  0
LINE
  5
485
100
AcDbEntity
  8
ARMATUR
390
0
  6
DURCHGEHEND
 62
     1
100
AcDbLine
 10
194.016281
 20
169.368195
 30
0.0
 11
193.985947
 21
170.236328
 31
0.0
  0
LINE
  5
486
100
AcDbEntity
  8
ARMATUR
390
0
  6
DURCHGEHEND
 62
     1
100
AcDbLine
 10
204.729416
 20
170.611511
 30
0.0
 11
205.081009
 21
160.542633
 31
0.0
  0
LINE
  5
487
100
AcDbEntity
  8
ARMATUR
390
0
  6
DURCHGEHEND
 62
     1
100
AcDbLine
 10
194.33757
 20
160.16745
 30
0.0
 11
194.285446
 21
161.660217
 31
0.0
  0
LINE
  5
488
100
AcDbEntity
  8
ARMATUR
390
0
  6
DURCHGEHEND
 62
     1
100
AcDbLine
 10
194.13063
 20
170.391479
 30
0.0
 11
204.574265
 21
170.756165
 31
0.0
  0
LINE
  5
489
100
AcDbEntity
  8
ARMATUR
390
0
  6
DURCHGEHEND
 62
     1
100
AcDbLine
 10
204.936356
 20
160.387482
 30
0.0
 11
194.492722
 21
160.022797
 31
0.0
  0
LINE
  5
48A
100
AcDbEntity
  8
ARMATUR
390
0
  6
DURCHGEHEND
 62
     1
100
AcDbLine
 10
194.186691
 20
161.779266
 30
0.0
 11
194.215836
 21
161.824524
 31
0.0
  0
LINE
  5
48B
100
AcDbEntity
  8
ARMATUR
390
0
  6
DURCHGEHEND
 62
     1
100
AcDbLine
 10
194.215836
 20
161.824524
 30
0.0
 11
194.343155
 21
162.022827
 31
0.0
  0
LINE
  5
48C
100
AcDbEntity
  8
ARMATUR
390
0
  6
DURCHGEHEND
 62
     1
100
AcDbLine
 10
194.343155
 20
162.022827
 30
0.0
 11
194.406052
 21
162.123932
 31
0.0
  0
LINE
  5
48D
100
AcDbEntity
  8
ARMATUR
390
0
  6
DURCHGEHEND
 62
     1
100
AcDbLine
 10
194.406052
 20
162.123932
 30
0.0
 11
194.479172
 21
162.243896
 31
0.0
  0
LINE
  5
48E
100
AcDbEntity
  8
ARMATUR
390
0
  6
DURCHGEHEND
 62
     1
100
AcDbLine
 10
194.479172
 20
162.243896
 30
0.0
 11
194.562454
 21
162.383392
 31
0.0
  0
LINE
  5
48F
100
AcDbEntity
  8
ARMATUR
390
0
  6
DURCHGEHEND
 62
     1
100
AcDbLine
 10
194.562454
 20
162.383392
 30
0.0
 11
194.722092
 21
162.6604
 31
0.0
  0
LINE
  5
490
100
AcDbEntity
  8
ARMATUR
390
0
  6
DURCHGEHEND
 62
     1
100
AcDbLine
 10
194.722092
 20
162.6604
 30
0.0
 11
194.911606
 21
163.015381
 31
0.0
  0
LINE
  5
491
100
AcDbEntity
  8
ARMATUR
390
0
  6
DURCHGEHEND
 62
     1
100
AcDbLine
 10
194.911606
 20
163.015381
 30
0.0
 11
195.09465
 21
163.39386
 31
0.0
  0
LINE
  5
492
100
AcDbEntity
  8
ARMATUR
390
0
  6
DURCHGEHEND
 62
     1
100
AcDbLine
 10
195.09465
 20
163.39386
 30
0.0
 11
195.368332
 21
164.094208
 31
0.0
  0
LINE
  5
493
100
AcDbEntity
  8
ARMATUR
390
0
  6
DURCHGEHEND
 62
     1
100
AcDbLine
 10
195.368332
 20
164.094208
 30
0.0
 11
195.434555
 21
164.315674
 31
0.0
  0
LINE
  5
494
100
AcDbEntity
  8
ARMATUR
390
0
  6
DURCHGEHEND
 62
     1
100
AcDbLine
 10
195.434555
 20
164.315674
 30
0.0
 11
195.488358
 21
164.527771
 31
0.0
  0
LINE
  5
495
100
AcDbEntity
  8
ARMATUR
390
0
  6
DURCHGEHEND
 62
     1
100
AcDbLine
 10
195.488358
 20
164.527771
 30
0.0
 11
195.529831
 21
164.729004
 31
0.0
  0
LINE
  5
496
100
AcDbEntity
  8
ARMATUR
390
0
  6
DURCHGEHEND
 62
     1
100
AcDbLine
 10
195.529831
 20
164.729004
 30
0.0
 11
195.594162
 21
165.483582
 31
0.0
  0
LINE
  5
497
100
AcDbEntity
  8
ARMATUR
390
0
  6
DURCHGEHEND
 62
     1
100
AcDbLine
 10
195.594162
 20
165.483582
 30
0.0
 11
195.512527
 21
166.214264
 31
0.0
  0
LINE
  5
498
100
AcDbEntity
  8
ARMATUR
390
0
  6
DURCHGEHEND
 62
     1
100
AcDbLine
 10
195.512527
 20
166.214264
 30
0.0
 11
195.417618
 21
166.587677
 31
0.0
  0
LINE
  5
499
100
AcDbEntity
  8
ARMATUR
390
0
  6
DURCHGEHEND
 62
     1
100
AcDbLine
 10
195.417618
 20
166.587677
 30
0.0
 11
195.313248
 21
166.893982
 31
0.0
  0
LINE
  5
49A
100
AcDbEntity
  8
ARMATUR
390
0
  6
DURCHGEHEND
 62
     1
100
AcDbLine
 10
195.313248
 20
166.893982
 30
0.0
 11
195.179214
 21
167.219452
 31
0.0
  0
LINE
  5
49B
100
AcDbEntity
  8
ARMATUR
390
0
  6
DURCHGEHEND
 62
     1
100
AcDbLine
 10
195.179214
 20
167.219452
 30
0.0
 11
195.099991
 21
167.390747
 31
0.0
  0
LINE
  5
49C
100
AcDbEntity
  8
ARMATUR
390
0
  6
DURCHGEHEND
 62
     1
100
AcDbLine
 10
195.099991
 20
167.390747
 30
0.0
 11
195.057358
 21
167.477997
 31
0.0
  0
LINE
  5
49D
100
AcDbEntity
  8
ARMATUR
390
0
  6
DURCHGEHEND
 62
     1
100
AcDbLine
 10
195.057358
 20
167.477997
 30
0.0
 11
195.035263
 21
167.521942
 31
0.0
  0
LINE
  5
49E
100
AcDbEntity
  8
ARMATUR
390
0
  6
DURCHGEHEND
 62
     1
100
AcDbLine
 10
195.035263
 20
167.521942
 30
0.0
 11
195.024033
 21
167.544006
 31
0.0
  0
LINE
  5
49F
100
AcDbEntity
  8
ARMATUR
390
0
  6
DURCHGEHEND
 62
     1
100
AcDbLine
 10
195.024033
 20
167.544006
 30
0.0
 11
195.018387
 21
167.555023
 31
0.0
  0
LINE
  5
4A0
100
AcDbEntity
  8
ARMATUR
390
0
  6
DURCHGEHEND
 62
     1
100
AcDbLine
 10
195.018387
 20
167.555023
 30
0.0
 11
195.015518
 21
167.560547
 31
0.0
  0
LINE
  5
4A1
100
AcDbEntity
  8
ARMATUR
390
0
  6
DURCHGEHEND
 62
     1
100
AcDbLine
 10
195.015518
 20
167.560547
 30
0.0
 11
195.014114
 21
167.563324
 31
0.0
  0
LINE
  5
4A2
100
AcDbEntity
  8
ARMATUR
390
0
  6
DURCHGEHEND
 62
     1
100
AcDbLine
 10
195.014114
 20
167.563324
 30
0.0
 11
195.013382
 21
167.564697
 31
0.0
  0
LINE
  5
4A3
100
AcDbEntity
  8
ARMATUR
390
0
  6
DURCHGEHEND
 62
     1
100
AcDbLine
 10
195.013382
 20
167.564697
 30
0.0
 11
195.013046
 21
167.565399
 31
0.0
  0
LINE
  5
4A4
100
AcDbEntity
  8
ARMATUR
390
0
  6
DURCHGEHEND
 62
     1
100
AcDbLine
 10
195.013046
 20
167.565399
 30
0.0
 11
195.012863
 21
167.565735
 31
0.0
  0
LINE
  5
4A5
100
AcDbEntity
  8
ARMATUR
390
0
  6
DURCHGEHEND
 62
     1
100
AcDbLine
 10
195.012863
 20
167.565735
 30
0.0
 11
195.012772
 21
167.565918
 31
0.0
  0
LINE
  5
4A6
100
AcDbEntity
  8
ARMATUR
390
0
  6
DURCHGEHEND
 62
     1
100
AcDbLine
 10
195.012772
 20
167.565918
 30
0.0
 11
195.012741
 21
167.56601
 31
0.0
  0
LINE
  5
4A7
100
AcDbEntity
  8
ARMATUR
390
0
  6
DURCHGEHEND
 62
     1
100
AcDbLine
 10
195.012741
 20
167.56601
 30
0.0
 11
195.012711
 21
167.56604
 31
0.0
  0
LINE
  5
4A8
100
AcDbEntity
  8
ARMATUR
390
0
  6
DURCHGEHEND
 62
     1
100
AcDbLine
 10
195.01268
 20
167.566071
 30
0.0
 11
195.009781
 21
167.571625
 31
0.0
  0
LINE
  5
4A9
100
AcDbEntity
  8
ARMATUR
390
0
  6
DURCHGEHEND
 62
     1
100
AcDbLine
 10
195.009781
 20
167.571625
 30
0.0
 11
194.987869
 21
167.612976
 31
0.0
  0
LINE
  5
4AA
100
AcDbEntity
  8
ARMATUR
390
0
  6
DURCHGEHEND
 62
     1
100
AcDbLine
 10
194.987869
 20
167.612976
 30
0.0
 11
194.893845
 21
167.785645
 31
0.0
  0
LINE
  5
4AB
100
AcDbEntity
  8
ARMATUR
390
0
  6
DURCHGEHEND
 62
     1
100
AcDbLine
 10
194.893845
 20
167.785645
 30
0.0
 11
194.731216
 21
168.067322
 31
0.0
  0
LINE
  5
4AC
100
AcDbEntity
  8
ARMATUR
390
0
  6
DURCHGEHEND
 62
     1
100
AcDbLine
 10
194.731216
 20
168.067322
 30
0.0
 11
194.59816
 21
168.282043
 31
0.0
  0
LINE
  5
4AD
100
AcDbEntity
  8
ARMATUR
390
0
  6
DURCHGEHEND
 62
     1
100
AcDbLine
 10
194.59816
 20
168.282043
 30
0.0
 11
194.492996
 21
168.444244
 31
0.0
  0
LINE
  5
4AE
100
AcDbEntity
  8
ARMATUR
390
0
  6
DURCHGEHEND
 62
     1
100
AcDbLine
 10
194.492996
 20
168.444244
 30
0.0
 11
194.40538
 21
168.574921
 31
0.0
  0
LINE
  5
4AF
100
AcDbEntity
  8
ARMATUR
390
0
  6
DURCHGEHEND
 62
     1
100
AcDbLine
 10
194.40538
 20
168.574921
 30
0.0
 11
194.145004
 21
168.94751
 31
0.0
  0
LINE
  5
4B0
100
AcDbEntity
  8
ARMATUR
390
0
  6
DURCHGEHEND
 62
     1
100
AcDbLine
 10
194.145004
 20
168.94751
 30
0.0
 11
194.052597
 21
169.073425
 31
0.0
  0
LINE
  5
4B1
100
AcDbEntity
  8
ARMATUR
390
0
  6
DURCHGEHEND
 62
     1
100
AcDbLine
 10
194.052597
 20
169.073425
 30
0.0
 11
193.985184
 21
169.163544
 31
0.0
  0
LINE
  5
4B2
100
AcDbEntity
  8
ARMATUR
390
0
  6
DURCHGEHEND
 62
     1
100
AcDbLine
 10
193.985184
 20
169.163544
 30
0.0
 11
193.915298
 21
169.257141
 31
0.0
  0
LINE
  5
4B3
100
AcDbEntity
  8
ARMATUR
390
0
  6
DURCHGEHEND
 62
     1
100
AcDbLine
 10
193.915298
 20
169.257141
 30
0.0
 11
193.914444
 21
169.25824
 31
0.0
  0
LINE
  5
4B4
100
AcDbEntity
  8
ARMATUR
390
0
  6
DURCHGEHEND
 62
     1
100
AcDbLine
 10
193.914444
 20
169.25824
 30
0.0
 11
165.81218
 21
168.276886
 31
0.0
  0
LINE
  5
4B5
100
AcDbEntity
  8
ARMATUR
390
0
  6
DURCHGEHEND
 62
     1
100
AcDbLine
 10
166.073929
 20
160.781464
 30
0.0
 11
194.176193
 21
161.762817
 31
0.0
  0
LINE
  5
4B6
100
AcDbEntity
  8
ARMATUR
390
0
  6
DURCHGEHEND
 62
     1
100
AcDbLine
 10
165.918777
 20
160.926117
 30
0.0
 11
165.667496
 21
168.121735
 31
0.0
  0
LINE
  5
4B7
100
AcDbEntity
  8
ARMATUR
390
0
  6
DURCHGEHEND
 62
     1
100
AcDbLine
 10
194.297134
 20
161.678284
 30
0.0
 11
194.307266
 21
161.69397
 31
0.0
  0
LINE
  5
4B8
100
AcDbEntity
  8
ARMATUR
390
0
  6
DURCHGEHEND
 62
     1
100
AcDbLine
 10
165.468338
 20
164.512604
 30
0.0
 11
165.342697
 21
168.110382
 31
0.0
  0
LINE
  5
4B9
100
AcDbEntity
  8
ARMATUR
390
0
  6
DURCHGEHEND
 62
     1
100
AcDbLine
 10
165.593979
 20
160.914795
 30
0.0
 11
165.468338
 21
164.512604
 31
0.0
  0
LINE
  5
4BA
100
AcDbEntity
  8
ARMATUR
390
0
  6
DURCHGEHEND
 62
     1
100
AcDbLine
 10
140.941574
 20
119.239395
 30
0.0
 11
144.691574
 21
119.239395
 31
0.0
  0
LINE
  5
4BB
100
AcDbEntity
  8
ARMATUR
390
0
  6
DURCHGEHEND
 62
     1
100
AcDbLine
 10
161.07695
 20
160.606964
 30
0.0
 11
161.119278
 21
160.617004
 31
0.0
  0
LINE
  5
4BC
100
AcDbEntity
  8
ARMATUR
390
0
  6
DURCHGEHEND
 62
     1
100
AcDbLine
 10
161.119278
 20
160.617004
 30
0.0
 11
161.241013
 21
160.643341
 31
0.0
  0
LINE
  5
4BD
100
AcDbEntity
  8
ARMATUR
390
0
  6
DURCHGEHEND
 62
     1
100
AcDbLine
 10
161.241013
 20
160.643341
 30
0.0
 11
161.431625
 21
160.676575
 31
0.0
  0
LINE
  5
4BE
100
AcDbEntity
  8
ARMATUR
390
0
  6
DURCHGEHEND
 62
     1
100
AcDbLine
 10
161.431625
 20
160.676575
 30
0.0
 11
161.672256
 21
160.704498
 31
0.0
  0
LINE
  5
4BF
100
AcDbEntity
  8
ARMATUR
390
0
  6
DURCHGEHEND
 62
     1
100
AcDbLine
 10
161.672256
 20
160.704498
 30
0.0
 11
161.930618
 21
160.716858
 31
0.0
  0
LINE
  5
4C0
100
AcDbEntity
  8
ARMATUR
390
0
  6
DURCHGEHEND
 62
     1
100
AcDbLine
 10
161.930618
 20
160.716858
 30
0.0
 11
162.176315
 21
160.711761
 31
0.0
  0
LINE
  5
4C1
100
AcDbEntity
  8
ARMATUR
390
0
  6
DURCHGEHEND
 62
     1
100
AcDbLine
 10
162.176315
 20
160.711761
 30
0.0
 11
162.387833
 21
160.694458
 31
0.0
  0
LINE
  5
4C2
100
AcDbEntity
  8
ARMATUR
390
0
  6
DURCHGEHEND
 62
     1
100
AcDbLine
 10
162.387833
 20
160.694458
 30
0.0
 11
162.543045
 21
160.674316
 31
0.0
  0
LINE
  5
4C3
100
AcDbEntity
  8
ARMATUR
390
0
  6
DURCHGEHEND
 62
     1
100
AcDbLine
 10
162.543045
 20
160.674316
 30
0.0
 11
162.619827
 21
160.662109
 31
0.0
  0
LINE
  5
4C4
100
AcDbEntity
  8
ARMATUR
390
0
  6
DURCHGEHEND
 62
     1
100
AcDbLine
 10
162.619827
 20
160.662109
 30
0.0
 11
162.615829
 21
160.662781
 31
0.0
  0
LINE
  5
4C5
100
AcDbEntity
  8
ARMATUR
390
0
  6
DURCHGEHEND
 62
     1
100
AcDbLine
 10
165.343399
 20
164.50824
 30
0.0
 11
165.474289
 21
160.760498
 31
0.0
  0
LINE
  5
4C6
100
AcDbEntity
  8
ARMATUR
390
0
  6
DURCHGEHEND
 62
     1
100
AcDbLine
 10
165.21254
 20
168.255951
 30
0.0
 11
165.343399
 21
164.50824
 31
0.0
  0
LINE
  5
4C7
100
AcDbEntity
  8
ARMATUR
390
0
  6
DURCHGEHEND
 62
     1
100
AcDbLine
 10
140.941574
 20
119.239395
 30
0.0
 11
146.962509
 21
119.239395
 31
0.0
  0
LINE
  5
4C8
100
AcDbEntity
  8
ARMATUR
390
0
  6
DURCHGEHEND
 62
     1
100
AcDbLine
 10
134.92067
 20
119.239395
 30
0.0
 11
140.941574
 21
119.239395
 31
0.0
  0
LINE
  5
4C9
100
AcDbEntity
  8
ARMATUR
390
0
  6
DURCHGEHEND
 62
     1
100
AcDbLine
 10
134.691574
 20
85.239395
 30
0.0
 11
147.191574
 21
85.239395
 31
0.0
  0
LINE
  5
4CA
100
AcDbEntity
  8
ARMATUR
390
0
  6
DURCHGEHEND
 62
     1
100
AcDbLine
 10
165.856003
 20
161.290955
 30
0.0
 11
165.581161
 21
161.281372
 31
0.0
  0
LINE
  5
4CB
100
AcDbEntity
  8
ARMATUR
390
0
  6
DURCHGEHEND
 62
     1
100
AcDbLine
 10
194.325882
 20
161.722748
 30
0.0
 11
194.306076
 21
161.692108
 31
0.0
  0
ARC
  5
4CC
100
AcDbEntity
  8
ARMATUR
390
0
  6
DURCHGEHEND
 62
     1
100
AcDbCircle
 10
196.385208
 20
158.838104
 30
0.0
 40
0.25
100
AcDbArc
 50
182.0
 51
272.0
  0
ARC
  5
4CD
100
AcDbEntity
  8
ARMATUR
390
0
  6
DURCHGEHEND
 62
     1
100
AcDbCircle
 10
203.131088
 20
159.0737
 30
0.0
 40
0.25
100
AcDbArc
 50
0.0
 51
2.0
  0
ARC
  5
4CE
100
AcDbEntity
  8
ARMATUR
390
0
  6
DURCHGEHEND
 62
     1
100
AcDbCircle
 10
203.131088
 20
159.0737
 30
0.0
 40
0.25
100
AcDbArc
 50
272.0
 51
360.0
  0
ELLIPSE
  5
4CF
100
AcDbEntity
  8
ARMATUR
390
0
  6
DURCHGEHEND
 62
     1
100
AcDbEllipse
 10
193.922684
 20
169.348267
 30
0.0
 11
0.1058390289545059
 21
0.003472947758562
 31
0.0
210
0.0
220
0.0
230
1.0
 40
0.999764
 41
4.7123889804000001
 42
6.2831853072000001
  0
ELLIPSE
  5
4D0
100
AcDbEntity
  8
ARMATUR
390
0
  6
DURCHGEHEND
 62
     1
100
AcDbEllipse
 10
194.189713
 20
161.672607
 30
0.0
 11
-0.0043471157550812
 21
0.1064634102272211
 31
0.0
210
0.0
220
0.0
230
1.0
 40
0.999765
 41
4.7123889804000001
 42
6.2737433358712025
  0
ARC
  5
4D1
100
AcDbEntity
  8
ARMATUR
390
0
  6
DURCHGEHEND
 62
     1
100
AcDbCircle
 10
193.922745
 20
169.348236
 30
0.0
 40
0.105652
100
AcDbArc
 50
0.0
 51
2.157
  0
ARC
  5
4D2
100
AcDbEntity
  8
ARMATUR
390
0
  6
DURCHGEHEND
 62
     1
100
AcDbCircle
 10
193.922745
 20
169.348236
 30
0.0
 40
0.105652
100
AcDbArc
 50
271.709015
 51
360.0
  0
ELLIPSE
  5
4D3
100
AcDbEntity
  8
ARMATUR
390
0
  6
DURCHGEHEND
 62
     1
100
AcDbEllipse
 10
194.189346
 20
161.672089
 30
0.0
 11
0.1066105738282204
 21
0.0044811683361297
 31
0.0
210
0.0
220
0.0
230
1.0
 40
0.999766
 41
0.0
 42
1.558962969970358
  0
ARC
  5
4D4
100
AcDbEntity
  8
ARMATUR
390
0
  6
DURCHGEHEND
 62
     1
100
AcDbCircle
 10
157.941574
 20
147.23938
 30
0.0
 40
13.25
100
AcDbArc
 50
92.0
 51
180.0
  0
ARC
  5
4D5
100
AcDbEntity
  8
ARMATUR
390
0
  6
DURCHGEHEND
 62
     1
100
AcDbCircle
 10
157.941574
 20
147.23938
 30
0.0
 40
20.749996
100
AcDbArc
 50
92.0
 51
180.0
  0
ARC
  5
4D6
100
AcDbEntity
  8
ARMATUR
390
0
  6
DURCHGEHEND
 62
     1
100
AcDbCircle
 10
134.92067
 20
118.989395
 30
0.0
 40
0.25
100
AcDbArc
 50
90.0
 51
156.395004
  0
ARC
  5
4D7
100
AcDbEntity
  8
ARMATUR
390
0
  6
DURCHGEHEND
 62
     1
100
AcDbCircle
 10
146.962509
 20
118.989395
 30
0.0
 40
0.25
100
AcDbArc
 50
23.604
 51
89.999001
  0
ARC
  5
4D8
100
AcDbEntity
  8
ARMATUR
390
0
  6
DURCHGEHEND
 62
     1
100
AcDbCircle
 10
194.13588
 20
170.241547
 30
0.0
 40
0.149994
100
AcDbArc
 50
92.005997
 51
182.005997
  0
ARC
  5
4D9
100
AcDbEntity
  8
ARMATUR
390
0
  6
DURCHGEHEND
 62
     1
100
AcDbCircle
 10
204.579514
 20
170.606262
 30
0.0
 40
0.149994
100
AcDbArc
 50
1.996
 51
91.996002
  0
ARC
  5
4DA
100
AcDbEntity
  8
ARMATUR
390
0
  6
DURCHGEHEND
 62
     1
100
AcDbCircle
 10
204.931107
 20
160.537384
 30
0.0
 40
0.149994
100
AcDbArc
 50
0.0
 51
1.996
  0
ARC
  5
4DB
100
AcDbEntity
  8
ARMATUR
390
0
  6
DURCHGEHEND
 62
     1
100
AcDbCircle
 10
204.931107
 20
160.537384
 30
0.0
 40
0.149994
100
AcDbArc
 50
271.996002
 51
360.0
  0
ARC
  5
4DC
100
AcDbEntity
  8
ARMATUR
390
0
  6
DURCHGEHEND
 62
     1
100
AcDbCircle
 10
194.487473
 20
160.172699
 30
0.0
 40
0.149994
100
AcDbArc
 50
181.996002
 51
271.996002
  0
ELLIPSE
  5
4DD
100
AcDbEntity
  8
ARMATUR
390
0
  6
DURCHGEHEND
 62
     1
100
AcDbEllipse
 10
193.911697
 20
169.362976
 30
0.0
 11
0.0030804178677499
 21
-0.1054542862352448
 31
0.0
210
0.0
220
0.0
230
1.0
 40
0.999763
 41
0.0
 42
1.5818268737190351
  0
ELLIPSE
  5
4DE
100
AcDbEntity
  8
ARMATUR
390
0
  6
DURCHGEHEND
 62
     1
100
AcDbEllipse
 10
194.179459
 20
161.65683
 30
0.0
 11
0.1060148254036903
 21
0.0036923005568137
 31
0.0
210
0.0
220
0.0
230
1.0
 40
0.999764
 41
0.0
 42
1.5709708970094554
  0
ARC
  5
4DF
100
AcDbEntity
  8
ARMATUR
390
0
  6
DURCHGEHEND
 62
     1
100
AcDbCircle
 10
165.817398
 20
168.126984
 30
0.0
 40
0.150009
100
AcDbArc
 50
91.996002
 51
181.996002
  0
ARC
  5
4E0
100
AcDbEntity
  8
ARMATUR
390
0
  6
DURCHGEHEND
 62
     1
100
AcDbCircle
 10
166.06868
 20
160.931366
 30
0.0
 40
0.149994
100
AcDbArc
 50
181.996002
 51
271.996002
  0
LINE
  5
4E1
100
AcDbEntity
  8
ARMATUR
390
0
  6
DURCHGEHEND
 62
     3
100
AcDbLine
 10
137.129654
 20
85.040932
 30
0.0
 11
137.129654
 21
81.790932
 31
0.0
  0
LINE
  5
4E2
100
AcDbEntity
  8
ARMATUR
390
0
  6
DURCHGEHEND
 62
     3
100
AcDbLine
 10
144.74382
 20
85.040932
 30
0.0
 11
144.74382
 21
81.790932
 31
0.0
  0
LINE
  5
4E3
100
AcDbEntity
  8
ACHSEN
390
0
  6
STRICHPUNKTIERT
 62
     4
100
AcDbLine
 10
140.991684
 20
54.986137
 30
0.0
 11
140.991684
 21
147.564423
 31
0.0
  0
LINE
  5
4E4
100
AcDbEntity
  8
ACHSEN
390
0
  6
STRICHPUNKTIERT
 62
     4
100
AcDbLine
 10
73.248947
 20
26.453697
 30
0.0
 11
73.248947
 21
172.11676
 31
0.0
  0
LINE
  5
4E5
100
AcDbEntity
  8
ACHSEN
390
0
  6
STRICHPUNKTIERT
 62
     4
100
AcDbLine
 10
67.421738
 20
33.145966
 30
0.0
 11
79.679977
 21
33.145966
 31
0.0
  0
LINE
  5
4E6
100
AcDbEntity
  8
ACHSEN
390
0
  6
STRICHPUNKTIERT
 62
     4
100
AcDbLine
 10
199.866226
 20
157.35321
 30
0.0
 11
199.381821
 21
171.224792
 31
0.0
  0
POLYLINE
  5
4E7
100
AcDbEntity
  8
TEXT
390
0
  6
DURCHGEHEND
 62
     9
100
AcDb2dPolyline
 66
     1
 10
0.0
 20
0.0
 30
0.0
 75
     5
  0
VERTEX
  5
4E8
100
AcDbEntity
  8
0
390
0
100
AcDbVertex
100
AcDb2dVertex
 10
49.783562
 20
142.42627
 30
0.0
  0
VERTEX
  5
4E9
100
AcDbEntity
  8
0
390
0
100
AcDbVertex
100
AcDb2dVertex
 10
49.789654
 20
142.576981
 30
0.0
  0
VERTEX
  5
4EA
100
AcDbEntity
  8
0
390
0
100
AcDbVertex
100
AcDb2dVertex
 10
49.807613
 20
142.724335
 30
0.0
  0
VERTEX
  5
4EB
100
AcDbEntity
  8
0
390
0
100
AcDbVertex
100
AcDb2dVertex
 10
49.836964
 20
142.867859
 30
0.0
  0
VERTEX
  5
4EC
100
AcDbEntity
  8
0
390
0
100
AcDbVertex
100
AcDb2dVertex
 10
49.877239
 20
143.00708
 30
0.0
  0
VERTEX
  5
4ED
100
AcDbEntity
  8
0
390
0
100
AcDbVertex
100
AcDb2dVertex
 10
49.927963
 20
143.141525
 30
0.0
  0
VERTEX
  5
4EE
100
AcDbEntity
  8
0
390
0
100
AcDbVertex
100
AcDb2dVertex
 10
49.988663
 20
143.270721
 30
0.0
  0
VERTEX
  5
4EF
100
AcDbEntity
  8
0
390
0
100
AcDbVertex
100
AcDb2dVertex
 10
50.058865
 20
143.394211
 30
0.0
  0
VERTEX
  5
4F0
100
AcDbEntity
  8
0
390
0
100
AcDbVertex
100
AcDb2dVertex
 10
50.1381
 20
143.511505
 30
0.0
  0
VERTEX
  5
4F1
100
AcDbEntity
  8
0
390
0
100
AcDbVertex
100
AcDb2dVertex
 10
50.225887
 20
143.622116
 30
0.0
  0
VERTEX
  5
4F2
100
AcDbEntity
  8
0
390
0
100
AcDbVertex
100
AcDb2dVertex
 10
50.321762
 20
143.725601
 30
0.0
  0
VERTEX
  5
4F3
100
AcDbEntity
  8
0
390
0
100
AcDbVertex
100
AcDb2dVertex
 10
50.425247
 20
143.821472
 30
0.0
  0
VERTEX
  5
4F4
100
AcDbEntity
  8
0
390
0
100
AcDbVertex
100
AcDb2dVertex
 10
50.53587
 20
143.909271
 30
0.0
  0
VERTEX
  5
4F5
100
AcDbEntity
  8
0
390
0
100
AcDbVertex
100
AcDb2dVertex
 10
50.65316
 20
143.988495
 30
0.0
  0
VERTEX
  5
4F6
100
AcDbEntity
  8
0
390
0
100
AcDbVertex
100
AcDb2dVertex
 10
50.776642
 20
144.058701
 30
0.0
  0
VERTEX
  5
4F7
100
AcDbEntity
  8
0
390
0
100
AcDbVertex
100
AcDb2dVertex
 10
50.905842
 20
144.1194
 30
0.0
  0
VERTEX
  5
4F8
100
AcDbEntity
  8
0
390
0
100
AcDbVertex
100
AcDb2dVertex
 10
51.040287
 20
144.17012
 30
0.0
  0
VERTEX
  5
4F9
100
AcDbEntity
  8
0
390
0
100
AcDbVertex
100
AcDb2dVertex
 10
51.179508
 20
144.210388
 30
0.0
  0
VERTEX
  5
4FA
100
AcDbEntity
  8
0
390
0
100
AcDbVertex
100
AcDb2dVertex
 10
51.323032
 20
144.239746
 30
0.0
  0
VERTEX
  5
4FB
100
AcDbEntity
  8
0
390
0
100
AcDbVertex
100
AcDb2dVertex
 10
51.470383
 20
144.257706
 30
0.0
  0
VERTEX
  5
4FC
100
AcDbEntity
  8
0
390
0
100
AcDbVertex
100
AcDb2dVertex
 10
51.621086
 20
144.263794
 30
0.0
  0
VERTEX
  5
4FD
100
AcDbEntity
  8
0
390
0
100
AcDbVertex
100
AcDb2dVertex
 10
51.77179
 20
144.257706
 30
0.0
  0
VERTEX
  5
4FE
100
AcDbEntity
  8
0
390
0
100
AcDbVertex
100
AcDb2dVertex
 10
51.919144
 20
144.239746
 30
0.0
  0
VERTEX
  5
4FF
100
AcDbEntity
  8
0
390
0
100
AcDbVertex
100
AcDb2dVertex
 10
52.062668
 20
144.210388
 30
0.0
  0
VERTEX
  5
500
100
AcDbEntity
  8
0
390
0
100
AcDbVertex
100
AcDb2dVertex
 10
52.201889
 20
144.17012
 30
0.0
  0
VERTEX
  5
501
100
AcDbEntity
  8
0
390
0
100
AcDbVertex
100
AcDb2dVertex
 10
52.336342
 20
144.1194
 30
0.0
  0
VERTEX
  5
502
100
AcDbEntity
  8
0
390
0
100
AcDbVertex
100
AcDb2dVertex
 10
52.465546
 20
144.058701
 30
0.0
  0
VERTEX
  5
503
100
AcDbEntity
  8
0
390
0
100
AcDbVertex
100
AcDb2dVertex
 10
52.589031
 20
143.988495
 30
0.0
  0
VERTEX
  5
504
100
AcDbEntity
  8
0
390
0
100
AcDbVertex
100
AcDb2dVertex
 10
52.706322
 20
143.909271
 30
0.0
  0
VERTEX
  5
505
100
AcDbEntity
  8
0
390
0
100
AcDbVertex
100
AcDb2dVertex
 10
52.816952
 20
143.821472
 30
0.0
  0
VERTEX
  5
506
100
AcDbEntity
  8
0
390
0
100
AcDbVertex
100
AcDb2dVertex
 10
52.920441
 20
143.725601
 30
0.0
  0
VERTEX
  5
507
100
AcDbEntity
  8
0
390
0
100
AcDbVertex
100
AcDb2dVertex
 10
53.016319
 20
143.622116
 30
0.0
  0
VERTEX
  5
508
100
AcDbEntity
  8
0
390
0
100
AcDbVertex
100
AcDb2dVertex
 10
53.104115
 20
143.511505
 30
0.0
  0
VERTEX
  5
509
100
AcDbEntity
  8
0
390
0
100
AcDbVertex
100
AcDb2dVertex
 10
53.18335
 20
143.394211
 30
0.0
  0
VERTEX
  5
50A
100
AcDbEntity
  8
0
390
0
100
AcDbVertex
100
AcDb2dVertex
 10
53.253555
 20
143.270721
 30
0.0
  0
VERTEX
  5
50B
100
AcDbEntity
  8
0
390
0
100
AcDbVertex
100
AcDb2dVertex
 10
53.314259
 20
143.141525
 30
0.0
  0
VERTEX
  5
50C
100
AcDbEntity
  8
0
390
0
100
AcDbVertex
100
AcDb2dVertex
 10
53.364986
 20
143.00708
 30
0.0
  0
VERTEX
  5
50D
100
AcDbEntity
  8
0
390
0
100
AcDbVertex
100
AcDb2dVertex
 10
53.405266
 20
142.867859
 30
0.0
  0
VERTEX
  5
50E
100
AcDbEntity
  8
0
390
0
100
AcDbVertex
100
AcDb2dVertex
 10
53.43462
 20
142.724335
 30
0.0
  0
VERTEX
  5
50F
100
AcDbEntity
  8
0
390
0
100
AcDbVertex
100
AcDb2dVertex
 10
53.452579
 20
142.576981
 30
0.0
  0
VERTEX
  5
510
100
AcDbEntity
  8
0
390
0
100
AcDbVertex
100
AcDb2dVertex
 10
53.458672
 20
142.42627
 30
0.0
  0
VERTEX
  5
511
100
AcDbEntity
  8
0
390
0
100
AcDbVertex
100
AcDb2dVertex
 10
53.452579
 20
142.275558
 30
0.0
  0
VERTEX
  5
512
100
AcDbEntity
  8
0
390
0
100
AcDbVertex
100
AcDb2dVertex
 10
53.43462
 20
142.128204
 30
0.0
  0
VERTEX
  5
513
100
AcDbEntity
  8
0
390
0
100
AcDbVertex
100
AcDb2dVertex
 10
53.405266
 20
141.98468
 30
0.0
  0
VERTEX
  5
514
100
AcDbEntity
  8
0
390
0
100
AcDbVertex
100
AcDb2dVertex
 10
53.364986
 20
141.845459
 30
0.0
  0
VERTEX
  5
515
100
AcDbEntity
  8
0
390
0
100
AcDbVertex
100
AcDb2dVertex
 10
53.314259
 20
141.711014
 30
0.0
  0
VERTEX
  5
516
100
AcDbEntity
  8
0
390
0
100
AcDbVertex
100
AcDb2dVertex
 10
53.253555
 20
141.581818
 30
0.0
  0
VERTEX
  5
517
100
AcDbEntity
  8
0
390
0
100
AcDbVertex
100
AcDb2dVertex
 10
53.18335
 20
141.458328
 30
0.0
  0
VERTEX
  5
518
100
AcDbEntity
  8
0
390
0
100
AcDbVertex
100
AcDb2dVertex
 10
53.104115
 20
141.341034
 30
0.0
  0
VERTEX
  5
519
100
AcDbEntity
  8
0
390
0
100
AcDbVertex
100
AcDb2dVertex
 10
53.016319
 20
141.230423
 30
0.0
  0
VERTEX
  5
51A
100
AcDbEntity
  8
0
390
0
100
AcDbVertex
100
AcDb2dVertex
 10
52.920441
 20
141.126938
 30
0.0
  0
VERTEX
  5
51B
100
AcDbEntity
  8
0
390
0
100
AcDbVertex
100
AcDb2dVertex
 10
52.816952
 20
141.031067
 30
0.0
  0
VERTEX
  5
51C
100
AcDbEntity
  8
0
390
0
100
AcDbVertex
100
AcDb2dVertex
 10
52.706322
 20
140.943268
 30
0.0
  0
VERTEX
  5
51D
100
AcDbEntity
  8
0
390
0
100
AcDbVertex
100
AcDb2dVertex
 10
52.589031
 20
140.864044
 30
0.0
  0
VERTEX
  5
51E
100
AcDbEntity
  8
0
390
0
100
AcDbVertex
100
AcDb2dVertex
 10
52.465546
 20
140.793839
 30
0.0
  0
VERTEX
  5
51F
100
AcDbEntity
  8
0
390
0
100
AcDbVertex
100
AcDb2dVertex
 10
52.336342
 20
140.733139
 30
0.0
  0
VERTEX
  5
520
100
AcDbEntity
  8
0
390
0
100
AcDbVertex
100
AcDb2dVertex
 10
52.201889
 20
140.682419
 30
0.0
  0
VERTEX
  5
521
100
AcDbEntity
  8
0
390
0
100
AcDbVertex
100
AcDb2dVertex
 10
52.062668
 20
140.642151
 30
0.0
  0
VERTEX
  5
522
100
AcDbEntity
  8
0
390
0
100
AcDbVertex
100
AcDb2dVertex
 10
51.919144
 20
140.612793
 30
0.0
  0
VERTEX
  5
523
100
AcDbEntity
  8
0
390
0
100
AcDbVertex
100
AcDb2dVertex
 10
51.77179
 20
140.594833
 30
0.0
  0
VERTEX
  5
524
100
AcDbEntity
  8
0
390
0
100
AcDbVertex
100
AcDb2dVertex
 10
51.621086
 20
140.588745
 30
0.0
  0
VERTEX
  5
525
100
AcDbEntity
  8
0
390
0
100
AcDbVertex
100
AcDb2dVertex
 10
51.470383
 20
140.594833
 30
0.0
  0
VERTEX
  5
526
100
AcDbEntity
  8
0
390
0
100
AcDbVertex
100
AcDb2dVertex
 10
51.323032
 20
140.612793
 30
0.0
  0
VERTEX
  5
527
100
AcDbEntity
  8
0
390
0
100
AcDbVertex
100
AcDb2dVertex
 10
51.179508
 20
140.642151
 30
0.0
  0
VERTEX
  5
528
100
AcDbEntity
  8
0
390
0
100
AcDbVertex
100
AcDb2dVertex
 10
51.040287
 20
140.682419
 30
0.0
  0
VERTEX
  5
529
100
AcDbEntity
  8
0
390
0
100
AcDbVertex
100
AcDb2dVertex
 10
50.905842
 20
140.733139
 30
0.0
  0
VERTEX
  5
52A
100
AcDbEntity
  8
0
390
0
100
AcDbVertex
100
AcDb2dVertex
 10
50.776642
 20
140.793839
 30
0.0
  0
VERTEX
  5
52B
100
AcDbEntity
  8
0
390
0
100
AcDbVertex
100
AcDb2dVertex
 10
50.65316
 20
140.864044
 30
0.0
  0
VERTEX
  5
52C
100
AcDbEntity
  8
0
390
0
100
AcDbVertex
100
AcDb2dVertex
 10
50.53587
 20
140.943268
 30
0.0
  0
VERTEX
  5
52D
100
AcDbEntity
  8
0
390
0
100
AcDbVertex
100
AcDb2dVertex
 10
50.425247
 20
141.031067
 30
0.0
  0
VERTEX
  5
52E
100
AcDbEntity
  8
0
390
0
100
AcDbVertex
100
AcDb2dVertex
 10
50.321762
 20
141.126938
 30
0.0
  0
VERTEX
  5
52F
100
AcDbEntity
  8
0
390
0
100
AcDbVertex
100
AcDb2dVertex
 10
50.225887
 20
141.230423
 30
0.0
  0
VERTEX
  5
530
100
AcDbEntity
  8
0
390
0
100
AcDbVertex
100
AcDb2dVertex
 10
50.1381
 20
141.341034
 30
0.0
  0
VERTEX
  5
531
100
AcDbEntity
  8
0
390
0
100
AcDbVertex
100
AcDb2dVertex
 10
50.058865
 20
141.458328
 30
0.0
  0
VERTEX
  5
532
100
AcDbEntity
  8
0
390
0
100
AcDbVertex
100
AcDb2dVertex
 10
49.988663
 20
141.581818
 30
0.0
  0
VERTEX
  5
533
100
AcDbEntity
  8
0
390
0
100
AcDbVertex
100
AcDb2dVertex
 10
49.927963
 20
141.711014
 30
0.0
  0
VERTEX
  5
534
100
AcDbEntity
  8
0
390
0
100
AcDbVertex
100
AcDb2dVertex
 10
49.877239
 20
141.845459
 30
0.0
  0
VERTEX
  5
535
100
AcDbEntity
  8
0
390
0
100
AcDbVertex
100
AcDb2dVertex
 10
49.836964
 20
141.98468
 30
0.0
  0
VERTEX
  5
536
100
AcDbEntity
  8
0
390
0
100
AcDbVertex
100
AcDb2dVertex
 10
49.807613
 20
142.128204
 30
0.0
  0
VERTEX
  5
537
100
AcDbEntity
  8
0
390
0
100
AcDbVertex
100
AcDb2dVertex
 10
49.789654
 20
142.275558
 30
0.0
  0
VERTEX
  5
538
100
AcDbEntity
  8
0
390
0
100
AcDbVertex
100
AcDb2dVertex
 10
49.783562
 20
142.42627
 30
0.0
  0
SEQEND
  5
539
100
AcDbEntity
  8
0
390
0
  0
POLYLINE
  5
53A
100
AcDbEntity
  8
TEXT
390
0
  6
DURCHGEHEND
 62
     9
100
AcDb2dPolyline
 66
     1
 10
0.0
 20
0.0
 30
0.0
 75
     5
  0
VERTEX
  5
53B
100
AcDbEntity
  8
0
390
0
100
AcDbVertex
100
AcDb2dVertex
 10
53.602592
 20
144.407745
 30
0.0
  0
VERTEX
  5
53C
100
AcDbEntity
  8
0
390
0
100
AcDbVertex
100
AcDb2dVertex
 10
49.602592
 20
140.407776
 30
0.0
  0
SEQEND
  5
53D
100
AcDbEntity
  8
0
390
0
  0
TEXT
  5
53E
100
AcDbEntity
  8
TEXT
390
0
100
AcDbText
 10
56.006416
 20
139.743835
 30
0.0
 40
7.055555
  1
50
100
AcDbText
  0
TEXT
  5
53F
100
AcDbEntity
  8
TEXT
390
0
100
AcDbText
 10
213.005844
 20
115.295868
 30
0.0
 40
7.055555
  1
292
 50
90.0
100
AcDbText
  0
TEXT
  5
540
100
AcDbEntity
  8
TEXT
390
0
100
AcDbText
 10
163.504898
 20
184.889587
 30
0.0
 40
7.055555
  1
235
100
AcDbText
  0
TEXT
  5
541
100
AcDbEntity
  8
TEXT
390
0
100
AcDbText
 10
79.690308
 20
184.890442
 30
0.0
 40
7.055555
  1
84
100
AcDbText
  0
TEXT
  5
542
100
AcDbEntity
  8
TEXT
390
0
100
AcDbText
 10
227.587234
 20
121.480721
 30
0.0
 40
7.055555
  1
342
 50
90.0
100
AcDbText
  0
TEXT
  5
543
100
AcDbEntity
  8
TEXT
390
0
100
AcDbText
 10
49.332451
 20
45.98735
 30
0.0
 40
7.055555
  1
max. 40
 50
90.0
100
AcDbText
  0
LINE
  5
544
100
AcDbEntity
  8
TEXT
390
0
  6
DURCHGEHEND
 62
     9
100
AcDbLine
 10
85.458542
 20
31.583818
 30
0.0
 11
81.458542
 21
27.583788
 31
0.0
  0
CIRCLE
  5
545
100
AcDbEntity
  8
TEXT
390
0
  6
DURCHGEHEND
 62
     9
100
AcDbCircle
 10
83.477005
 20
29.602282
 30
0.0
 40
1.875
  0
TEXT
  5
546
100
AcDbEntity
  8
TEXT
390
0
100
AcDbText
 10
86.574875
 20
26.635012
 30
0.0
 40
7.055555
  1
35
100
AcDbText
  0
TEXT
  5
547
100
AcDbEntity
  8
TEXT
390
0
100
AcDbText
 10
147.975494
 20
47.514057
 30
0.0
 40
7.055555
  1
M 34x1
100
AcDbText
  0
LINE
  5
548
100
AcDbEntity
  8
BEMASSUNG
390
0
  6
DURCHGEHEND
 62
     3
100
AcDbLine
 10
215.770218
 20
158.439209
 30
0.0
 11
204.165604
 21
158.439209
 31
0.0
  0
LINE
  5
549
100
AcDbEntity
  8
BEMASSUNG
390
0
  6
DURCHGEHEND
 62
     3
100
AcDbLine
 10
214.607132
 20
159.627075
 30
0.0
 11
214.607132
 21
84.295654
 31
0.0
  0
LINE
  5
54A
100
AcDbEntity
  8
BEMASSUNG
390
0
  6
DURCHGEHEND
 62
     3
100
AcDbLine
 10
199.97728
 20
171.704498
 30
0.0
 11
199.97728
 21
184.942566
 31
0.0
  0
LINE
  5
54B
100
AcDbEntity
  8
BEMASSUNG
390
0
  6
DURCHGEHEND
 62
     3
100
AcDbLine
 10
140.991684
 20
161.787537
 30
0.0
 11
140.991684
 21
184.834412
 31
0.0
  0
LINE
  5
54C
100
AcDbEntity
  8
BEMASSUNG
390
0
  6
DURCHGEHEND
 62
     3
100
AcDbLine
 10
66.978271
 20
120.205444
 30
0.0
 11
66.978271
 21
139.493042
 31
0.0
  0
LINE
  5
54D
100
AcDbEntity
  8
BEMASSUNG
390
0
  6
DURCHGEHEND
 62
     3
100
AcDbLine
 10
79.619827
 20
120.614967
 30
0.0
 11
79.619827
 21
139.569031
 31
0.0
  0
LINE
  5
54E
100
AcDbEntity
  8
BEMASSUNG
390
0
  6
DURCHGEHEND
 62
     3
100
AcDbLine
 10
140.073929
 20
183.90271
 30
0.0
 11
200.863968
 21
183.90271
 31
0.0
  0
LINE
  5
54F
100
AcDbEntity
  8
BEMASSUNG
390
0
  6
DURCHGEHEND
 62
     3
100
AcDbLine
 10
48.996346
 20
138.51944
 30
0.0
 11
80.450119
 21
138.51944
 31
0.0
  0
LINE
  5
550
100
AcDbEntity
  8
BEMASSUNG
390
0
  6
DURCHGEHEND
 62
     3
100
AcDbLine
 10
73.223969
 20
173.331299
 30
0.0
 11
73.223969
 21
185.131897
 31
0.0
  0
LINE
  5
551
100
AcDbEntity
  8
BEMASSUNG
390
0
  6
DURCHGEHEND
 62
     3
100
AcDbLine
 10
94.239578
 20
133.114044
 30
0.0
 11
94.239578
 21
184.89267
 31
0.0
  0
LINE
  5
552
100
AcDbEntity
  8
BEMASSUNG
390
0
  6
DURCHGEHEND
 62
     3
100
AcDbLine
 10
95.256424
 20
183.927948
 30
0.0
 11
72.37973
 21
183.927948
 31
0.0
  0
LINE
  5
553
100
AcDbEntity
  8
BEMASSUNG
390
0
  6
DURCHGEHEND
 62
     3
100
AcDbLine
 10
229.699295
 20
170.73703
 30
0.0
 11
206.060562
 21
170.73703
 31
0.0
  0
LINE
  5
554
100
AcDbEntity
  8
BEMASSUNG
390
0
  6
DURCHGEHEND
 62
     3
100
AcDbLine
 10
50.436829
 20
86.540451
 30
0.0
 11
50.436829
 21
46.374878
 31
0.0
  0
LINE
  5
555
100
AcDbEntity
  8
BEMASSUNG
390
0
  6
DURCHGEHEND
 62
     3
100
AcDbLine
 10
59.969044
 20
85.239395
 30
0.0
 11
49.186821
 21
85.239395
 31
0.0
  0
LINE
  5
556
100
AcDbEntity
  8
BEMASSUNG
390
0
  6
DURCHGEHEND
 62
     3
100
AcDbLine
 10
66.845932
 20
76.902374
 30
0.0
 11
49.186905
 21
76.902374
 31
0.0
  0
LINE
  5
557
100
AcDbEntity
  8
BEMASSUNG
390
0
  6
DURCHGEHEND
 62
     3
100
AcDbLine
 10
51.320786
 20
76.018494
 30
0.0
 11
49.553024
 21
77.786255
 31
0.0
  0
LINE
  5
558
100
AcDbEntity
  8
BEMASSUNG
390
0
  6
DURCHGEHEND
 62
     3
100
AcDbLine
 10
51.320786
 20
84.501579
 30
0.0
 11
49.553024
 21
86.269341
 31
0.0
  0
LINE
  5
559
100
AcDbEntity
  8
BEMASSUNG
390
0
  6
DURCHGEHEND
 62
     3
100
AcDbLine
 10
229.441025
 20
169.8909
 30
0.0
 11
227.673264
 21
171.65863
 31
0.0
  0
LINE
  5
55A
100
AcDbEntity
  8
BEMASSUNG
390
0
  6
DURCHGEHEND
 62
     3
100
AcDbLine
 10
72.372406
 20
183.07605
 30
0.0
 11
74.075531
 21
184.779175
 31
0.0
  0
LINE
  5
55B
100
AcDbEntity
  8
BEMASSUNG
390
0
  6
DURCHGEHEND
 62
     3
100
AcDbLine
 10
93.396515
 20
183.07605
 30
0.0
 11
95.09964
 21
184.779175
 31
0.0
  0
LINE
  5
55C
100
AcDbEntity
  8
BEMASSUNG
390
0
  6
DURCHGEHEND
 62
     3
100
AcDbLine
 10
141.843246
 20
184.754059
 30
0.0
 11
140.140121
 21
183.050934
 31
0.0
  0
LINE
  5
55D
100
AcDbEntity
  8
BEMASSUNG
390
0
  6
DURCHGEHEND
 62
     3
100
AcDbLine
 10
200.790665
 20
184.738647
 30
0.0
 11
199.08754
 21
183.035522
 31
0.0
  0
LINE
  5
55E
100
AcDbEntity
  8
BEMASSUNG
390
0
  6
DURCHGEHEND
 62
     3
100
AcDbLine
 10
68.017578
 20
139.378693
 30
0.0
 11
66.314453
 21
137.675568
 31
0.0
  0
LINE
  5
55F
100
AcDbEntity
  8
BEMASSUNG
390
0
  6
DURCHGEHEND
 62
     3
100
AcDbLine
 10
80.339584
 20
139.355988
 30
0.0
 11
78.636459
 21
137.652863
 31
0.0
  0
LINE
  5
560
100
AcDbEntity
  8
BEMASSUNG
390
0
  6
DURCHGEHEND
 62
     3
100
AcDbLine
 10
215.303085
 20
157.642365
 30
0.0
 11
213.535324
 21
159.410126
 31
0.0
  0
LINE
  5
561
100
AcDbEntity
  8
BEMASSUNG
390
0
  6
DURCHGEHEND
 62
     3
100
AcDbLine
 10
215.443405
 20
84.388748
 30
0.0
 11
213.675644
 21
86.156509
 31
0.0
  0
LINE
  5
562
100
AcDbEntity
  8
BEMASSUNG
390
0
  6
DURCHGEHEND
 62
     3
100
AcDbLine
 10
153.803329
 20
85.239395
 30
0.0
 11
229.75853
 21
85.239395
 31
0.0
  0
LINE
  5
563
100
AcDbEntity
  8
BEMASSUNG
390
0
  6
DURCHGEHEND
 62
     3
100
AcDbLine
 10
81.204117
 20
25.271456
 30
0.0
 11
68.798965
 21
37.67662
 31
0.0
  0
LINE
  5
564
100
AcDbEntity
  8
BEMASSUNG
390
0
  6
DURCHGEHEND
 62
     3
100
AcDbLine
 10
81.204117
 20
25.271456
 30
0.0
 11
95.167343
 21
25.271456
 31
0.0
  0
LINE
  5
565
100
AcDbEntity
  8
BEMASSUNG
390
0
  6
DURCHGEHEND
 62
     3
100
AcDbLine
 10
68.649857
 20
36.179565
 30
0.0
 11
71.922318
 21
36.179565
 31
0.0
  0
LINE
  5
566
100
AcDbEntity
  8
BEMASSUNG
390
0
  6
DURCHGEHEND
 62
     3
100
AcDbLine
 10
74.735275
 20
30.005968
 30
0.0
 11
78.007736
 21
30.005968
 31
0.0
  0
LINE
  5
567
100
AcDbEntity
  8
BEMASSUNG
390
0
  6
DURCHGEHEND
 62
     3
100
AcDbLine
 10
135.669128
 20
45.817959
 30
0.0
 11
175.205902
 21
45.817959
 31
0.0
  0
LINE
  5
568
100
AcDbEntity
  8
BEMASSUNG
390
0
  6
_DURCHGEHEND
 62
     3
100
AcDbLine
 10
136.700302
 20
45.817959
 30
0.0
 11
135.611893
 21
44.59322
 31
0.0
  0
LINE
  5
569
100
AcDbEntity
  8
BEMASSUNG
390
0
  6
_DURCHGEHEND
 62
     3
100
AcDbLine
 10
137.788712
 20
47.042652
 30
0.0
 11
136.700302
 21
45.817951
 31
0.0
  0
LINE
  5
56A
100
AcDbEntity
  8
BEMASSUNG
390
0
  6
_DURCHGEHEND
 62
     3
100
AcDbLine
 10
145.200577
 20
45.817959
 30
0.0
 11
144.112167
 21
44.59322
 31
0.0
  0
LINE
  5
56B
100
AcDbEntity
  8
BEMASSUNG
390
0
  6
_DURCHGEHEND
 62
     3
100
AcDbLine
 10
146.288986
 20
47.042652
 30
0.0
 11
145.200577
 21
45.817951
 31
0.0
  0
LINE
  5
56C
100
AcDbEntity
  8
BEMASSUNG
390
0
  6
DURCHGEHEND
 62
     3
100
AcDbLine
 10
136.674667
 20
79.089844
 30
0.0
 11
136.674667
 21
44.642712
 31
0.0
  0
LINE
  5
56D
100
AcDbEntity
  8
BEMASSUNG
390
0
  6
DURCHGEHEND
 62
     3
100
AcDbLine
 10
145.200455
 20
80.922134
 30
0.0
 11
145.200455
 21
44.501026
 31
0.0
  0
LINE
  5
56E
100
AcDbEntity
  8
BEMASSUNG
390
0
  6
DURCHGEHEND
 62
     3
100
AcDbLine
 10
228.625717
 20
171.84671
 30
0.0
 11
228.625717
 21
84.189758
 31
0.0
  0
LINE
  5
56F
100
AcDbEntity
  8
BEMASSUNG
390
0
  6
DURCHGEHEND
 62
     3
100
AcDbLine
 10
229.424362
 20
84.388748
 30
0.0
 11
227.656601
 21
86.156509
 31
0.0
  0
LINE
  5
570
100
AcDbEntity
  8
WAND
390
0
  6
DURCHGEHEND
 62
     6
100
AcDbLine
 10
60.957142
 20
85.239395
 30
0.0
 11
85.660721
 21
85.239395
 31
0.0
  0
LINE
  5
571
100
AcDbEntity
  8
WAND
390
0
  6
DURCHGEHEND
 62
     6
100
AcDbLine
 10
129.641159
 20
85.239395
 30
0.0
 11
152.880783
 21
85.239395
 31
0.0
  0
ENDSEC
  0
SECTION
  2
OBJECTS
  0
DICTIONARY
  5
19
100
AcDbDictionary
280
     0
281
     1
  3
ACAD_GROUP
350
1A
  3
ACAD_MLINESTYLE
350
1B
  3
ACAD_LAYOUT
350
1E
  3
ACAD_PLOTSETTINGS
350
22
  3
ACAD_PLOTSTYLENAME
350
1F
  3
ACAD_WIPEOUT_VARS
350
23
  0
DICTIONARY
  5
1A
102
{ACAD_REACTORS
330
19
102
}
100
AcDbDictionary
280
     0
281
     1
  0
DICTIONARY
  5
1B
102
{ACAD_REACTORS
330
19
102
}
100
AcDbDictionary
280
     0
281
     1
  3
Standard
350
1C
  0
MLINESTYLE
  5
1C
102
{ACAD_REACTORS
330
1B
102
}
100
AcDbMlineStyle
  2
Standard
 70
     0
  3

 62
     0
 51
90.0
 52
90.0
 71
     2
 49
0.5
 62
   256
  6
ByLayer
 49
-0.5
 62
   256
  6
ByLayer
  0
ACDBDICTIONARYWDFLT
  5
1F
102
{ACAD_REACTORS
330
19
102
}
100
AcDbDictionary
281
     1
  3
Normal
350
1D
100
AcDbDictionaryWithDefault
340
1D
  0
ACDBPLACEHOLDER
  5
1D
102
{ACAD_REACTORS
330
1F
102
}
  0
LAYOUT
  5
20
102
{ACAD_REACTORS
330
1E
102
}
100
AcDbPlotSettings
  1

  2

  4

  6

 40
0.0
 41
0.0
 42
0.0
 43
0.0
 44
0.0
 45
0.0
 46
0.0
 47
0.0
 48
0.0
 49
0.0
140
0.0
141
0.0
142
1.0
143
1.0
 70
  1024
 72
     0
 73
     0
 74
     0
  7

 75
     0
147
1.0
148
0.0
149
0.0
100
AcDbLayout
  1
Model
 70
     0
 71
     0
 10
0.0
 20
0.0
 11
0.0
 21
0.0
 12
0.0
 22
0.0
 32
0.0
 14
0.0
 24
0.0
 34
0.0
 15
0.0
 25
0.0
 35
0.0
146
0.0
 13
0.0
 23
0.0
 33
0.0
 16
0.0
 26
0.0
 36
0.0
 17
0.0
 27
0.0
 37
0.0
 76
     0
330
A
331
0
345
0
346
0
  0
LAYOUT
  5
21
102
{ACAD_REACTORS
330
1E
102
}
100
AcDbPlotSettings
  1

  2

  4

  6

 40
0.0
 41
0.0
 42
0.0
 43
0.0
 44
0.0
 45
0.0
 46
0.0
 47
0.0
 48
0.0
 49
0.0
140
0.0
141
0.0
142
1.0
143
1.0
 70
     0
 72
     0
 73
     0
 74
     0
  7

 75
     0
147
1.0
148
0.0
149
0.0
100
AcDbLayout
  1
Layout1
 70
     0
 71
     0
 10
0.0
 20
0.0
 11
0.0
 21
0.0
 12
0.0
 22
0.0
 32
0.0
 14
0.0
 24
0.0
 34
0.0
 15
0.0
 25
0.0
 35
0.0
146
0.0
 13
0.0
 23
0.0
 33
0.0
 16
0.0
 26
0.0
 36
0.0
 17
0.0
 27
0.0
 37
0.0
 76
     0
330
B
331
0
345
0
346
0
  0
DICTIONARY
  5
1E
102
{ACAD_REACTORS
330
19
102
}
100
AcDbDictionary
280
     0
281
     1
  3
Layout1
350
21
  3
Model
350
20
  0
DICTIONARY
  5
22
102
{ACAD_REACTORS
330
19
102
}
100
AcDbDictionary
280
     0
281
     1
  0
WIPEOUTVARIABLES
  5
23
100
AcDbWipeoutVariables
 70
     1
  0
ENDSEC
  0
EOF
