  0
SECTION
  2
HEADER
  9
$ACADVER
  1
AC1009
  9
$DWGCODEPAGE
  3
ansi_1252
  9
$INSBASE
 10
0.0
 20
0.0
 30
0.0
  9
$EXTMIN
 10
32.147644
 20
2.825116
 30
0.0
  9
$EXTMAX
 10
292.270935
 20
198.195572
 30
0.0
  9
$LIMMIN
 10
0.0
 20
0.0
  9
$LIMMAX
 10
0.0
 20
0.0
  9
$ORTHOMODE
 70
     0
  9
$REGENMODE
 70
     1
  9
$FILLMODE
 70
     1
  9
$QTEXTMODE
 70
     0
  9
$MIRRTEXT
 70
     1
  9
$DRAGMODE
 70
     2
  9
$LTSCALE
 40
1.0
  9
$OSMODE
 70
     0
  9
$ATTMODE
 70
     1
  9
$TEXTSIZE
 40
0.2
  9
$TRACEWID
 40
0.05
  9
$TEXTSTYLE
  7
STANDARD
  9
$CLAYER
  8
0
  9
$CELTYPE
  6
CONTINUOUS
  9
$CECOLOR
 62
   256
  9
$DIMSCALE
 40
1.0
  9
$DIMASZ
 40
0.18
  9
$DIMEXO
 40
0.0625
  9
$DIMDLI
 40
0.38
  9
$DIMRND
 40
0.0
  9
$DIMDLE
 40
0.0
  9
$DIMEXE
 40
0.18
  9
$DIMTP
 40
0.0
  9
$DIMTM
 40
0.0
  9
$DIMTXT
 40
0.18
  9
$DIMCEN
 40
0.09
  9
$DIMTSZ
 40
0.0
  9
$DIMTOL
 70
     0
  9
$DIMLIM
 70
     0
  9
$DIMTIH
 70
     1
  9
$DIMTOH
 70
     1
  9
$DIMSE1
 70
     0
  9
$DIMSE2
 70
     0
  9
$DIMTAD
 70
     0
  9
$DIMZIN
 70
     0
  9
$DIMBLK
  1

  9
$DIMASO
 70
     1
  9
$DIMSHO
 70
     1
  9
$DIMPOST
  1

  9
$DIMAPOST
  1

  9
$DIMALT
 70
     0
  9
$DIMALTD
 70
     2
  9
$DIMALTF
 40
25.4
  9
$DIMLFAC
 40
1.0
  9
$DIMTOFL
 70
     0
  9
$DIMTVP
 40
0.0
  9
$DIMTIX
 70
     0
  9
$DIMSOXD
 70
     0
  9
$DIMSAH
 70
     0
  9
$DIMBLK1
  1

  9
$DIMBLK2
  1

  9
$DIMSTYLE
  2
STANDARD
  9
$DIMCLRD
 70
     0
  9
$DIMCLRE
 70
     0
  9
$DIMCLRT
 70
     0
  9
$DIMTFAC
 40
1.0
  9
$DIMGAP
 40
0.09
  9
$LUNITS
 70
     2
  9
$LUPREC
 70
     4
  9
$AXISMODE
 70
     0
  9
$AXISUNIT
 10
0.0
 20
0.0
  9
$SKETCHINC
 40
0.1
  9
$FILLETRAD
 40
0.0
  9
$AUNITS
 70
     0
  9
$AUPREC
 70
     0
  9
$MENU
  1
acad
  9
$ELEVATION
 40
0.0
  9
$PELEVATION
 40
0.0
  9
$THICKNESS
 40
0.0
  9
$LIMCHECK
 70
     0
  9
$BLIPMODE
 70
     1
  9
$CHAMFERA
 40
0.0
  9
$CHAMFERB
 40
0.0
  9
$SKPOLY
 70
     0
  9
$TDCREATE
 40
0.000000000
  9
$TDUPDATE
 40
0.000000000
  9
$TDINDWG
 40
0.0000000000
  9
$TDUSRTIMER
 40
0.0000000000
  9
$USRTIMER
 70
     1
  9
$ANGBASE
 50
0.0
  9
$ANGDIR
 70
     0
  9
$PDMODE
 70
     0
  9
$PDSIZE
 40
0.0
  9
$PLINEWID
 40
0.0
  9
$COORDS
 70
     0
  9
$SPLFRAME
 70
     0
  9
$SPLINETYPE
 70
     6
  9
$SPLINESEGS
 70
     8
  9
$ATTDIA
 70
     0
  9
$ATTREQ
 70
     1
  9
$HANDLING
 70
     1
  9
$HANDSEED
  5
4B4
  9
$SURFTAB1
 70
     6
  9
$SURFTAB2
 70
     6
  9
$SURFTYPE
 70
     6
  9
$SURFU
 70
     6
  9
$SURFV
 70
     6
  9
$UCSNAME
  2

  9
$UCSORG
 10
0.0
 20
0.0
 30
0.0
  9
$UCSXDIR
 10
1.0
 20
0.0
 30
0.0
  9
$UCSYDIR
 10
0.0
 20
1.0
 30
0.0
  9
$PUCSNAME
  2

  9
$PUCSORG
 10
0.0
 20
0.0
 30
0.0
  9
$PUCSXDIR
 10
1.0
 20
0.0
 30
0.0
  9
$PUCSYDIR
 10
0.0
 20
1.0
 30
0.0
  9
$USERI1
 70
     0
  9
$USERI2
 70
     0
  9
$USERI3
 70
     0
  9
$USERI4
 70
     0
  9
$USERI5
 70
     0
  9
$USERR1
 40
0.0
  9
$USERR2
 40
0.0
  9
$USERR3
 40
0.0
  9
$USERR4
 40
0.0
  9
$USERR5
 40
0.0
  9
$WORLDVIEW
 70
     1
  9
$SHADEDGE
 70
     3
  9
$SHADEDIF
 70
    70
  9
$TILEMODE
 70
     1
  9
$MAXACTVP
 70
    16
  9
$PINSBASE
 10
0.0
 20
0.0
 30
0.0
  9
$PLIMCHECK
 70
     0
  9
$PEXTMIN
 10
1.000000E+20
 20
1.000000E+20
 30
1.000000E+20
  9
$PEXTMAX
 10
-1.000000E+20
 20
-1.000000E+20
 30
-1.000000E+20
  9
$PLIMMIN
 10
0.0
 20
0.0
  9
$PLIMMAX
 10
12.0
 20
9.0
  9
$UNITMODE
 70
     0
  9
$VISRETAIN
 70
     0
  9
$PLINEGEN
 70
     1
  9
$PSLTSCALE
 70
     0
  9
$TREEDEPTH
 70
  3020
  0
ENDSEC
  0
SECTION
  2
TABLES
  0
TABLE
  2
VPORT
 70
     1
  0
VPORT
  2
*ACTIVE
 70
     0
 10
0.0
 20
0.0
 11
1.0
 21
1.0
 12
6.591288
 22
4.579184
 13
0.0
 23
0.0
 14
1.0
 24
1.0
 15
0.0
 25
0.0
 16
0.0
 26
0.0
 36
1.0
 17
0.0
 27
0.0
 37
0.0
 40
9.158369
 41
0.688564
 42
50.0
 43
0.0
 44
0.0
 50
0.0
 51
0.0
 71
     0
 72
   100
 73
     1
 74
     1
 75
     0
 76
     0
 77
     0
 78
     0
  0
ENDTAB
  0
TABLE
  2
LTYPE
 70
   202
  0
LTYPE
  2
CONTINUOUS
 70
    64
  3
Solid line
 72
    65
 73
     0
 40
0.0
  0
LTYPE
  2
DURCHGEHEND
 70
    64
  3

 72
    65
 73
     0
 40
0.0
  0
LTYPE
  2
GESTRICHELT
 70
    64
  3

 72
    65
 73
     2
 40
10.0
 49
5.0
 49
-5.0
  0
LTYPE
  2
MITTELLINIE
 70
    64
  3

 72
    65
 73
     4
 40
20.0
 49
10.0
 49
-2.0
 49
5.0
 49
-3.0
  0
LTYPE
  2
PUNKTIERT
 70
    64
  3

 72
    65
 73
     2
 40
0.25
 49
0.0
 49
-0.25
  0
LTYPE
  2
STRICHPUNKTIERT
 70
    64
  3

 72
    65
 73
     4
 40
8.0
 49
5.0
 49
-1.0
 49
1.0
 49
-1.0
  0
LTYPE
  2
STRICH-PUNKT-PUNKT
 70
    64
  3

 72
    65
 73
     6
 40
10.0
 49
5.0
 49
-1.0
 49
1.0
 49
-1.0
 49
1.0
 49
-1.0
  0
LTYPE
  2
STARTPFEIL
 70
    64
  3

 72
    65
 73
     0
 40
0.0
  0
LTYPE
  2
ENDPFEIL
 70
    64
  3

 72
    65
 73
     0
 40
0.0
  0
LTYPE
  2
ENDPUNKT
 70
    64
  3

 72
    65
 73
     0
 40
0.0
  0
LTYPE
  2
PFEIL
 70
    64
  3

 72
    65
 73
     0
 40
0.0
  0
LTYPE
  2
STITCHLINE
 70
    64
  3

 72
    65
 73
     2
 40
2.0
 49
1.0
 49
-1.0
  0
LTYPE
  2
MITTELLINIE_2
 70
    64
  3

 72
    65
 73
     4
 40
17.0
 49
10.0
 49
-2.0
 49
3.0
 49
-2.0
  0
LTYPE
  2
VERDECKTE_LINIE
 70
    64
  3

 72
    65
 73
     2
 40
4.0
 49
2.0
 49
-2.0
  0
LTYPE
  2
PHANTOMLINIE
 70
    64
  3

 72
    65
 73
     6
 40
21.0
 49
10.0
 49
-2.0
 49
3.0
 49
-1.0
 49
3.0
 49
-2.0
  0
LTYPE
  2
BRUCHLINIE_1
 70
    64
  3

 72
    65
 73
     0
 40
0.0
  0
LTYPE
  2
BRUCHLINIE_2
 70
    64
  3

 72
    65
 73
     0
 40
0.0
  0
LTYPE
  2
_DURCHGEHEND
 70
    64
  3

 72
    65
 73
     0
 40
0.0
  0
LTYPE
  2
_GESTRICHELT
 70
    64
  3

 72
    65
 73
     2
 40
10.0
 49
5.0
 49
-5.0
  0
LTYPE
  2
_MITTELLINIE
 70
    64
  3

 72
    65
 73
     4
 40
20.0
 49
10.0
 49
-2.0
 49
5.0
 49
-3.0
  0
LTYPE
  2
_PUNKTIERT
 70
    64
  3

 72
    65
 73
     2
 40
0.25
 49
0.0
 49
-0.25
  0
LTYPE
  2
_STRICHPUNKTIERT
 70
    64
  3

 72
    65
 73
     4
 40
8.0
 49
5.0
 49
-1.0
 49
1.0
 49
-1.0
  0
LTYPE
  2
_STRICH-PUNKT-PUNKT
 70
    64
  3

 72
    65
 73
     6
 40
10.0
 49
5.0
 49
-1.0
 49
1.0
 49
-1.0
 49
1.0
 49
-1.0
  0
LTYPE
  2
_STARTPFEIL
 70
    64
  3

 72
    65
 73
     0
 40
0.0
  0
LTYPE
  2
_ENDPFEIL
 70
    64
  3

 72
    65
 73
     0
 40
0.0
  0
LTYPE
  2
_ENDPUNKT
 70
    64
  3

 72
    65
 73
     0
 40
0.0
  0
LTYPE
  2
_PFEIL
 70
    64
  3

 72
    65
 73
     0
 40
0.0
  0
LTYPE
  2
_STITCHLINE
 70
    64
  3

 72
    65
 73
     2
 40
6.0
 49
3.0
 49
-3.0
  0
LTYPE
  2
_MITTELLINIE_2
 70
    64
  3

 72
    65
 73
     4
 40
17.0
 49
10.0
 49
-2.0
 49
3.0
 49
-2.0
  0
LTYPE
  2
_VERDECKTE_LINIE
 70
    64
  3

 72
    65
 73
     2
 40
4.0
 49
2.0
 49
-2.0
  0
LTYPE
  2
_PHANTOMLINIE
 70
    64
  3

 72
    65
 73
     6
 40
21.0
 49
10.0
 49
-2.0
 49
3.0
 49
-1.0
 49
3.0
 49
-2.0
  0
LTYPE
  2
_BRUCHLINIE_1
 70
    64
  3

 72
    65
 73
     0
 40
0.0
  0
LTYPE
  2
_BRUCHLINIE_2
 70
    64
  3

 72
    65
 73
     0
 40
0.0
  0
LTYPE
  2
CONTINUOUS
 70
    64
  3

 72
    65
 73
     0
 40
0.0
  0
LTYPE
  2
_DURCHGEHEND
 70
    64
  3

 72
    65
 73
     0
 40
0.0
  0
LTYPE
  2
_GESTRICHELT
 70
    64
  3

 72
    65
 73
     2
 40
10.0
 49
5.0
 49
-5.0
  0
LTYPE
  2
_MITTELLINIE
 70
    64
  3

 72
    65
 73
     4
 40
20.0
 49
10.0
 49
-2.0
 49
5.0
 49
-3.0
  0
LTYPE
  2
_PUNKTIERT
 70
    64
  3

 72
    65
 73
     2
 40
0.25
 49
0.0
 49
-0.25
  0
LTYPE
  2
_STRICHPUNKTIERT
 70
    64
  3

 72
    65
 73
     4
 40
8.0
 49
5.0
 49
-1.0
 49
1.0
 49
-1.0
  0
LTYPE
  2
_STRICH-PUNKT-PUNKT
 70
    64
  3

 72
    65
 73
     6
 40
10.0
 49
5.0
 49
-1.0
 49
1.0
 49
-1.0
 49
1.0
 49
-1.0
  0
LTYPE
  2
_STARTPFEIL
 70
    64
  3

 72
    65
 73
     0
 40
0.0
  0
LTYPE
  2
_ENDPFEIL
 70
    64
  3

 72
    65
 73
     0
 40
0.0
  0
LTYPE
  2
_ENDPUNKT
 70
    64
  3

 72
    65
 73
     0
 40
0.0
  0
LTYPE
  2
_PFEIL
 70
    64
  3

 72
    65
 73
     0
 40
0.0
  0
LTYPE
  2
_STITCHLINE
 70
    64
  3

 72
    65
 73
     2
 40
6.0
 49
3.0
 49
-3.0
  0
LTYPE
  2
_MITTELLINIE_2
 70
    64
  3

 72
    65
 73
     4
 40
17.0
 49
10.0
 49
-2.0
 49
3.0
 49
-2.0
  0
LTYPE
  2
_VERDECKTE_LINIE
 70
    64
  3

 72
    65
 73
     2
 40
4.0
 49
2.0
 49
-2.0
  0
LTYPE
  2
_PHANTOMLINIE
 70
    64
  3

 72
    65
 73
     6
 40
21.0
 49
10.0
 49
-2.0
 49
3.0
 49
-1.0
 49
3.0
 49
-2.0
  0
LTYPE
  2
_BRUCHLINIE_1
 70
    64
  3

 72
    65
 73
     0
 40
0.0
  0
LTYPE
  2
_BRUCHLINIE_2
 70
    64
  3

 72
    65
 73
     0
 40
0.0
  0
LTYPE
  2
_DURCHGEHEND
 70
    64
  3

 72
    65
 73
     0
 40
0.0
  0
LTYPE
  2
_GESTRICHELT
 70
    64
  3

 72
    65
 73
     2
 40
10.0
 49
5.0
 49
-5.0
  0
LTYPE
  2
_MITTELLINIE
 70
    64
  3

 72
    65
 73
     4
 40
20.0
 49
10.0
 49
-2.0
 49
5.0
 49
-3.0
  0
LTYPE
  2
_PUNKTIERT
 70
    64
  3

 72
    65
 73
     2
 40
0.25
 49
0.0
 49
-0.25
  0
LTYPE
  2
_STRICHPUNKTIERT
 70
    64
  3

 72
    65
 73
     4
 40
8.0
 49
5.0
 49
-1.0
 49
1.0
 49
-1.0
  0
LTYPE
  2
_STRICH-PUNKT-PUNKT
 70
    64
  3

 72
    65
 73
     6
 40
10.0
 49
5.0
 49
-1.0
 49
1.0
 49
-1.0
 49
1.0
 49
-1.0
  0
LTYPE
  2
_STARTPFEIL
 70
    64
  3

 72
    65
 73
     0
 40
0.0
  0
LTYPE
  2
_ENDPFEIL
 70
    64
  3

 72
    65
 73
     0
 40
0.0
  0
LTYPE
  2
_ENDPUNKT
 70
    64
  3

 72
    65
 73
     0
 40
0.0
  0
LTYPE
  2
_PFEIL
 70
    64
  3

 72
    65
 73
     0
 40
0.0
  0
LTYPE
  2
_STITCHLINE
 70
    64
  3

 72
    65
 73
     2
 40
6.0
 49
3.0
 49
-3.0
  0
LTYPE
  2
_MITTELLINIE_2
 70
    64
  3

 72
    65
 73
     4
 40
17.0
 49
10.0
 49
-2.0
 49
3.0
 49
-2.0
  0
LTYPE
  2
_VERDECKTE_LINIE
 70
    64
  3

 72
    65
 73
     2
 40
4.0
 49
2.0
 49
-2.0
  0
LTYPE
  2
_PHANTOMLINIE
 70
    64
  3

 72
    65
 73
     6
 40
21.0
 49
10.0
 49
-2.0
 49
3.0
 49
-1.0
 49
3.0
 49
-2.0
  0
LTYPE
  2
_BRUCHLINIE_1
 70
    64
  3

 72
    65
 73
     0
 40
0.0
  0
LTYPE
  2
_BRUCHLINIE_2
 70
    64
  3

 72
    65
 73
     0
 40
0.0
  0
LTYPE
  2
SLDCENTERLINES0
 70
    64
  3

 72
    65
 73
     4
 40
19.05
 49
15.24
 49
-1.27
 49
1.27
 49
-1.27
  0
LTYPE
  2
SLDTANVISIBLE0
 70
    64
  3

 72
    65
 73
     6
 40
12.7
 49
6.35
 49
-1.27
 49
1.27
 49
-1.27
 49
1.27
 49
-1.27
  0
LTYPE
  2
_DURCHGEHEND
 70
    64
  3

 72
    65
 73
     0
 40
0.0
  0
LTYPE
  2
_GESTRICHELT
 70
    64
  3

 72
    65
 73
     2
 40
10.0
 49
5.0
 49
-5.0
  0
LTYPE
  2
_MITTELLINIE
 70
    64
  3

 72
    65
 73
     4
 40
20.0
 49
10.0
 49
-2.0
 49
5.0
 49
-3.0
  0
LTYPE
  2
_PUNKTIERT
 70
    64
  3

 72
    65
 73
     2
 40
0.25
 49
0.0
 49
-0.25
  0
LTYPE
  2
_STRICHPUNKTIERT
 70
    64
  3

 72
    65
 73
     4
 40
8.0
 49
5.0
 49
-1.0
 49
1.0
 49
-1.0
  0
LTYPE
  2
_STRICH-PUNKT-PUNKT
 70
    64
  3

 72
    65
 73
     6
 40
10.0
 49
5.0
 49
-1.0
 49
1.0
 49
-1.0
 49
1.0
 49
-1.0
  0
LTYPE
  2
_STARTPFEIL
 70
    64
  3

 72
    65
 73
     0
 40
0.0
  0
LTYPE
  2
_ENDPFEIL
 70
    64
  3

 72
    65
 73
     0
 40
0.0
  0
LTYPE
  2
_ENDPUNKT
 70
    64
  3

 72
    65
 73
     0
 40
0.0
  0
LTYPE
  2
_PFEIL
 70
    64
  3

 72
    65
 73
     0
 40
0.0
  0
LTYPE
  2
_STITCHLINE
 70
    64
  3

 72
    65
 73
     2
 40
6.0
 49
3.0
 49
-3.0
  0
LTYPE
  2
_MITTELLINIE_2
 70
    64
  3

 72
    65
 73
     4
 40
17.0
 49
10.0
 49
-2.0
 49
3.0
 49
-2.0
  0
LTYPE
  2
_VERDECKTE_LINIE
 70
    64
  3

 72
    65
 73
     2
 40
4.0
 49
2.0
 49
-2.0
  0
LTYPE
  2
_PHANTOMLINIE
 70
    64
  3

 72
    65
 73
     6
 40
21.0
 49
10.0
 49
-2.0
 49
3.0
 49
-1.0
 49
3.0
 49
-2.0
  0
LTYPE
  2
_BRUCHLINIE_1
 70
    64
  3

 72
    65
 73
     0
 40
0.0
  0
LTYPE
  2
_BRUCHLINIE_2
 70
    64
  3

 72
    65
 73
     0
 40
0.0
  0
LTYPE
  2
_DURCHGEHEND
 70
    64
  3

 72
    65
 73
     0
 40
0.0
  0
LTYPE
  2
_GESTRICHELT
 70
    64
  3

 72
    65
 73
     2
 40
10.0
 49
5.0
 49
-5.0
  0
LTYPE
  2
_MITTELLINIE
 70
    64
  3

 72
    65
 73
     4
 40
20.0
 49
10.0
 49
-2.0
 49
5.0
 49
-3.0
  0
LTYPE
  2
_PUNKTIERT
 70
    64
  3

 72
    65
 73
     2
 40
0.25
 49
0.0
 49
-0.25
  0
LTYPE
  2
_STRICHPUNKTIERT
 70
    64
  3

 72
    65
 73
     4
 40
8.0
 49
5.0
 49
-1.0
 49
1.0
 49
-1.0
  0
LTYPE
  2
_STRICH-PUNKT-PUNKT
 70
    64
  3

 72
    65
 73
     6
 40
10.0
 49
5.0
 49
-1.0
 49
1.0
 49
-1.0
 49
1.0
 49
-1.0
  0
LTYPE
  2
_STARTPFEIL
 70
    64
  3

 72
    65
 73
     0
 40
0.0
  0
LTYPE
  2
_ENDPFEIL
 70
    64
  3

 72
    65
 73
     0
 40
0.0
  0
LTYPE
  2
_ENDPUNKT
 70
    64
  3

 72
    65
 73
     0
 40
0.0
  0
LTYPE
  2
_PFEIL
 70
    64
  3

 72
    65
 73
     0
 40
0.0
  0
LTYPE
  2
_STITCHLINE
 70
    64
  3

 72
    65
 73
     2
 40
6.0
 49
3.0
 49
-3.0
  0
LTYPE
  2
_MITTELLINIE_2
 70
    64
  3

 72
    65
 73
     4
 40
17.0
 49
10.0
 49
-2.0
 49
3.0
 49
-2.0
  0
LTYPE
  2
_VERDECKTE_LINIE
 70
    64
  3

 72
    65
 73
     2
 40
4.0
 49
2.0
 49
-2.0
  0
LTYPE
  2
_PHANTOMLINIE
 70
    64
  3

 72
    65
 73
     6
 40
21.0
 49
10.0
 49
-2.0
 49
3.0
 49
-1.0
 49
3.0
 49
-2.0
  0
LTYPE
  2
_BRUCHLINIE_1
 70
    64
  3

 72
    65
 73
     0
 40
0.0
  0
LTYPE
  2
_BRUCHLINIE_2
 70
    64
  3

 72
    65
 73
     0
 40
0.0
  0
LTYPE
  2
_DURCHGEHEND
 70
    64
  3

 72
    65
 73
     0
 40
0.0
  0
LTYPE
  2
_GESTRICHELT
 70
    64
  3

 72
    65
 73
     2
 40
10.0
 49
5.0
 49
-5.0
  0
LTYPE
  2
_MITTELLINIE
 70
    64
  3

 72
    65
 73
     4
 40
20.0
 49
10.0
 49
-2.0
 49
5.0
 49
-3.0
  0
LTYPE
  2
_PUNKTIERT
 70
    64
  3

 72
    65
 73
     2
 40
0.25
 49
0.0
 49
-0.25
  0
LTYPE
  2
_STRICHPUNKTIERT
 70
    64
  3

 72
    65
 73
     4
 40
8.0
 49
5.0
 49
-1.0
 49
1.0
 49
-1.0
  0
LTYPE
  2
_STRICH-PUNKT-PUNKT
 70
    64
  3

 72
    65
 73
     6
 40
10.0
 49
5.0
 49
-1.0
 49
1.0
 49
-1.0
 49
1.0
 49
-1.0
  0
LTYPE
  2
_STARTPFEIL
 70
    64
  3

 72
    65
 73
     0
 40
0.0
  0
LTYPE
  2
_ENDPFEIL
 70
    64
  3

 72
    65
 73
     0
 40
0.0
  0
LTYPE
  2
_ENDPUNKT
 70
    64
  3

 72
    65
 73
     0
 40
0.0
  0
LTYPE
  2
_PFEIL
 70
    64
  3

 72
    65
 73
     0
 40
0.0
  0
LTYPE
  2
_STITCHLINE
 70
    64
  3

 72
    65
 73
     2
 40
6.0
 49
3.0
 49
-3.0
  0
LTYPE
  2
_MITTELLINIE_2
 70
    64
  3

 72
    65
 73
     4
 40
17.0
 49
10.0
 49
-2.0
 49
3.0
 49
-2.0
  0
LTYPE
  2
_VERDECKTE_LINIE
 70
    64
  3

 72
    65
 73
     2
 40
4.0
 49
2.0
 49
-2.0
  0
LTYPE
  2
_PHANTOMLINIE
 70
    64
  3

 72
    65
 73
     6
 40
21.0
 49
10.0
 49
-2.0
 49
3.0
 49
-1.0
 49
3.0
 49
-2.0
  0
LTYPE
  2
_BRUCHLINIE_1
 70
    64
  3

 72
    65
 73
     0
 40
0.0
  0
LTYPE
  2
_BRUCHLINIE_2
 70
    64
  3

 72
    65
 73
     0
 40
0.0
  0
LTYPE
  2
_DURCHGEHEND
 70
    64
  3

 72
    65
 73
     0
 40
0.0
  0
LTYPE
  2
_GESTRICHELT
 70
    64
  3

 72
    65
 73
     2
 40
10.0
 49
5.0
 49
-5.0
  0
LTYPE
  2
_MITTELLINIE
 70
    64
  3

 72
    65
 73
     4
 40
20.0
 49
10.0
 49
-2.0
 49
5.0
 49
-3.0
  0
LTYPE
  2
_PUNKTIERT
 70
    64
  3

 72
    65
 73
     2
 40
0.25
 49
0.0
 49
-0.25
  0
LTYPE
  2
_STRICHPUNKTIERT
 70
    64
  3

 72
    65
 73
     4
 40
8.0
 49
5.0
 49
-1.0
 49
1.0
 49
-1.0
  0
LTYPE
  2
_STRICH-PUNKT-PUNKT
 70
    64
  3

 72
    65
 73
     6
 40
10.0
 49
5.0
 49
-1.0
 49
1.0
 49
-1.0
 49
1.0
 49
-1.0
  0
LTYPE
  2
_STARTPFEIL
 70
    64
  3

 72
    65
 73
     0
 40
0.0
  0
LTYPE
  2
_ENDPFEIL
 70
    64
  3

 72
    65
 73
     0
 40
0.0
  0
LTYPE
  2
_ENDPUNKT
 70
    64
  3

 72
    65
 73
     0
 40
0.0
  0
LTYPE
  2
_PFEIL
 70
    64
  3

 72
    65
 73
     0
 40
0.0
  0
LTYPE
  2
_STITCHLINE
 70
    64
  3

 72
    65
 73
     2
 40
6.0
 49
3.0
 49
-3.0
  0
LTYPE
  2
_MITTELLINIE_2
 70
    64
  3

 72
    65
 73
     4
 40
17.0
 49
10.0
 49
-2.0
 49
3.0
 49
-2.0
  0
LTYPE
  2
_VERDECKTE_LINIE
 70
    64
  3

 72
    65
 73
     2
 40
4.0
 49
2.0
 49
-2.0
  0
LTYPE
  2
_PHANTOMLINIE
 70
    64
  3

 72
    65
 73
     6
 40
21.0
 49
10.0
 49
-2.0
 49
3.0
 49
-1.0
 49
3.0
 49
-2.0
  0
LTYPE
  2
_BRUCHLINIE_1
 70
    64
  3

 72
    65
 73
     0
 40
0.0
  0
LTYPE
  2
_BRUCHLINIE_2
 70
    64
  3

 72
    65
 73
     0
 40
0.0
  0
LTYPE
  2
_DURCHGEHEND
 70
    64
  3

 72
    65
 73
     0
 40
0.0
  0
LTYPE
  2
_GESTRICHELT
 70
    64
  3

 72
    65
 73
     2
 40
10.0
 49
5.0
 49
-5.0
  0
LTYPE
  2
_MITTELLINIE
 70
    64
  3

 72
    65
 73
     4
 40
20.0
 49
10.0
 49
-2.0
 49
5.0
 49
-3.0
  0
LTYPE
  2
_PUNKTIERT
 70
    64
  3

 72
    65
 73
     2
 40
0.25
 49
0.0
 49
-0.25
  0
LTYPE
  2
_STRICHPUNKTIERT
 70
    64
  3

 72
    65
 73
     4
 40
8.0
 49
5.0
 49
-1.0
 49
1.0
 49
-1.0
  0
LTYPE
  2
_STRICH-PUNKT-PUNKT
 70
    64
  3

 72
    65
 73
     6
 40
10.0
 49
5.0
 49
-1.0
 49
1.0
 49
-1.0
 49
1.0
 49
-1.0
  0
LTYPE
  2
_STARTPFEIL
 70
    64
  3

 72
    65
 73
     0
 40
0.0
  0
LTYPE
  2
_ENDPFEIL
 70
    64
  3

 72
    65
 73
     0
 40
0.0
  0
LTYPE
  2
_ENDPUNKT
 70
    64
  3

 72
    65
 73
     0
 40
0.0
  0
LTYPE
  2
_PFEIL
 70
    64
  3

 72
    65
 73
     0
 40
0.0
  0
LTYPE
  2
_STITCHLINE
 70
    64
  3

 72
    65
 73
     2
 40
6.0
 49
3.0
 49
-3.0
  0
LTYPE
  2
_MITTELLINIE_2
 70
    64
  3

 72
    65
 73
     4
 40
17.0
 49
10.0
 49
-2.0
 49
3.0
 49
-2.0
  0
LTYPE
  2
_VERDECKTE_LINIE
 70
    64
  3

 72
    65
 73
     2
 40
4.0
 49
2.0
 49
-2.0
  0
LTYPE
  2
_PHANTOMLINIE
 70
    64
  3

 72
    65
 73
     6
 40
21.0
 49
10.0
 49
-2.0
 49
3.0
 49
-1.0
 49
3.0
 49
-2.0
  0
LTYPE
  2
_BRUCHLINIE_1
 70
    64
  3

 72
    65
 73
     0
 40
0.0
  0
LTYPE
  2
_BRUCHLINIE_2
 70
    64
  3

 72
    65
 73
     0
 40
0.0
  0
LTYPE
  2
4_2-0_7-0_7-0_7
 70
    64
  3

 72
    65
 73
     4
 40
6.35
 49
4.233334
 49
-0.705556
 49
0.705556
 49
-0.705556
  0
LTYPE
  2
0_7-0_7
 70
    64
  3

 72
    65
 73
     2
 40
1.411111
 49
0.705556
 49
-0.705556
  0
LTYPE
  2
_DURCHGEHEND
 70
    64
  3

 72
    65
 73
     0
 40
0.0
  0
LTYPE
  2
_GESTRICHELT
 70
    64
  3

 72
    65
 73
     2
 40
10.0
 49
5.0
 49
-5.0
  0
LTYPE
  2
_MITTELLINIE
 70
    64
  3

 72
    65
 73
     4
 40
20.0
 49
10.0
 49
-2.0
 49
5.0
 49
-3.0
  0
LTYPE
  2
_PUNKTIERT
 70
    64
  3

 72
    65
 73
     2
 40
0.25
 49
0.0
 49
-0.25
  0
LTYPE
  2
_STRICHPUNKTIERT
 70
    64
  3

 72
    65
 73
     4
 40
8.0
 49
5.0
 49
-1.0
 49
1.0
 49
-1.0
  0
LTYPE
  2
_STRICH-PUNKT-PUNKT
 70
    64
  3

 72
    65
 73
     6
 40
10.0
 49
5.0
 49
-1.0
 49
1.0
 49
-1.0
 49
1.0
 49
-1.0
  0
LTYPE
  2
_STARTPFEIL
 70
    64
  3

 72
    65
 73
     0
 40
0.0
  0
LTYPE
  2
_ENDPFEIL
 70
    64
  3

 72
    65
 73
     0
 40
0.0
  0
LTYPE
  2
_ENDPUNKT
 70
    64
  3

 72
    65
 73
     0
 40
0.0
  0
LTYPE
  2
_PFEIL
 70
    64
  3

 72
    65
 73
     0
 40
0.0
  0
LTYPE
  2
_STITCHLINE
 70
    64
  3

 72
    65
 73
     2
 40
6.0
 49
3.0
 49
-3.0
  0
LTYPE
  2
_MITTELLINIE_2
 70
    64
  3

 72
    65
 73
     4
 40
17.0
 49
10.0
 49
-2.0
 49
3.0
 49
-2.0
  0
LTYPE
  2
_VERDECKTE_LINIE
 70
    64
  3

 72
    65
 73
     2
 40
4.0
 49
2.0
 49
-2.0
  0
LTYPE
  2
_PHANTOMLINIE
 70
    64
  3

 72
    65
 73
     6
 40
21.0
 49
10.0
 49
-2.0
 49
3.0
 49
-1.0
 49
3.0
 49
-2.0
  0
LTYPE
  2
_BRUCHLINIE_1
 70
    64
  3

 72
    65
 73
     0
 40
0.0
  0
LTYPE
  2
_BRUCHLINIE_2
 70
    64
  3

 72
    65
 73
     0
 40
0.0
  0
LTYPE
  2
_DURCHGEHEND
 70
    64
  3

 72
    65
 73
     0
 40
0.0
  0
LTYPE
  2
_GESTRICHELT
 70
    64
  3

 72
    65
 73
     2
 40
10.0
 49
5.0
 49
-5.0
  0
LTYPE
  2
_MITTELLINIE
 70
    64
  3

 72
    65
 73
     4
 40
20.0
 49
10.0
 49
-2.0
 49
5.0
 49
-3.0
  0
LTYPE
  2
_PUNKTIERT
 70
    64
  3

 72
    65
 73
     2
 40
0.25
 49
0.0
 49
-0.25
  0
LTYPE
  2
_STRICHPUNKTIERT
 70
    64
  3

 72
    65
 73
     4
 40
8.0
 49
5.0
 49
-1.0
 49
1.0
 49
-1.0
  0
LTYPE
  2
_STRICH-PUNKT-PUNKT
 70
    64
  3

 72
    65
 73
     6
 40
10.0
 49
5.0
 49
-1.0
 49
1.0
 49
-1.0
 49
1.0
 49
-1.0
  0
LTYPE
  2
_STARTPFEIL
 70
    64
  3

 72
    65
 73
     0
 40
0.0
  0
LTYPE
  2
_ENDPFEIL
 70
    64
  3

 72
    65
 73
     0
 40
0.0
  0
LTYPE
  2
_ENDPUNKT
 70
    64
  3

 72
    65
 73
     0
 40
0.0
  0
LTYPE
  2
_PFEIL
 70
    64
  3

 72
    65
 73
     0
 40
0.0
  0
LTYPE
  2
_STITCHLINE
 70
    64
  3

 72
    65
 73
     2
 40
6.0
 49
3.0
 49
-3.0
  0
LTYPE
  2
_MITTELLINIE_2
 70
    64
  3

 72
    65
 73
     4
 40
17.0
 49
10.0
 49
-2.0
 49
3.0
 49
-2.0
  0
LTYPE
  2
_VERDECKTE_LINIE
 70
    64
  3

 72
    65
 73
     2
 40
4.0
 49
2.0
 49
-2.0
  0
LTYPE
  2
_PHANTOMLINIE
 70
    64
  3

 72
    65
 73
     6
 40
21.0
 49
10.0
 49
-2.0
 49
3.0
 49
-1.0
 49
3.0
 49
-2.0
  0
LTYPE
  2
_BRUCHLINIE_1
 70
    64
  3

 72
    65
 73
     0
 40
0.0
  0
LTYPE
  2
_BRUCHLINIE_2
 70
    64
  3

 72
    65
 73
     0
 40
0.0
  0
LTYPE
  2
1_3-1_3
 70
    64
  3

 72
    65
 73
     2
 40
2.822222
 49
1.411111
 49
-1.411111
  0
LTYPE
  2
_DURCHGEHEND
 70
    64
  3

 72
    65
 73
     0
 40
0.0
  0
LTYPE
  2
_GESTRICHELT
 70
    64
  3

 72
    65
 73
     2
 40
10.0
 49
5.0
 49
-5.0
  0
LTYPE
  2
_MITTELLINIE
 70
    64
  3

 72
    65
 73
     4
 40
20.0
 49
10.0
 49
-2.0
 49
5.0
 49
-3.0
  0
LTYPE
  2
_PUNKTIERT
 70
    64
  3

 72
    65
 73
     2
 40
0.25
 49
0.0
 49
-0.25
  0
LTYPE
  2
_STRICHPUNKTIERT
 70
    64
  3

 72
    65
 73
     4
 40
8.0
 49
5.0
 49
-1.0
 49
1.0
 49
-1.0
  0
LTYPE
  2
_STRICH-PUNKT-PUNKT
 70
    64
  3

 72
    65
 73
     6
 40
10.0
 49
5.0
 49
-1.0
 49
1.0
 49
-1.0
 49
1.0
 49
-1.0
  0
LTYPE
  2
_STARTPFEIL
 70
    64
  3

 72
    65
 73
     0
 40
0.0
  0
LTYPE
  2
_ENDPFEIL
 70
    64
  3

 72
    65
 73
     0
 40
0.0
  0
LTYPE
  2
_ENDPUNKT
 70
    64
  3

 72
    65
 73
     0
 40
0.0
  0
LTYPE
  2
_PFEIL
 70
    64
  3

 72
    65
 73
     0
 40
0.0
  0
LTYPE
  2
_STITCHLINE
 70
    64
  3

 72
    65
 73
     2
 40
6.0
 49
3.0
 49
-3.0
  0
LTYPE
  2
_MITTELLINIE_2
 70
    64
  3

 72
    65
 73
     4
 40
17.0
 49
10.0
 49
-2.0
 49
3.0
 49
-2.0
  0
LTYPE
  2
_VERDECKTE_LINIE
 70
    64
  3

 72
    65
 73
     2
 40
4.0
 49
2.0
 49
-2.0
  0
LTYPE
  2
_PHANTOMLINIE
 70
    64
  3

 72
    65
 73
     6
 40
21.0
 49
10.0
 49
-2.0
 49
3.0
 49
-1.0
 49
3.0
 49
-2.0
  0
LTYPE
  2
_BRUCHLINIE_1
 70
    64
  3

 72
    65
 73
     0
 40
0.0
  0
LTYPE
  2
_BRUCHLINIE_2
 70
    64
  3

 72
    65
 73
     0
 40
0.0
  0
LTYPE
  2
SLDUSER-DASHED0
 70
    64
  3

 72
    65
 73
     2
 40
1.905
 49
1.27
 49
-0.635
  0
LTYPE
  2
HIDDEN
 70
    64
  3

 72
    65
 73
     2
 40
1.905
 49
1.27
 49
-0.635
  0
LTYPE
  2
CONTINUOUS
 70
    64
  3

 72
    65
 73
     0
 40
0.0
  0
ENDTAB
  0
TABLE
  2
LAYER
 70
     6
  0
LAYER
  2
0
 70
     0
 62
     7
  6
CONTINUOUS
  0
LAYER
  2
ARMATUR
 70
     0
 62
     7
  6
CONTINUOUS
  0
LAYER
  2
ACHSEN
 70
     0
 62
     7
  6
CONTINUOUS
  0
LAYER
  2
TEXT
 70
     0
 62
     7
  6
CONTINUOUS
  0
LAYER
  2
BEMASSUNG
 70
     0
 62
     7
  6
CONTINUOUS
  0
LAYER
  2
WAND
 70
     0
 62
     7
  6
CONTINUOUS
  0
ENDTAB
  0
TABLE
  2
STYLE
 70
     1
  0
STYLE
  2
STANDARD
 70
     0
 40
0.0
 41
1.0
 50
0.0
 71
     0
 42
0.0
  3
txt
  4

  0
ENDTAB
  0
TABLE
  2
VIEW
 70
     0
  0
ENDTAB
  0
TABLE
  2
UCS
 70
     1
  0
UCS
  2
ISODRAW_6_1
 70
     0
 10
0.0
 20
0.0
 30
0.0
 11
0.0
 21
1.0
 31
0.0
 12
0.0
 22
0.0
 32
1.0
  0
ENDTAB
  0
TABLE
  2
APPID
 70
     1
  0
APPID
  2
ACAD
 70
     0
  0
ENDTAB
  0
TABLE
  2
DIMSTYLE
 70
     1
  0
DIMSTYLE
  2
STANDARD
 70
     0
  3

  4

  5

  6

  7

 40
1.0
 41
0.18
 42
0.0625
 43
0.38
 44
0.18
 45
0.0
 46
0.0
 47
0.0
 48
0.0
 71
     0
 72
     0
 73
     1
 74
     1
 75
     0
 76
     0
 77
     0
 78
     0
140
0.18
141
0.09
142
0.0
143
25.4
144
1.0
145
0.0
146
1.0
147
0.09
170
     0
171
     2
172
     0
173
     0
174
     0
175
     0
176
     0
177
     0
178
     0
  0
ENDTAB
  0
ENDSEC
  0
SECTION
  2
BLOCKS
  0
ENDSEC
  0
SECTION
  2
ENTITIES
  0
LINE
  8
ARMATUR
  6
DURCHGEHEND
 62
     1
  5
EC
 10
66.09008
 20
80.426468
 30
0.0
 11
71.71508
 21
80.426468
 31
0.0
  0
LINE
  8
ARMATUR
  6
DURCHGEHEND
 62
     1
  5
ED
 10
60.465088
 20
80.426468
 30
0.0
 11
66.09008
 21
80.426468
 31
0.0
  0
LINE
  8
ARMATUR
  6
DURCHGEHEND
 62
     1
  5
EE
 10
146.623657
 20
48.270546
 30
0.0
 11
146.623657
 21
66.375473
 31
0.0
  0
LINE
  8
ARMATUR
  6
DURCHGEHEND
 62
     1
  5
EF
 10
144.123657
 20
66.37558
 30
0.0
 11
144.123657
 21
48.675575
 31
0.0
  0
LINE
  8
ARMATUR
  6
DURCHGEHEND
 62
     1
  5
F0
 10
143.53009
 20
48.71299
 30
0.0
 11
143.53009
 21
60.413925
 31
0.0
  0
LINE
  8
ARMATUR
  6
DURCHGEHEND
 62
     1
  5
F1
 10
141.03009
 20
66.375572
 30
0.0
 11
141.03009
 21
48.738686
 31
0.0
  0
LINE
  8
ARMATUR
  6
DURCHGEHEND
 62
     1
  5
F2
 10
140.158752
 20
56.648018
 30
0.0
 11
139.382446
 21
56.509293
 31
0.0
  0
LINE
  8
ARMATUR
  6
DURCHGEHEND
 62
     1
  5
F3
 10
139.275269
 20
56.506187
 30
0.0
 11
138.533752
 21
56.648018
 31
0.0
  0
LINE
  8
ARMATUR
  6
DURCHGEHEND
 62
     1
  5
F4
 10
138.533752
 20
56.648018
 30
0.0
 11
138.533752
 21
59.357735
 31
0.0
  0
LINE
  8
ARMATUR
  6
DURCHGEHEND
 62
     1
  5
F5
 10
139.204529
 20
59.486038
 30
0.0
 11
138.533752
 21
59.357735
 31
0.0
  0
LINE
  8
ARMATUR
  6
DURCHGEHEND
 62
     1
  5
F6
 10
140.158752
 20
59.357735
 30
0.0
 11
139.401886
 21
59.492912
 31
0.0
  0
LINE
  8
ARMATUR
  6
DURCHGEHEND
 62
     1
  5
F7
 10
140.158752
 20
56.648018
 30
0.0
 11
140.158752
 21
59.357735
 31
0.0
  0
POLYLINE
  8
ARMATUR
  6
DURCHGEHEND
 62
     1
  5
F8
 66
     1
 10
0.0
 20
0.0
 30
0.0
 75
     5
  0
VERTEX
  8
0
  5
F9
 10
140.971252
 20
59.502876
 30
0.0
  0
VERTEX
  8
0
  5
FA
 10
140.913513
 20
59.502083
 30
0.0
  0
VERTEX
  8
0
  5
FB
 10
140.158783
 20
59.357735
 30
0.0
  0
SEQEND
  8
0
  5
FC
  0
LINE
  8
ARMATUR
  6
DURCHGEHEND
 62
     1
  5
FD
 10
140.971252
 20
59.502876
 30
0.0
 11
139.883636
 21
59.502876
 31
0.0
  0
LINE
  8
ARMATUR
  6
DURCHGEHEND
 62
     1
  5
FE
 10
140.971252
 20
56.502876
 30
0.0
 11
139.883636
 21
56.502876
 31
0.0
  0
POLYLINE
  8
ARMATUR
  6
DURCHGEHEND
 62
     1
  5
FF
 66
     1
 10
0.0
 20
0.0
 30
0.0
 75
     5
  0
VERTEX
  8
0
  5
100
 10
140.971252
 20
56.502876
 30
0.0
  0
VERTEX
  8
0
  5
101
 10
140.913513
 20
56.50367
 30
0.0
  0
VERTEX
  8
0
  5
102
 10
140.158783
 20
56.648018
 30
0.0
  0
SEQEND
  8
0
  5
103
  0
LINE
  8
ARMATUR
  6
DURCHGEHEND
 62
     1
  5
104
 10
141.03009
 20
56.513374
 30
0.0
 11
140.971252
 21
56.502876
 31
0.0
  0
LINE
  8
ARMATUR
  6
DURCHGEHEND
 62
     1
  5
105
 10
141.03009
 20
59.492378
 30
0.0
 11
140.971252
 21
59.502876
 31
0.0
  0
LINE
  8
ARMATUR
  6
DURCHGEHEND
 62
     1
  5
106
 10
138.533752
 20
59.357735
 30
0.0
 11
138.533752
 21
59.502876
 31
0.0
  0
LINE
  8
ARMATUR
  6
DURCHGEHEND
 62
     1
  5
107
 10
140.03775
 20
59.502876
 30
0.0
 11
138.533752
 21
59.502876
 31
0.0
  0
LINE
  8
ARMATUR
  6
DURCHGEHEND
 62
     1
  5
108
 10
138.533752
 20
56.648018
 30
0.0
 11
138.533752
 21
56.502876
 31
0.0
  0
LINE
  8
ARMATUR
  6
DURCHGEHEND
 62
     1
  5
109
 10
140.082245
 20
56.502876
 30
0.0
 11
138.533752
 21
56.502876
 31
0.0
  0
LINE
  8
ARMATUR
  6
DURCHGEHEND
 62
     1
  5
10A
 10
141.03009
 20
59.502876
 30
0.0
 11
140.971252
 21
59.502876
 31
0.0
  0
LINE
  8
ARMATUR
  6
DURCHGEHEND
 62
     1
  5
10B
 10
141.03009
 20
56.502876
 30
0.0
 11
140.971252
 21
56.502876
 31
0.0
  0
POLYLINE
  8
ARMATUR
  6
DURCHGEHEND
 62
     3
  5
10C
 66
     1
 10
0.0
 20
0.0
 30
0.0
 75
     5
  0
VERTEX
  8
0
  5
10D
 10
141.029541
 20
48.738564
 30
0.0
  0
VERTEX
  8
0
  5
10E
 10
141.160995
 20
48.741005
 30
0.0
  0
VERTEX
  8
0
  5
10F
 10
141.30043
 20
48.74258
 30
0.0
  0
VERTEX
  8
0
  5
110
 10
141.44693
 20
48.743332
 30
0.0
  0
VERTEX
  8
0
  5
111
 10
141.599564
 20
48.743305
 30
0.0
  0
VERTEX
  8
0
  5
112
 10
141.757401
 20
48.74255
 30
0.0
  0
VERTEX
  8
0
  5
113
 10
141.919525
 20
48.741112
 30
0.0
  0
VERTEX
  8
0
  5
114
 10
142.085037
 20
48.739037
 30
0.0
  0
VERTEX
  8
0
  5
115
 10
142.252975
 20
48.736374
 30
0.0
  0
VERTEX
  8
0
  5
116
 10
142.422455
 20
48.733166
 30
0.0
  0
VERTEX
  8
0
  5
117
 10
142.592529
 20
48.729462
 30
0.0
  0
VERTEX
  8
0
  5
118
 10
142.762299
 20
48.725307
 30
0.0
  0
VERTEX
  8
0
  5
119
 10
142.930817
 20
48.720749
 30
0.0
  0
VERTEX
  8
0
  5
11A
 10
143.097168
 20
48.715836
 30
0.0
  0
VERTEX
  8
0
  5
11B
 10
143.260437
 20
48.710613
 30
0.0
  0
VERTEX
  8
0
  5
11C
 10
143.419708
 20
48.705124
 30
0.0
  0
VERTEX
  8
0
  5
11D
 10
143.574051
 20
48.699417
 30
0.0
  0
VERTEX
  8
0
  5
11E
 10
143.722534
 20
48.693542
 30
0.0
  0
VERTEX
  8
0
  5
11F
 10
143.864258
 20
48.687546
 30
0.0
  0
VERTEX
  8
0
  5
120
 10
143.998276
 20
48.681469
 30
0.0
  0
VERTEX
  8
0
  5
121
 10
144.123688
 20
48.675362
 30
0.0
  0
SEQEND
  8
0
  5
122
  0
POLYLINE
  8
ARMATUR
  6
DURCHGEHEND
 62
     3
  5
123
 66
     1
 10
0.0
 20
0.0
 30
0.0
 75
     5
  0
VERTEX
  8
0
  5
124
 10
144.123688
 20
48.675362
 30
0.0
  0
VERTEX
  8
0
  5
125
 10
144.26326
 20
48.664242
 30
0.0
  0
VERTEX
  8
0
  5
126
 10
144.401627
 20
48.652256
 30
0.0
  0
VERTEX
  8
0
  5
127
 10
144.538727
 20
48.639393
 30
0.0
  0
VERTEX
  8
0
  5
128
 10
144.67453
 20
48.625633
 30
0.0
  0
VERTEX
  8
0
  5
129
 10
144.808975
 20
48.610958
 30
0.0
  0
VERTEX
  8
0
  5
12A
 10
144.941986
 20
48.595356
 30
0.0
  0
VERTEX
  8
0
  5
12B
 10
145.073517
 20
48.578808
 30
0.0
  0
VERTEX
  8
0
  5
12C
 10
145.203537
 20
48.561298
 30
0.0
  0
VERTEX
  8
0
  5
12D
 10
145.331955
 20
48.542812
 30
0.0
  0
VERTEX
  8
0
  5
12E
 10
145.45874
 20
48.523331
 30
0.0
  0
VERTEX
  8
0
  5
12F
 10
145.583817
 20
48.502838
 30
0.0
  0
VERTEX
  8
0
  5
130
 10
145.707153
 20
48.481319
 30
0.0
  0
VERTEX
  8
0
  5
131
 10
145.828674
 20
48.458759
 30
0.0
  0
VERTEX
  8
0
  5
132
 10
145.948349
 20
48.435139
 30
0.0
  0
VERTEX
  8
0
  5
133
 10
146.066101
 20
48.410446
 30
0.0
  0
VERTEX
  8
0
  5
134
 10
146.18187
 20
48.384659
 30
0.0
  0
VERTEX
  8
0
  5
135
 10
146.295624
 20
48.357765
 30
0.0
  0
VERTEX
  8
0
  5
136
 10
146.407303
 20
48.329746
 30
0.0
  0
VERTEX
  8
0
  5
137
 10
146.51683
 20
48.300587
 30
0.0
  0
VERTEX
  8
0
  5
138
 10
146.624176
 20
48.270271
 30
0.0
  0
SEQEND
  8
0
  5
139
  0
LINE
  8
ARMATUR
  6
DURCHGEHEND
 62
     1
  5
13A
 10
94.08606
 20
105.677872
 30
0.0
 11
94.08606
 21
104.577866
 31
0.0
  0
LINE
  8
ARMATUR
  6
DURCHGEHEND
 62
     1
  5
13B
 10
88.661041
 20
105.877884
 30
0.0
 11
93.886047
 21
105.877884
 31
0.0
  0
LINE
  8
ARMATUR
  6
DURCHGEHEND
 62
     1
  5
13C
 10
88.461044
 20
104.577896
 30
0.0
 11
88.461044
 21
105.677872
 31
0.0
  0
ARC
  8
ARMATUR
  6
DURCHGEHEND
 62
     1
  5
13D
 10
93.886047
 20
105.677872
 30
0.0
 40
0.199997
 50
0.0
 51
90.0
  0
ARC
  8
ARMATUR
  6
DURCHGEHEND
 62
     1
  5
13E
 10
88.661041
 20
105.677872
 30
0.0
 40
0.200012
 50
90.0
 51
180.0
  0
LINE
  8
ARMATUR
  6
DURCHGEHEND
 62
     1
  5
13F
 10
93.886047
 20
104.377884
 30
0.0
 11
88.661041
 21
104.377884
 31
0.0
  0
ARC
  8
ARMATUR
  6
DURCHGEHEND
 62
     1
  5
140
 10
93.886047
 20
104.577896
 30
0.0
 40
0.199997
 50
270.0
 51
360.0
  0
ARC
  8
ARMATUR
  6
DURCHGEHEND
 62
     1
  5
141
 10
88.661041
 20
104.577896
 30
0.0
 40
0.200012
 50
180.0
 51
270.0
  0
LINE
  8
ARMATUR
  6
DURCHGEHEND
 62
     1
  5
142
 10
88.461044
 20
104.127884
 30
0.0
 11
88.461044
 21
104.577866
 31
0.0
  0
LINE
  8
ARMATUR
  6
DURCHGEHEND
 62
     1
  5
143
 10
94.08606
 20
104.577896
 30
0.0
 11
94.08606
 21
104.127884
 31
0.0
  0
LINE
  8
ARMATUR
  6
DURCHGEHEND
 62
     1
  5
144
 10
88.661041
 20
101.377884
 30
0.0
 11
88.461044
 21
101.377884
 31
0.0
  0
LINE
  8
ARMATUR
  6
DURCHGEHEND
 62
     1
  5
145
 10
88.461044
 20
101.377914
 30
0.0
 11
88.461044
 21
104.127884
 31
0.0
  0
LINE
  8
ARMATUR
  6
DURCHGEHEND
 62
     1
  5
146
 10
93.886047
 20
101.377884
 30
0.0
 11
88.661041
 21
101.377884
 31
0.0
  0
LINE
  8
ARMATUR
  6
DURCHGEHEND
 62
     1
  5
147
 10
94.08606
 20
101.377884
 30
0.0
 11
93.886047
 21
101.377884
 31
0.0
  0
LINE
  8
ARMATUR
  6
DURCHGEHEND
 62
     1
  5
148
 10
94.08606
 20
104.127884
 30
0.0
 11
94.08606
 21
101.377884
 31
0.0
  0
LINE
  8
ARMATUR
  6
DURCHGEHEND
 62
     1
  5
149
 10
85.794388
 20
101.377884
 30
0.0
 11
85.794388
 21
95.496979
 31
0.0
  0
LINE
  8
ARMATUR
  6
DURCHGEHEND
 62
     1
  5
14A
 10
96.544388
 20
95.502884
 30
0.0
 11
96.544388
 21
101.377884
 31
0.0
  0
LINE
  8
ARMATUR
  6
DURCHGEHEND
 62
     1
  5
14B
 10
95.150589
 20
49.003189
 30
0.0
 11
95.150589
 21
67.750511
 31
0.0
  0
LINE
  8
ARMATUR
  6
DURCHGEHEND
 62
     1
  5
14C
 10
92.852493
 20
49.591934
 30
0.0
 11
92.852493
 21
67.750511
 31
0.0
  0
LINE
  8
ARMATUR
  6
DURCHGEHEND
 62
     1
  5
14D
 10
90.352493
 20
66.375511
 30
0.0
 11
90.352493
 21
49.972519
 31
0.0
  0
ARC
  8
ARMATUR
  6
DURCHGEHEND
 62
     1
  5
14E
 10
86.323059
 20
95.277878
 30
0.0
 40
0.150002
 50
270.0
 51
360.0
  0
ARC
  8
ARMATUR
  6
DURCHGEHEND
 62
     1
  5
14F
 10
95.998047
 20
95.277878
 30
0.0
 40
0.150002
 50
180.0
 51
270.0
  0
LINE
  8
ARMATUR
  6
DURCHGEHEND
 62
     1
  5
150
 10
86.473053
 20
95.502884
 30
0.0
 11
86.473053
 21
95.277878
 31
0.0
  0
LINE
  8
ARMATUR
  6
DURCHGEHEND
 62
     1
  5
151
 10
95.848053
 20
95.277878
 30
0.0
 11
95.848053
 21
95.502884
 31
0.0
  0
LINE
  8
ARMATUR
  6
DURCHGEHEND
 62
     1
  5
152
 10
88.496338
 20
66.375511
 30
0.0
 11
88.496338
 21
50.139297
 31
0.0
  0
ARC
  8
ARMATUR
  6
DURCHGEHEND
 62
     1
  5
153
 10
84.785553
 20
93.127884
 30
0.0
 40
0.25
 50
210.001007
 51
270.001007
  0
ARC
  8
ARMATUR
  6
DURCHGEHEND
 62
     1
  5
154
 10
97.535553
 20
93.127884
 30
0.0
 40
0.25
 50
270.0
 51
330.0
  0
LINE
  8
ARMATUR
  6
DURCHGEHEND
 62
     1
  5
155
 10
84.785553
 20
92.877884
 30
0.0
 11
97.535553
 21
92.877884
 31
0.0
  0
LINE
  8
ARMATUR
  6
DURCHGEHEND
 62
     1
  5
156
 10
84.160553
 20
81.625511
 30
0.0
 11
84.160553
 21
80.875511
 31
0.0
  0
LINE
  8
ARMATUR
  6
DURCHGEHEND
 62
     1
  5
157
 10
98.160553
 20
80.875511
 30
0.0
 11
98.160553
 21
81.625511
 31
0.0
  0
LINE
  8
ARMATUR
  6
DURCHGEHEND
 62
     1
  5
158
 10
84.160553
 20
80.875511
 30
0.0
 11
84.160553
 21
80.250511
 31
0.0
  0
LINE
  8
ARMATUR
  6
DURCHGEHEND
 62
     1
  5
159
 10
98.160553
 20
80.250511
 30
0.0
 11
98.160553
 21
80.875511
 31
0.0
  0
LINE
  8
ARMATUR
  6
DURCHGEHEND
 62
     1
  5
15A
 10
97.410553
 20
79.625511
 30
0.0
 11
97.049713
 21
80.250511
 31
0.0
  0
LINE
  8
ARMATUR
  6
DURCHGEHEND
 62
     1
  5
15B
 10
85.271393
 20
80.250511
 30
0.0
 11
84.910553
 21
79.625511
 31
0.0
  0
LINE
  8
ARMATUR
  6
DURCHGEHEND
 62
     1
  5
15C
 10
84.910553
 20
79.625511
 30
0.0
 11
84.910553
 21
68.375511
 31
0.0
  0
LINE
  8
ARMATUR
  6
DURCHGEHEND
 62
     1
  5
15D
 10
97.410553
 20
68.375511
 30
0.0
 11
97.410553
 21
79.625511
 31
0.0
  0
LINE
  8
ARMATUR
  6
DURCHGEHEND
 62
     1
  5
15E
 10
84.910553
 20
68.375511
 30
0.0
 11
85.054886
 21
68.125511
 31
0.0
  0
LINE
  8
ARMATUR
  6
DURCHGEHEND
 62
     1
  5
15F
 10
97.26622
 20
68.125511
 30
0.0
 11
97.410553
 21
68.375511
 31
0.0
  0
ARC
  8
ARMATUR
  6
DURCHGEHEND
 62
     1
  5
160
 10
84.785553
 20
66.500511
 30
0.0
 40
0.125
 50
180.0
 51
270.0
  0
ARC
  8
ARMATUR
  6
DURCHGEHEND
 62
     1
  5
161
 10
97.535553
 20
66.500511
 30
0.0
 40
0.125
 50
270.0
 51
360.0
  0
LINE
  8
ARMATUR
  6
DURCHGEHEND
 62
     1
  5
162
 10
97.660553
 20
66.500511
 30
0.0
 11
97.660553
 21
68.000511
 31
0.0
  0
LINE
  8
ARMATUR
  6
DURCHGEHEND
 62
     1
  5
163
 10
84.660553
 20
68.000511
 30
0.0
 11
84.660553
 21
66.500511
 31
0.0
  0
ARC
  8
ARMATUR
  6
DURCHGEHEND
 62
     1
  5
164
 10
84.785553
 20
68.000511
 30
0.0
 40
0.125
 50
90.0
 51
180.0
  0
ARC
  8
ARMATUR
  6
DURCHGEHEND
 62
     1
  5
165
 10
97.535553
 20
68.000511
 30
0.0
 40
0.125
 50
0.0
 51
90.0
  0
ARC
  8
ARMATUR
  6
DURCHGEHEND
 62
     1
  5
166
 10
92.414673
 20
68.000511
 30
0.0
 40
0.125
 50
0.0
 51
90.0
  0
LINE
  8
ARMATUR
  6
DURCHGEHEND
 62
     1
  5
167
 10
92.539673
 20
66.500511
 30
0.0
 11
92.539673
 21
68.000511
 31
0.0
  0
ARC
  8
ARMATUR
  6
DURCHGEHEND
 62
     1
  5
168
 10
92.414673
 20
66.500511
 30
0.0
 40
0.125
 50
270.0
 51
360.0
  0
LINE
  8
ARMATUR
  6
DURCHGEHEND
 62
     1
  5
169
 10
96.412445
 20
67.969444
 30
0.0
 11
96.412445
 21
67.805351
 31
0.0
  0
ARC
  8
ARMATUR
  6
DURCHGEHEND
 62
     1
  5
16A
 10
96.537445
 20
68.000511
 30
0.0
 40
0.125
 50
90.0
 51
100.838997
  0
POLYLINE
  8
ARMATUR
  6
DURCHGEHEND
 62
     1
  5
16B
 66
     1
 10
0.0
 20
0.0
 30
0.0
 75
     5
  0
VERTEX
  8
0
  5
16C
 10
96.412262
 20
67.803551
 30
0.0
  0
VERTEX
  8
0
  5
16D
 10
96.411896
 20
67.800682
 30
0.0
  0
VERTEX
  8
0
  5
16E
 10
96.40419
 20
67.781731
 30
0.0
  0
VERTEX
  8
0
  5
16F
 10
96.378555
 20
67.757195
 30
0.0
  0
SEQEND
  8
0
  5
170
  0
POLYLINE
  8
ARMATUR
  6
DURCHGEHEND
 62
     1
  5
171
 66
     1
 10
0.0
 20
0.0
 30
0.0
 75
     5
  0
VERTEX
  8
0
  5
172
 10
96.376312
 20
67.75634
 30
0.0
  0
VERTEX
  8
0
  5
173
 10
96.374008
 20
67.754997
 30
0.0
  0
VERTEX
  8
0
  5
174
 10
96.357254
 20
67.752892
 30
0.0
  0
SEQEND
  8
0
  5
175
  0
LINE
  8
ARMATUR
  6
DURCHGEHEND
 62
     1
  5
176
 10
85.821892
 20
95.502884
 30
0.0
 11
96.544388
 21
95.502884
 31
0.0
  0
LINE
  8
ARMATUR
  6
DURCHGEHEND
 62
     1
  5
177
 10
85.794388
 20
101.377884
 30
0.0
 11
96.544388
 21
101.377884
 31
0.0
  0
LINE
  8
ARMATUR
  6
DURCHGEHEND
 62
     1
  5
178
 10
97.519882
 20
80.875511
 30
0.0
 11
98.160553
 21
80.875511
 31
0.0
  0
LINE
  8
ARMATUR
  6
DURCHGEHEND
 62
     1
  5
179
 10
84.160553
 20
80.875511
 30
0.0
 11
97.519882
 21
80.875511
 31
0.0
  0
LINE
  8
ARMATUR
  6
DURCHGEHEND
 62
     1
  5
17A
 10
97.519882
 20
81.625511
 30
0.0
 11
98.160553
 21
81.625511
 31
0.0
  0
LINE
  8
ARMATUR
  6
DURCHGEHEND
 62
     1
  5
17B
 10
84.160553
 20
81.625511
 30
0.0
 11
97.519882
 21
81.625511
 31
0.0
  0
LINE
  8
ARMATUR
  6
DURCHGEHEND
 62
     1
  5
17C
 10
97.519882
 20
80.250511
 30
0.0
 11
98.160553
 21
80.250511
 31
0.0
  0
LINE
  8
ARMATUR
  6
DURCHGEHEND
 62
     1
  5
17D
 10
84.160553
 20
80.250511
 30
0.0
 11
97.519882
 21
80.250511
 31
0.0
  0
LINE
  8
ARMATUR
  6
DURCHGEHEND
 62
     1
  5
17E
 10
97.519882
 20
80.875511
 30
0.0
 11
98.160553
 21
80.875511
 31
0.0
  0
LINE
  8
ARMATUR
  6
DURCHGEHEND
 62
     1
  5
17F
 10
89.230759
 20
79.625511
 30
0.0
 11
97.410553
 21
79.625511
 31
0.0
  0
LINE
  8
ARMATUR
  6
DURCHGEHEND
 62
     1
  5
180
 10
84.910553
 20
79.625511
 30
0.0
 11
89.230759
 21
79.625511
 31
0.0
  0
LINE
  8
ARMATUR
  6
DURCHGEHEND
 62
     1
  5
181
 10
89.230759
 20
68.375511
 30
0.0
 11
97.410553
 21
68.375511
 31
0.0
  0
LINE
  8
ARMATUR
  6
DURCHGEHEND
 62
     1
  5
182
 10
84.910553
 20
68.375511
 30
0.0
 11
89.230759
 21
68.375511
 31
0.0
  0
LINE
  8
ARMATUR
  6
DURCHGEHEND
 62
     1
  5
183
 10
92.539673
 20
67.750511
 30
0.0
 11
96.355896
 21
67.750511
 31
0.0
  0
LINE
  8
ARMATUR
  6
DURCHGEHEND
 62
     1
  5
184
 10
92.414673
 20
66.375511
 30
0.0
 11
84.785553
 21
66.375511
 31
0.0
  0
LINE
  8
ARMATUR
  6
DURCHGEHEND
 62
     1
  5
185
 10
97.535553
 20
66.375511
 30
0.0
 11
96.723679
 21
66.375511
 31
0.0
  0
LINE
  8
ARMATUR
  6
DURCHGEHEND
 62
     1
  5
186
 10
96.734802
 20
68.000511
 30
0.0
 11
96.734802
 21
66.500511
 31
0.0
  0
LINE
  8
ARMATUR
  6
DURCHGEHEND
 62
     1
  5
187
 10
96.723679
 20
68.125511
 30
0.0
 11
97.535553
 21
68.125511
 31
0.0
  0
LINE
  8
ARMATUR
  6
DURCHGEHEND
 62
     1
  5
188
 10
84.785553
 20
68.125511
 30
0.0
 11
92.414673
 21
68.125511
 31
0.0
  0
LINE
  8
ARMATUR
  6
DURCHGEHEND
 62
     1
  5
189
 10
85.035553
 20
68.125511
 30
0.0
 11
85.054886
 21
68.125511
 31
0.0
  0
LINE
  8
ARMATUR
  6
DURCHGEHEND
 62
     1
  5
18A
 10
97.26622
 20
68.125511
 30
0.0
 11
97.285553
 21
68.125511
 31
0.0
  0
LINE
  8
ARMATUR
  6
DURCHGEHEND
 62
     1
  5
18B
 10
86.745956
 20
66.375511
 30
0.0
 11
86.285553
 21
66.375511
 31
0.0
  0
LINE
  8
ARMATUR
  6
DURCHGEHEND
 62
     1
  5
18C
 10
96.723679
 20
66.375511
 30
0.0
 11
95.595596
 21
66.375511
 31
0.0
  0
POLYLINE
  8
ARMATUR
  6
DURCHGEHEND
 62
     1
  5
18D
 66
     1
 10
0.0
 20
0.0
 30
0.0
 75
     5
  0
VERTEX
  8
0
  5
18E
 10
96.537445
 20
68.125511
 30
0.0
  0
VERTEX
  8
0
  5
18F
 10
96.520508
 20
68.1231
 30
0.0
  0
VERTEX
  8
0
  5
190
 10
96.504211
 20
68.11599
 30
0.0
  0
VERTEX
  8
0
  5
191
 10
96.489212
 20
68.104454
 30
0.0
  0
VERTEX
  8
0
  5
192
 10
96.476044
 20
68.08889
 30
0.0
  0
VERTEX
  8
0
  5
193
 10
96.465256
 20
68.069939
 30
0.0
  0
VERTEX
  8
0
  5
194
 10
96.45723
 20
68.048332
 30
0.0
  0
VERTEX
  8
0
  5
195
 10
96.452286
 20
68.024895
 30
0.0
  0
VERTEX
  8
0
  5
196
 10
96.450623
 20
68.000511
 30
0.0
  0
SEQEND
  8
0
  5
197
  0
LINE
  8
ARMATUR
  6
DURCHGEHEND
 62
     1
  5
198
 10
96.537445
 20
68.125511
 30
0.0
 11
96.723679
 21
68.125511
 31
0.0
  0
LINE
  8
ARMATUR
  6
DURCHGEHEND
 62
     1
  5
199
 10
96.450607
 20
68.000511
 30
0.0
 11
96.450607
 21
67.625511
 31
0.0
  0
LINE
  8
ARMATUR
  6
DURCHGEHEND
 62
     1
  5
19A
 10
96.450607
 20
67.625511
 30
0.0
 11
95.508774
 21
67.625511
 31
0.0
  0
LINE
  8
ARMATUR
  6
DURCHGEHEND
 62
     1
  5
19B
 10
96.341019
 20
67.746025
 30
0.0
 11
96.350616
 21
67.750511
 31
0.0
  0
LINE
  8
ARMATUR
  6
DURCHGEHEND
 62
     1
  5
19C
 10
96.378708
 20
67.757286
 30
0.0
 11
96.376404
 21
67.756065
 31
0.0
  0
LINE
  8
ARMATUR
  6
DURCHGEHEND
 62
     1
  5
19D
 10
95.881073
 20
66.375511
 30
0.0
 11
95.150589
 21
66.375511
 31
0.0
  0
LINE
  8
ARMATUR
  6
DURCHGEHEND
 62
     1
  5
19E
 10
88.496338
 20
66.375511
 30
0.0
 11
86.745956
 21
66.375511
 31
0.0
  0
LINE
  8
ARMATUR
  6
DURCHGEHEND
 62
     1
  5
19F
 10
96.450607
 20
68.000511
 30
0.0
 11
96.416107
 21
68.000511
 31
0.0
  0
POLYLINE
  8
ARMATUR
  6
DURCHGEHEND
 62
     1
  5
1A0
 66
     1
 10
0.0
 20
0.0
 30
0.0
 75
     5
  0
VERTEX
  8
0
  5
1A1
 10
96.376404
 20
67.756065
 30
0.0
  0
VERTEX
  8
0
  5
1A2
 10
96.360825
 20
67.749718
 30
0.0
  0
VERTEX
  8
0
  5
1A3
 10
96.341019
 20
67.746025
 30
0.0
  0
SEQEND
  8
0
  5
1A4
  0
LINE
  8
ARMATUR
  6
DURCHGEHEND
 62
     1
  5
1A5
 10
95.508774
 20
67.625511
 30
0.0
 11
95.470596
 21
67.625511
 31
0.0
  0
LINE
  8
ARMATUR
  6
DURCHGEHEND
 62
     1
  5
1A6
 10
95.470596
 20
67.625511
 30
0.0
 11
95.150589
 21
67.625511
 31
0.0
  0
POLYLINE
  8
ARMATUR
  6
DURCHGEHEND
 62
     3
  5
1A7
 66
     1
 10
0.0
 20
0.0
 30
0.0
 75
     5
  0
VERTEX
  8
0
  5
1A8
 10
88.496338
 20
50.139297
 30
0.0
  0
VERTEX
  8
0
  5
1A9
 10
88.650887
 20
50.142086
 30
0.0
  0
VERTEX
  8
0
  5
1AA
 10
88.830559
 20
50.137035
 30
0.0
  0
VERTEX
  8
0
  5
1AB
 10
89.032265
 20
50.124928
 30
0.0
  0
VERTEX
  8
0
  5
1AC
 10
89.25296
 20
50.106533
 30
0.0
  0
VERTEX
  8
0
  5
1AD
 10
89.489563
 20
50.082626
 30
0.0
  0
VERTEX
  8
0
  5
1AE
 10
89.739014
 20
50.053982
 30
0.0
  0
VERTEX
  8
0
  5
1AF
 10
89.998238
 20
50.021374
 30
0.0
  0
VERTEX
  8
0
  5
1B0
 10
90.264168
 20
49.98558
 30
0.0
  0
VERTEX
  8
0
  5
1B1
 10
90.533737
 20
49.947372
 30
0.0
  0
VERTEX
  8
0
  5
1B2
 10
90.803886
 20
49.907528
 30
0.0
  0
VERTEX
  8
0
  5
1B3
 10
91.071533
 20
49.866817
 30
0.0
  0
VERTEX
  8
0
  5
1B4
 10
91.333618
 20
49.826019
 30
0.0
  0
VERTEX
  8
0
  5
1B5
 10
91.587082
 20
49.785904
 30
0.0
  0
VERTEX
  8
0
  5
1B6
 10
91.828842
 20
49.74725
 30
0.0
  0
VERTEX
  8
0
  5
1B7
 10
92.055832
 20
49.710831
 30
0.0
  0
VERTEX
  8
0
  5
1B8
 10
92.264992
 20
49.677422
 30
0.0
  0
VERTEX
  8
0
  5
1B9
 10
92.453255
 20
49.647797
 30
0.0
  0
VERTEX
  8
0
  5
1BA
 10
92.617546
 20
49.62273
 30
0.0
  0
VERTEX
  8
0
  5
1BB
 10
92.754799
 20
49.602997
 30
0.0
  0
VERTEX
  8
0
  5
1BC
 10
92.861954
 20
49.589371
 30
0.0
  0
SEQEND
  8
0
  5
1BD
  0
POLYLINE
  8
ARMATUR
  6
DURCHGEHEND
 62
     3
  5
1BE
 66
     1
 10
0.0
 20
0.0
 30
0.0
 75
     5
  0
VERTEX
  8
0
  5
1BF
 10
92.867615
 20
49.589066
 30
0.0
  0
VERTEX
  8
0
  5
1C0
 10
92.989334
 20
49.564613
 30
0.0
  0
VERTEX
  8
0
  5
1C1
 10
93.110382
 20
49.539654
 30
0.0
  0
VERTEX
  8
0
  5
1C2
 10
93.230751
 20
49.514183
 30
0.0
  0
VERTEX
  8
0
  5
1C3
 10
93.350426
 20
49.488201
 30
0.0
  0
VERTEX
  8
0
  5
1C4
 10
93.469391
 20
49.461704
 30
0.0
  0
VERTEX
  8
0
  5
1C5
 10
93.587639
 20
49.434685
 30
0.0
  0
VERTEX
  8
0
  5
1C6
 10
93.70517
 20
49.407139
 30
0.0
  0
VERTEX
  8
0
  5
1C7
 10
93.821953
 20
49.37907
 30
0.0
  0
VERTEX
  8
0
  5
1C8
 10
93.937988
 20
49.350468
 30
0.0
  0
VERTEX
  8
0
  5
1C9
 10
94.053261
 20
49.321331
 30
0.0
  0
VERTEX
  8
0
  5
1CA
 10
94.167763
 20
49.291656
 30
0.0
  0
VERTEX
  8
0
  5
1CB
 10
94.281479
 20
49.261436
 30
0.0
  0
VERTEX
  8
0
  5
1CC
 10
94.394402
 20
49.230675
 30
0.0
  0
VERTEX
  8
0
  5
1CD
 10
94.506516
 20
49.19936
 30
0.0
  0
VERTEX
  8
0
  5
1CE
 10
94.617813
 20
49.167496
 30
0.0
  0
VERTEX
  8
0
  5
1CF
 10
94.728279
 20
49.135071
 30
0.0
  0
VERTEX
  8
0
  5
1D0
 10
94.837914
 20
49.102089
 30
0.0
  0
VERTEX
  8
0
  5
1D1
 10
94.946686
 20
49.068542
 30
0.0
  0
VERTEX
  8
0
  5
1D2
 10
95.054596
 20
49.034428
 30
0.0
  0
VERTEX
  8
0
  5
1D3
 10
95.161636
 20
48.999741
 30
0.0
  0
SEQEND
  8
0
  5
1D4
  0
LINE
  8
ARMATUR
  6
DURCHGEHEND
 62
     3
  5
1D5
 10
62.504608
 20
92.946358
 30
0.0
 11
62.504608
 21
86.951462
 31
0.0
  0
LINE
  8
ARMATUR
  6
DURCHGEHEND
 62
     3
  5
1D6
 10
69.595886
 20
92.946358
 30
0.0
 11
69.595886
 21
86.951462
 31
0.0
  0
LINE
  8
ARMATUR
  6
STITCHLINE
 62
     5
  5
1D7
 10
90.503067
 20
101.377884
 30
0.0
 11
90.503067
 21
105.677948
 31
0.0
  0
LINE
  8
ARMATUR
  6
STITCHLINE
 62
     5
  5
1D8
 10
90.703049
 20
101.377884
 30
0.0
 11
90.503067
 21
101.377899
 31
0.0
  0
LINE
  8
ARMATUR
  6
STITCHLINE
 62
     5
  5
1D9
 10
90.703049
 20
101.377884
 30
0.0
 11
91.803055
 21
101.377899
 31
0.0
  0
LINE
  8
ARMATUR
  6
STITCHLINE
 62
     5
  5
1DA
 10
111.803055
 20
104.377884
 30
0.0
 11
92.253067
 21
104.377899
 31
0.0
  0
ARC
  8
ARMATUR
  6
STITCHLINE
 62
     5
  5
1DB
 10
92.253067
 20
104.127884
 30
0.0
 40
0.25
 50
90.0
 51
180.0
  0
LINE
  8
ARMATUR
  6
STITCHLINE
 62
     5
  5
1DC
 10
90.703049
 20
105.877884
 30
0.0
 11
111.803055
 21
105.877899
 31
0.0
  0
ARC
  8
ARMATUR
  6
STITCHLINE
 62
     5
  5
1DD
 10
90.703049
 20
105.677933
 30
0.0
 40
0.200012
 50
90.0
 51
180.0
  0
LINE
  8
ARMATUR
  6
STITCHLINE
 62
     5
  5
1DE
 10
92.003067
 20
104.127884
 30
0.0
 11
92.003067
 21
101.377899
 31
0.0
  0
LINE
  8
ARMATUR
  6
STITCHLINE
 62
     5
  5
1DF
 10
92.003067
 20
101.377884
 30
0.0
 11
91.803055
 21
101.377899
 31
0.0
  0
LINE
  8
ARMATUR
  6
STITCHLINE
 62
     5
  5
1E0
 10
112.003067
 20
105.677933
 30
0.0
 11
112.003067
 21
104.577911
 31
0.0
  0
ARC
  8
ARMATUR
  6
STITCHLINE
 62
     5
  5
1E1
 10
111.803055
 20
105.677933
 30
0.0
 40
0.200012
 50
0.0
 51
90.0
  0
ARC
  8
ARMATUR
  6
STITCHLINE
 62
     5
  5
1E2
 10
111.803055
 20
104.577896
 30
0.0
 40
0.200012
 50
270.0
 51
360.0
  0
LINE
  8
ARMATUR
  6
DURCHGEHEND
 62
     1
  5
1E3
 10
84.4963
 20
93.002914
 30
0.0
 11
97.8713
 21
93.002884
 31
0.0
  0
ARC
  8
ARMATUR
  6
DURCHGEHEND
 62
     1
  5
1E4
 10
97.8713
 20
94.877914
 30
0.0
 40
0.199997
 50
0.0
 51
90.0
  0
LINE
  8
ARMATUR
  6
DURCHGEHEND
 62
     1
  5
1E5
 10
84.4963
 20
95.077927
 30
0.0
 11
97.8713
 21
95.077866
 31
0.0
  0
LINE
  8
ARMATUR
  6
DURCHGEHEND
 62
     1
  5
1E6
 10
98.071251
 20
94.877914
 30
0.0
 11
98.071251
 21
93.002884
 31
0.0
  0
LINE
  8
ARMATUR
  6
DURCHGEHEND
 62
     1
  5
1E7
 10
98.071251
 20
93.002914
 30
0.0
 11
97.8713
 21
93.002884
 31
0.0
  0
LINE
  8
ARMATUR
  6
DURCHGEHEND
 62
     1
  5
1E8
 10
84.296227
 20
93.002914
 30
0.0
 11
84.296227
 21
94.877884
 31
0.0
  0
LINE
  8
ARMATUR
  6
DURCHGEHEND
 62
     1
  5
1E9
 10
84.4963
 20
93.002914
 30
0.0
 11
84.296227
 21
93.002884
 31
0.0
  0
ARC
  8
ARMATUR
  6
DURCHGEHEND
 62
     1
  5
1EA
 10
84.4963
 20
94.877914
 30
0.0
 40
0.199997
 50
90.0
 51
180.0
  0
LINE
  8
ARMATUR
  6
STITCHLINE
 62
     5
  5
1EB
 10
71.59008
 20
82.376465
 30
0.0
 11
71.59008
 21
85.626465
 31
0.0
  0
LINE
  8
ARMATUR
  6
STITCHLINE
 62
     5
  5
1EC
 10
60.590088
 20
85.626465
 30
0.0
 11
60.590088
 21
82.376465
 31
0.0
  0
LINE
  8
ARMATUR
  6
STITCHLINE
 62
     5
  5
1ED
 10
54.965084
 20
86.951462
 30
0.0
 11
54.965084
 21
85.626465
 31
0.0
  0
LINE
  8
ARMATUR
  6
STITCHLINE
 62
     5
  5
1EE
 10
77.21508
 20
85.626465
 30
0.0
 11
77.21508
 21
86.951462
 31
0.0
  0
LINE
  8
ARMATUR
  6
DURCHGEHEND
 62
     1
  5
1EF
 10
71.46508
 20
81.626465
 30
0.0
 11
71.46508
 21
82.376465
 31
0.0
  0
LINE
  8
ARMATUR
  6
DURCHGEHEND
 62
     1
  5
1F0
 10
60.715088
 20
82.376465
 30
0.0
 11
60.715088
 21
81.626465
 31
0.0
  0
LINE
  8
ARMATUR
  6
DURCHGEHEND
 62
     1
  5
1F1
 10
60.590088
 20
81.626465
 30
0.0
 11
60.590088
 21
81.176468
 31
0.0
  0
LINE
  8
ARMATUR
  6
DURCHGEHEND
 62
     1
  5
1F2
 10
71.59008
 20
81.176468
 30
0.0
 11
71.59008
 21
81.626465
 31
0.0
  0
LINE
  8
ARMATUR
  6
DURCHGEHEND
 62
     1
  5
1F3
 10
60.465088
 20
81.176468
 30
0.0
 11
60.465088
 21
80.426468
 31
0.0
  0
LINE
  8
ARMATUR
  6
DURCHGEHEND
 62
     1
  5
1F4
 10
71.71508
 20
80.426468
 30
0.0
 11
71.71508
 21
81.176468
 31
0.0
  0
LINE
  8
ARMATUR
  6
DURCHGEHEND
 62
     1
  5
1F5
 10
70.690086
 20
78.426453
 30
0.0
 11
71.34008
 21
78.801743
 31
0.0
  0
LINE
  8
ARMATUR
  6
DURCHGEHEND
 62
     1
  5
1F6
 10
60.840088
 20
78.801743
 30
0.0
 11
61.490089
 21
78.426453
 31
0.0
  0
LINE
  8
ARMATUR
  6
DURCHGEHEND
 62
     1
  5
1F7
 10
71.34008
 20
78.801743
 30
0.0
 11
71.34008
 21
80.426468
 31
0.0
  0
LINE
  8
ARMATUR
  6
DURCHGEHEND
 62
     1
  5
1F8
 10
60.840088
 20
80.426468
 30
0.0
 11
60.840088
 21
78.801743
 31
0.0
  0
LINE
  8
ARMATUR
  6
DURCHGEHEND
 62
     1
  5
1F9
 10
61.84008
 20
92.946358
 30
0.0
 11
61.84008
 21
86.951462
 31
0.0
  0
LINE
  8
ARMATUR
  6
DURCHGEHEND
 62
     1
  5
1FA
 10
70.34008
 20
86.951462
 30
0.0
 11
70.34008
 21
92.946358
 31
0.0
  0
LINE
  8
ARMATUR
  6
DURCHGEHEND
 62
     1
  5
1FB
 10
68.800049
 20
95.065384
 30
0.0
 11
68.800049
 21
95.302872
 31
0.0
  0
LINE
  8
ARMATUR
  6
DURCHGEHEND
 62
     1
  5
1FC
 10
63.550049
 20
95.302872
 30
0.0
 11
63.550049
 21
95.065384
 31
0.0
  0
LINE
  8
ARMATUR
  6
STITCHLINE
 62
     5
  5
1FD
 10
59.822357
 20
86.951462
 30
0.0
 11
59.822357
 21
85.626465
 31
0.0
  0
LINE
  8
ARMATUR
  6
STITCHLINE
 62
     5
  5
1FE
 10
72.357811
 20
86.951462
 30
0.0
 11
72.357811
 21
85.626465
 31
0.0
  0
LINE
  8
ARMATUR
  6
STITCHLINE
 62
     5
  5
1FF
 10
59.822357
 20
85.626465
 30
0.0
 11
72.357811
 21
85.626465
 31
0.0
  0
LINE
  8
ARMATUR
  6
STITCHLINE
 62
     5
  5
200
 10
59.822357
 20
86.951462
 30
0.0
 11
72.357811
 21
86.951462
 31
0.0
  0
LINE
  8
ARMATUR
  6
STITCHLINE
 62
     5
  5
201
 10
66.71508
 20
85.626465
 30
0.0
 11
66.71508
 21
84.16098
 31
0.0
  0
LINE
  8
ARMATUR
  6
STITCHLINE
 62
     5
  5
202
 10
65.46508
 20
85.626465
 30
0.0
 11
65.46508
 21
84.16098
 31
0.0
  0
ARC
  8
ARMATUR
  6
STITCHLINE
 62
     5
  5
203
 10
66.09008
 20
79.201523
 30
0.0
 40
4.827682
 50
82.561996
 51
97.439003
  0
LINE
  8
ARMATUR
  6
STITCHLINE
 62
     5
  5
204
 10
66.71508
 20
84.16098
 30
0.0
 11
66.71508
 21
83.988586
 31
0.0
  0
LINE
  8
ARMATUR
  6
STITCHLINE
 62
     5
  5
205
 10
65.46508
 20
83.988586
 30
0.0
 11
65.46508
 21
84.16098
 31
0.0
  0
LINE
  8
ARMATUR
  6
STITCHLINE
 62
     5
  5
206
 10
60.590088
 20
82.376465
 30
0.0
 11
71.59008
 21
82.376465
 31
0.0
  0
LINE
  8
ARMATUR
  6
STITCHLINE
 62
     5
  5
207
 10
76.944115
 20
86.951462
 30
0.0
 11
76.944115
 21
85.626465
 31
0.0
  0
LINE
  8
ARMATUR
  6
STITCHLINE
 62
     5
  5
208
 10
72.357811
 20
85.626465
 30
0.0
 11
76.944115
 21
85.626465
 31
0.0
  0
LINE
  8
ARMATUR
  6
STITCHLINE
 62
     5
  5
209
 10
72.357811
 20
86.951462
 30
0.0
 11
76.944115
 21
86.951462
 31
0.0
  0
LINE
  8
ARMATUR
  6
STITCHLINE
 62
     5
  5
20A
 10
55.236065
 20
86.951462
 30
0.0
 11
55.236065
 21
85.626465
 31
0.0
  0
LINE
  8
ARMATUR
  6
STITCHLINE
 62
     5
  5
20B
 10
55.236065
 20
85.626465
 30
0.0
 11
59.822357
 21
85.626465
 31
0.0
  0
LINE
  8
ARMATUR
  6
STITCHLINE
 62
     5
  5
20C
 10
55.236065
 20
86.951462
 30
0.0
 11
59.822357
 21
86.951462
 31
0.0
  0
LINE
  8
ARMATUR
  6
STITCHLINE
 62
     5
  5
20D
 10
55.634945
 20
85.626465
 30
0.0
 11
60.590088
 21
84.243942
 31
0.0
  0
LINE
  8
ARMATUR
  6
STITCHLINE
 62
     5
  5
20E
 10
71.59008
 20
83.706802
 30
0.0
 11
76.545235
 21
85.626465
 31
0.0
  0
LINE
  8
ARMATUR
  6
STITCHLINE
 62
     5
  5
20F
 10
54.965084
 20
85.626465
 30
0.0
 11
55.236065
 21
85.626465
 31
0.0
  0
LINE
  8
ARMATUR
  6
STITCHLINE
 62
     5
  5
210
 10
54.965084
 20
86.951462
 30
0.0
 11
55.236065
 21
86.951462
 31
0.0
  0
LINE
  8
ARMATUR
  6
STITCHLINE
 62
     5
  5
211
 10
76.944115
 20
85.626465
 30
0.0
 11
77.21508
 21
85.626465
 31
0.0
  0
LINE
  8
ARMATUR
  6
STITCHLINE
 62
     5
  5
212
 10
76.944115
 20
86.951462
 30
0.0
 11
77.21508
 21
86.951462
 31
0.0
  0
LINE
  8
ARMATUR
  6
DURCHGEHEND
 62
     1
  5
213
 10
66.09008
 20
81.626465
 30
0.0
 11
71.59008
 21
81.626465
 31
0.0
  0
LINE
  8
ARMATUR
  6
DURCHGEHEND
 62
     1
  5
214
 10
60.590088
 20
81.626465
 30
0.0
 11
66.09008
 21
81.626465
 31
0.0
  0
LINE
  8
ARMATUR
  6
DURCHGEHEND
 62
     1
  5
215
 10
66.09008
 20
81.176468
 30
0.0
 11
71.71508
 21
81.176468
 31
0.0
  0
LINE
  8
ARMATUR
  6
DURCHGEHEND
 62
     1
  5
216
 10
60.465088
 20
81.176468
 30
0.0
 11
66.090088
 21
81.176468
 31
0.0
  0
LINE
  8
ARMATUR
  6
DURCHGEHEND
 62
     1
  5
217
 10
68.808647
 20
80.376465
 30
0.0
 11
68.808647
 21
78.801743
 31
0.0
  0
LINE
  8
ARMATUR
  6
DURCHGEHEND
 62
     1
  5
218
 10
68.620399
 20
78.801743
 30
0.0
 11
68.808647
 21
78.801743
 31
0.0
  0
LINE
  8
ARMATUR
  6
DURCHGEHEND
 62
     1
  5
219
 10
68.620399
 20
78.801743
 30
0.0
 11
68.620399
 21
80.376465
 31
0.0
  0
LINE
  8
ARMATUR
  6
DURCHGEHEND
 62
     1
  5
21A
 10
63.559776
 20
80.376465
 30
0.0
 11
63.559776
 21
78.801743
 31
0.0
  0
LINE
  8
ARMATUR
  6
DURCHGEHEND
 62
     1
  5
21B
 10
63.371529
 20
78.801743
 30
0.0
 11
63.559776
 21
78.801743
 31
0.0
  0
LINE
  8
ARMATUR
  6
DURCHGEHEND
 62
     1
  5
21C
 10
63.371529
 20
78.801743
 30
0.0
 11
63.371529
 21
80.376465
 31
0.0
  0
ARC
  8
ARMATUR
  6
DURCHGEHEND
 62
     1
  5
21D
 10
66.041771
 20
87.470169
 30
0.0
 40
9.043854
 50
270.306
 51
286.56601
  0
ARC
  8
ARMATUR
  6
DURCHGEHEND
 62
     1
  5
21E
 10
66.19857
 20
87.875854
 30
0.0
 40
9.450012
 50
253.785004
 51
269.34201
  0
LINE
  8
ARMATUR
  6
DURCHGEHEND
 62
     1
  5
21F
 10
70.073799
 20
78.426453
 30
0.0
 11
66.09008
 21
78.426453
 31
0.0
  0
ARC
  8
ARMATUR
  6
DURCHGEHEND
 62
     1
  5
220
 10
70.165901
 20
81.05719
 30
0.0
 40
2.632355
 50
238.962006
 51
267.994995
  0
LINE
  8
ARMATUR
  6
DURCHGEHEND
 62
     1
  5
221
 10
66.09008
 20
78.426453
 30
0.0
 11
62.106377
 21
78.426453
 31
0.0
  0
ARC
  8
ARMATUR
  6
DURCHGEHEND
 62
     1
  5
222
 10
62.024834
 20
81.021591
 30
0.0
 40
2.59642
 50
271.799988
 51
301.243988
  0
POLYLINE
  8
ARMATUR
  6
DURCHGEHEND
 62
     1
  5
223
 66
     1
 10
0.0
 20
0.0
 30
0.0
 75
     5
  0
VERTEX
  8
0
  5
224
 10
71.338966
 20
78.801743
 30
0.0
  0
VERTEX
  8
0
  5
225
 10
70.718254
 20
78.528748
 30
0.0
  0
VERTEX
  8
0
  5
226
 10
70.073799
 20
78.426453
 30
0.0
  0
SEQEND
  8
0
  5
227
  0
LINE
  8
ARMATUR
  6
DURCHGEHEND
 62
     1
  5
228
 10
71.338966
 20
78.801743
 30
0.0
 11
71.338966
 21
80.376465
 31
0.0
  0
ARC
  8
ARMATUR
  6
DURCHGEHEND
 62
     1
  5
229
 10
62.198479
 20
81.05719
 30
0.0
 40
2.632339
 50
238.962006
 51
267.994995
  0
LINE
  8
ARMATUR
  6
DURCHGEHEND
 62
     1
  5
22A
 10
60.841217
 20
80.376465
 30
0.0
 11
60.841217
 21
78.801743
 31
0.0
  0
LINE
  8
ARMATUR
  6
DURCHGEHEND
 62
     1
  5
22B
 10
71.338966
 20
78.801743
 30
0.0
 11
71.34008
 21
78.801743
 31
0.0
  0
LINE
  8
ARMATUR
  6
DURCHGEHEND
 62
     1
  5
22C
 10
70.690086
 20
78.426453
 30
0.0
 11
70.073799
 21
78.426453
 31
0.0
  0
LINE
  8
ARMATUR
  6
DURCHGEHEND
 62
     1
  5
22D
 10
60.840088
 20
78.801743
 30
0.0
 11
60.841217
 21
78.801743
 31
0.0
  0
LINE
  8
ARMATUR
  6
DURCHGEHEND
 62
     1
  5
22E
 10
62.106377
 20
78.426453
 30
0.0
 11
61.490089
 21
78.426453
 31
0.0
  0
LINE
  8
ARMATUR
  6
DURCHGEHEND
 62
     1
  5
22F
 10
70.475052
 20
95.302872
 30
0.0
 11
61.875061
 21
95.302872
 31
0.0
  0
LINE
  8
ARMATUR
  6
DURCHGEHEND
 62
     1
  5
230
 10
73.050049
 20
94.865372
 30
0.0
 11
73.050049
 21
93.002884
 31
0.0
  0
LINE
  8
ARMATUR
  6
DURCHGEHEND
 62
     1
  5
231
 10
59.500069
 20
95.065384
 30
0.0
 11
72.850052
 21
95.065384
 31
0.0
  0
ARC
  8
ARMATUR
  6
DURCHGEHEND
 62
     1
  5
232
 10
72.850052
 20
94.865372
 30
0.0
 40
0.199997
 50
0.0
 51
90.0
  0
LINE
  8
ARMATUR
  6
DURCHGEHEND
 62
     1
  5
233
 10
59.300056
 20
93.002884
 30
0.0
 11
59.300056
 21
94.865372
 31
0.0
  0
ARC
  8
ARMATUR
  6
DURCHGEHEND
 62
     1
  5
234
 10
59.500069
 20
94.865372
 30
0.0
 40
0.199997
 50
90.0
 51
180.0
  0
LINE
  8
ARMATUR
  6
STITCHLINE
 62
     5
  5
235
 10
149.841904
 20
85.602425
 30
0.0
 11
149.841904
 21
86.927422
 31
0.0
  0
LINE
  8
ARMATUR
  6
STITCHLINE
 62
     5
  5
236
 10
148.091888
 20
82.352425
 30
0.0
 11
148.091888
 21
84.00518
 31
0.0
  0
LINE
  8
ARMATUR
  6
STITCHLINE
 62
     5
  5
237
 10
137.091888
 20
85.176781
 30
0.0
 11
137.091888
 21
82.352425
 31
0.0
  0
ARC
  8
ARMATUR
  6
STITCHLINE
 62
     5
  5
238
 10
148.341888
 20
84.00518
 30
0.0
 40
0.25
 50
137.492004
 51
185.626007
  0
LINE
  8
ARMATUR
  6
DURCHGEHEND
 62
     1
  5
239
 10
147.966888
 20
81.602425
 30
0.0
 11
147.966888
 21
82.352425
 31
0.0
  0
LINE
  8
ARMATUR
  6
DURCHGEHEND
 62
     1
  5
23A
 10
137.216888
 20
82.352425
 30
0.0
 11
137.216888
 21
81.602425
 31
0.0
  0
LINE
  8
ARMATUR
  6
DURCHGEHEND
 62
     1
  5
23B
 10
137.091888
 20
81.602425
 30
0.0
 11
137.091888
 21
81.152428
 31
0.0
  0
LINE
  8
ARMATUR
  6
DURCHGEHEND
 62
     1
  5
23C
 10
148.091888
 20
81.152428
 30
0.0
 11
148.091888
 21
81.602425
 31
0.0
  0
LINE
  8
ARMATUR
  6
DURCHGEHEND
 62
     1
  5
23D
 10
136.966888
 20
81.152428
 30
0.0
 11
136.966888
 21
80.402428
 31
0.0
  0
LINE
  8
ARMATUR
  6
DURCHGEHEND
 62
     1
  5
23E
 10
148.216888
 20
80.402428
 30
0.0
 11
148.216888
 21
81.152428
 31
0.0
  0
LINE
  8
ARMATUR
  6
DURCHGEHEND
 62
     1
  5
23F
 10
148.841888
 20
79.625511
 30
0.0
 11
148.481049
 21
80.250511
 31
0.0
  0
LINE
  8
ARMATUR
  6
DURCHGEHEND
 62
     1
  5
240
 10
136.702728
 20
80.250511
 30
0.0
 11
136.341888
 21
79.625511
 31
0.0
  0
LINE
  8
ARMATUR
  6
DURCHGEHEND
 62
     1
  5
241
 10
136.341888
 20
79.625511
 30
0.0
 11
136.341888
 21
68.375511
 31
0.0
  0
LINE
  8
ARMATUR
  6
DURCHGEHEND
 62
     1
  5
242
 10
148.841888
 20
68.375511
 30
0.0
 11
148.841888
 21
79.625511
 31
0.0
  0
LINE
  8
ARMATUR
  6
DURCHGEHEND
 62
     1
  5
243
 10
136.341888
 20
68.375511
 30
0.0
 11
136.486237
 21
68.125511
 31
0.0
  0
LINE
  8
ARMATUR
  6
DURCHGEHEND
 62
     1
  5
244
 10
148.69754
 20
68.125511
 30
0.0
 11
148.841888
 21
68.375511
 31
0.0
  0
ARC
  8
ARMATUR
  6
DURCHGEHEND
 62
     1
  5
245
 10
136.216888
 20
68.000511
 30
0.0
 40
0.125
 50
90.0
 51
180.0
  0
ARC
  8
ARMATUR
  6
DURCHGEHEND
 62
     1
  5
246
 10
148.966888
 20
68.000511
 30
0.0
 40
0.125
 50
0.0
 51
90.0
  0
LINE
  8
ARMATUR
  6
DURCHGEHEND
 62
     1
  5
247
 10
149.091888
 20
66.500511
 30
0.0
 11
149.091888
 21
68.000511
 31
0.0
  0
LINE
  8
ARMATUR
  6
DURCHGEHEND
 62
     1
  5
248
 10
136.091888
 20
68.000511
 30
0.0
 11
136.091888
 21
66.500511
 31
0.0
  0
ARC
  8
ARMATUR
  6
DURCHGEHEND
 62
     1
  5
249
 10
136.216888
 20
66.500511
 30
0.0
 40
0.125
 50
180.0
 51
270.0
  0
ARC
  8
ARMATUR
  6
DURCHGEHEND
 62
     1
  5
24A
 10
148.966888
 20
66.500511
 30
0.0
 40
0.125
 50
270.0
 51
360.0
  0
LINE
  8
ARMATUR
  6
DURCHGEHEND
 62
     1
  5
24B
 10
139.117004
 20
66.351265
 30
0.0
 11
138.492004
 21
66.241066
 31
0.0
  0
LINE
  8
ARMATUR
  6
DURCHGEHEND
 62
     1
  5
24C
 10
135.591888
 20
81.625511
 30
0.0
 11
135.591888
 21
80.875511
 31
0.0
  0
LINE
  8
ARMATUR
  6
DURCHGEHEND
 62
     1
  5
24D
 10
149.591888
 20
80.875511
 30
0.0
 11
149.591888
 21
81.625511
 31
0.0
  0
LINE
  8
ARMATUR
  6
DURCHGEHEND
 62
     1
  5
24E
 10
135.591888
 20
80.875511
 30
0.0
 11
135.591888
 21
80.250511
 31
0.0
  0
LINE
  8
ARMATUR
  6
DURCHGEHEND
 62
     1
  5
24F
 10
149.591888
 20
80.250511
 30
0.0
 11
149.591888
 21
80.875511
 31
0.0
  0
ARC
  8
ARMATUR
  6
DURCHGEHEND
 62
     1
  5
250
 10
137.204376
 20
98.665375
 30
0.0
 40
0.150002
 50
187.104004
 51
269.997986
  0
ARC
  8
ARMATUR
  6
DURCHGEHEND
 62
     1
  5
251
 10
137.204376
 20
99.865372
 30
0.0
 40
0.150002
 50
90.0
 51
172.893997
  0
ARC
  8
ARMATUR
  6
DURCHGEHEND
 62
     1
  5
252
 10
142.01712
 20
99.265381
 30
0.0
 40
5.0
 50
172.893997
 51
187.106995
  0
LINE
  8
ARMATUR
  6
DURCHGEHEND
 62
     1
  5
253
 10
139.117004
 20
66.375511
 30
0.0
 11
139.117004
 21
66.351265
 31
0.0
  0
LINE
  8
ARMATUR
  6
DURCHGEHEND
 62
     1
  5
254
 10
137.204376
 20
98.515381
 30
0.0
 11
137.204376
 21
98.021774
 31
0.0
  0
LINE
  8
ARMATUR
  6
DURCHGEHEND
 62
     1
  5
255
 10
137.204376
 20
101.390381
 30
0.0
 11
137.204376
 21
100.015381
 31
0.0
  0
LINE
  8
ARMATUR
  6
DURCHGEHEND
 62
     1
  5
256
 10
147.954376
 20
95.515381
 30
0.0
 11
147.954376
 21
101.390381
 31
0.0
  0
LINE
  8
ARMATUR
  6
DURCHGEHEND
 62
     1
  5
257
 10
136.979401
 20
95.152878
 30
0.0
 11
136.979401
 21
95.077881
 31
0.0
  0
LINE
  8
ARMATUR
  6
DURCHGEHEND
 62
     1
  5
258
 10
148.204376
 20
95.077881
 30
0.0
 11
148.204376
 21
95.152878
 31
0.0
  0
ARC
  8
ARMATUR
  6
DURCHGEHEND
 62
     1
  5
259
 10
137.754395
 20
95.302872
 30
0.0
 40
0.150002
 50
270.0
 51
360.0
  0
ARC
  8
ARMATUR
  6
DURCHGEHEND
 62
     1
  5
25A
 10
147.429382
 20
95.302872
 30
0.0
 40
0.150002
 50
180.0
 51
270.0
  0
ARC
  8
ARMATUR
  6
DURCHGEHEND
 62
     1
  5
25B
 10
142.591888
 20
95.652878
 30
0.0
 40
4.6875
 50
156.587997
 51
180.0
  0
LINE
  8
ARMATUR
  6
DURCHGEHEND
 62
     1
  5
25C
 10
137.904388
 20
95.652878
 30
0.0
 11
137.904388
 21
95.302872
 31
0.0
  0
LINE
  8
ARMATUR
  6
DURCHGEHEND
 62
     1
  5
25D
 10
147.279388
 20
95.302872
 30
0.0
 11
147.279388
 21
95.515381
 31
0.0
  0
LINE
  8
ARMATUR
  6
DURCHGEHEND
 62
     1
  5
25E
 10
138.341888
 20
93.002884
 30
0.0
 11
138.341888
 21
86.924446
 31
0.0
  0
LINE
  8
ARMATUR
  6
DURCHGEHEND
 62
     1
  5
25F
 10
146.841888
 20
78.550499
 30
0.0
 11
146.841888
 21
78.915016
 31
0.0
  0
LINE
  8
ARMATUR
  6
DURCHGEHEND
 62
     1
  5
260
 10
146.841888
 20
86.917908
 30
0.0
 11
146.841888
 21
93.002884
 31
0.0
  0
LINE
  8
ARMATUR
  6
DURCHGEHEND
 62
     1
  5
261
 10
145.216888
 20
95.065384
 30
0.0
 11
145.216888
 21
95.302872
 31
0.0
  0
LINE
  8
ARMATUR
  6
DURCHGEHEND
 62
     1
  5
262
 10
139.966888
 20
95.302872
 30
0.0
 11
139.966888
 21
95.065384
 31
0.0
  0
LINE
  8
ARMATUR
  6
STITCHLINE
 62
     5
  5
263
 10
135.341888
 20
86.927422
 30
0.0
 11
135.341888
 21
85.602425
 31
0.0
  0
LINE
  8
ARMATUR
  6
STITCHLINE
 62
     5
  5
264
 10
135.341888
 20
86.927422
 30
0.0
 11
138.347107
 21
86.927422
 31
0.0
  0
LINE
  8
ARMATUR
  6
STITCHLINE
 62
     5
  5
265
 10
135.341888
 20
85.602425
 30
0.0
 11
138.347107
 21
85.602425
 31
0.0
  0
LINE
  8
ARMATUR
  6
STITCHLINE
 62
     5
  5
266
 10
138.347107
 20
86.927422
 30
0.0
 11
146.235809
 21
86.927422
 31
0.0
  0
LINE
  8
ARMATUR
  6
STITCHLINE
 62
     5
  5
267
 10
138.347107
 20
85.602425
 30
0.0
 11
146.235809
 21
85.602425
 31
0.0
  0
LINE
  8
ARMATUR
  6
STITCHLINE
 62
     5
  5
268
 10
137.297668
 20
85.602425
 30
0.0
 11
140.312439
 21
84.140434
 31
0.0
  0
LINE
  8
ARMATUR
  6
STITCHLINE
 62
     5
  5
269
 10
136.214172
 20
85.602425
 30
0.0
 11
139.228943
 21
84.140434
 31
0.0
  0
LINE
  8
ARMATUR
  6
STITCHLINE
 62
     5
  5
26A
 10
140.408569
 20
83.89666
 30
0.0
 11
140.408569
 21
85.602425
 31
0.0
  0
ARC
  8
ARMATUR
  6
STITCHLINE
 62
     5
  5
26B
 10
140.130493
 20
83.927834
 30
0.0
 40
0.279816
 50
0.0
 51
49.443001
  0
ARC
  8
ARMATUR
  6
STITCHLINE
 62
     5
  5
26C
 10
140.130493
 20
83.927834
 30
0.0
 40
0.279816
 50
353.602997
 51
360.0
  0
LINE
  8
ARMATUR
  6
STITCHLINE
 62
     5
  5
26D
 10
146.235809
 20
86.927422
 30
0.0
 11
149.841904
 21
86.927422
 31
0.0
  0
LINE
  8
ARMATUR
  6
STITCHLINE
 62
     5
  5
26E
 10
146.235809
 20
85.602425
 30
0.0
 11
149.841904
 21
85.602425
 31
0.0
  0
ARC
  8
ARMATUR
  6
STITCHLINE
 62
     5
  5
26F
 10
139.866852
 20
67.988304
 30
0.0
 40
15.917572
 50
88.050003
 51
91.950996
  0
LINE
  8
ARMATUR
  6
STITCHLINE
 62
     5
  5
270
 10
148.056274
 20
83.964546
 30
0.0
 11
148.056274
 21
85.602425
 31
0.0
  0
LINE
  8
ARMATUR
  6
STITCHLINE
 62
     5
  5
271
 10
137.091888
 20
82.352425
 30
0.0
 11
148.091888
 21
82.352425
 31
0.0
  0
ARC
  8
ARMATUR
  6
STITCHLINE
 62
     5
  5
272
 10
139.049255
 20
83.928719
 30
0.0
 40
0.27771
 50
0.0
 51
49.675999
  0
ARC
  8
ARMATUR
  6
STITCHLINE
 62
     5
  5
273
 10
139.049255
 20
83.928719
 30
0.0
 40
0.27771
 50
353.372986
 51
360.0
  0
LINE
  8
ARMATUR
  6
STITCHLINE
 62
     5
  5
274
 10
149.466888
 20
85.602425
 30
0.0
 11
148.123535
 21
84.13694
 31
0.0
  0
ARC
  8
ARMATUR
  6
STITCHLINE
 62
     5
  5
275
 10
148.312134
 20
83.964027
 30
0.0
 40
0.255875
 50
137.483002
 51
179.882996
  0
LINE
  8
ARMATUR
  6
STITCHLINE
 62
     5
  5
276
 10
137.091888
 20
85.00399
 30
0.0
 11
136.214172
 21
85.594994
 31
0.0
  0
LINE
  8
ARMATUR
  6
DURCHGEHEND
 62
     1
  5
277
 10
137.091888
 20
81.602425
 30
0.0
 11
148.091888
 21
81.602425
 31
0.0
  0
LINE
  8
ARMATUR
  6
DURCHGEHEND
 62
     1
  5
278
 10
136.966888
 20
81.152428
 30
0.0
 11
148.216888
 21
81.152428
 31
0.0
  0
LINE
  8
ARMATUR
  6
DURCHGEHEND
 62
     1
  5
279
 10
136.966888
 20
80.402428
 30
0.0
 11
148.216888
 21
80.402428
 31
0.0
  0
LINE
  8
ARMATUR
  6
DURCHGEHEND
 62
     1
  5
27A
 10
142.483215
 20
78.800789
 30
0.0
 11
142.700562
 21
78.800789
 31
0.0
  0
ARC
  8
ARMATUR
  6
DURCHGEHEND
 62
     1
  5
27B
 10
144.990631
 20
85.587547
 30
0.0
 40
7.16272
 50
251.354004
 51
269.209991
  0
ARC
  8
ARMATUR
  6
DURCHGEHEND
 62
     1
  5
27C
 10
140.204468
 20
85.521446
 30
0.0
 40
7.096466
 50
270.705994
 51
288.730011
  0
LINE
  8
ARMATUR
  6
DURCHGEHEND
 62
     1
  5
27D
 10
142.700562
 20
80.375511
 30
0.0
 11
142.700562
 21
78.800789
 31
0.0
  0
LINE
  8
ARMATUR
  6
DURCHGEHEND
 62
     1
  5
27E
 10
142.483215
 20
78.800789
 30
0.0
 11
142.483215
 21
80.375511
 31
0.0
  0
ARC
  8
ARMATUR
  6
DURCHGEHEND
 62
     1
  5
27F
 10
140.390656
 20
85.587547
 30
0.0
 40
7.16272
 50
251.354004
 51
269.209991
  0
LINE
  8
ARMATUR
  6
DURCHGEHEND
 62
     1
  5
280
 10
138.100555
 20
80.375511
 30
0.0
 11
138.100555
 21
78.800789
 31
0.0
  0
ARC
  8
ARMATUR
  6
DURCHGEHEND
 62
     1
  5
281
 10
144.804443
 20
85.521446
 30
0.0
 40
7.096466
 50
270.705994
 51
288.730011
  0
LINE
  8
ARMATUR
  6
DURCHGEHEND
 62
     1
  5
282
 10
147.083221
 20
78.800789
 30
0.0
 11
147.083221
 21
80.375511
 31
0.0
  0
LINE
  8
ARMATUR
  6
DURCHGEHEND
 62
     1
  5
283
 10
137.991882
 20
78.800789
 30
0.0
 11
138.100555
 21
78.800789
 31
0.0
  0
LINE
  8
ARMATUR
  6
DURCHGEHEND
 62
     1
  5
284
 10
137.991882
 20
78.800789
 30
0.0
 11
137.991882
 21
78.425499
 31
0.0
  0
LINE
  8
ARMATUR
  6
DURCHGEHEND
 62
     1
  5
285
 10
140.291901
 20
78.425499
 30
0.0
 11
137.991882
 21
78.425499
 31
0.0
  0
LINE
  8
ARMATUR
  6
DURCHGEHEND
 62
     1
  5
286
 10
147.083221
 20
78.800789
 30
0.0
 11
147.191895
 21
78.800789
 31
0.0
  0
LINE
  8
ARMATUR
  6
DURCHGEHEND
 62
     1
  5
287
 10
147.191895
 20
78.425499
 30
0.0
 11
147.191895
 21
78.800789
 31
0.0
  0
LINE
  8
ARMATUR
  6
DURCHGEHEND
 62
     1
  5
288
 10
147.191895
 20
78.425499
 30
0.0
 11
144.891876
 21
78.425499
 31
0.0
  0
LINE
  8
ARMATUR
  6
DURCHGEHEND
 62
     1
  5
289
 10
147.191895
 20
80.375511
 30
0.0
 11
147.191895
 21
78.800789
 31
0.0
  0
LINE
  8
ARMATUR
  6
DURCHGEHEND
 62
     1
  5
28A
 10
137.991882
 20
78.800789
 30
0.0
 11
137.991882
 21
80.375511
 31
0.0
  0
LINE
  8
ARMATUR
  6
DURCHGEHEND
 62
     1
  5
28B
 10
148.536499
 20
79.625511
 30
0.0
 11
148.841888
 21
79.625511
 31
0.0
  0
LINE
  8
ARMATUR
  6
DURCHGEHEND
 62
     1
  5
28C
 10
136.341888
 20
79.625511
 30
0.0
 11
137.94548
 21
79.625511
 31
0.0
  0
LINE
  8
ARMATUR
  6
DURCHGEHEND
 62
     1
  5
28D
 10
147.218826
 20
79.625511
 30
0.0
 11
148.536499
 21
79.625511
 31
0.0
  0
LINE
  8
ARMATUR
  6
DURCHGEHEND
 62
     1
  5
28E
 10
148.536499
 20
68.375511
 30
0.0
 11
148.841888
 21
68.375511
 31
0.0
  0
LINE
  8
ARMATUR
  6
DURCHGEHEND
 62
     1
  5
28F
 10
136.341888
 20
68.375511
 30
0.0
 11
141.128021
 21
68.375511
 31
0.0
  0
LINE
  8
ARMATUR
  6
DURCHGEHEND
 62
     1
  5
290
 10
144.128021
 20
68.375511
 30
0.0
 11
148.536499
 21
68.375511
 31
0.0
  0
LINE
  8
ARMATUR
  6
DURCHGEHEND
 62
     1
  5
291
 10
136.216888
 20
68.125511
 30
0.0
 11
141.128067
 21
68.125511
 31
0.0
  0
LINE
  8
ARMATUR
  6
DURCHGEHEND
 62
     1
  5
292
 10
144.128067
 20
68.125511
 30
0.0
 11
148.966888
 21
68.125511
 31
0.0
  0
LINE
  8
ARMATUR
  6
DURCHGEHEND
 62
     1
  5
293
 10
148.966888
 20
66.375511
 30
0.0
 11
144.123672
 21
66.375511
 31
0.0
  0
LINE
  8
ARMATUR
  6
DURCHGEHEND
 62
     1
  5
294
 10
141.128082
 20
66.375511
 30
0.0
 11
136.216888
 21
66.375511
 31
0.0
  0
LINE
  8
ARMATUR
  6
DURCHGEHEND
 62
     1
  5
295
 10
148.69754
 20
68.125511
 30
0.0
 11
148.716888
 21
68.125511
 31
0.0
  0
LINE
  8
ARMATUR
  6
DURCHGEHEND
 62
     1
  5
296
 10
136.466888
 20
68.125511
 30
0.0
 11
136.486237
 21
68.125511
 31
0.0
  0
LINE
  8
ARMATUR
  6
DURCHGEHEND
 62
     1
  5
297
 10
140.673645
 20
66.375511
 30
0.0
 11
139.300262
 21
66.375511
 31
0.0
  0
LINE
  8
ARMATUR
  6
DURCHGEHEND
 62
     1
  5
298
 10
140.979523
 20
66.375511
 30
0.0
 11
140.673645
 21
66.375511
 31
0.0
  0
LINE
  8
ARMATUR
  6
DURCHGEHEND
 62
     1
  5
299
 10
140.988342
 20
66.241066
 30
0.0
 11
138.492004
 21
66.241066
 31
0.0
  0
LINE
  8
ARMATUR
  6
DURCHGEHEND
 62
     1
  5
29A
 10
135.591888
 20
80.875511
 30
0.0
 11
137.077164
 21
80.875511
 31
0.0
  0
LINE
  8
ARMATUR
  6
DURCHGEHEND
 62
     1
  5
29B
 10
148.250443
 20
80.875511
 30
0.0
 11
149.591888
 21
80.875511
 31
0.0
  0
LINE
  8
ARMATUR
  6
DURCHGEHEND
 62
     1
  5
29C
 10
135.591888
 20
81.625511
 30
0.0
 11
137.091888
 21
81.625511
 31
0.0
  0
LINE
  8
ARMATUR
  6
DURCHGEHEND
 62
     1
  5
29D
 10
148.091888
 20
81.625511
 30
0.0
 11
149.591888
 21
81.625511
 31
0.0
  0
LINE
  8
ARMATUR
  6
DURCHGEHEND
 62
     1
  5
29E
 10
135.591888
 20
80.250511
 30
0.0
 11
137.979553
 21
80.250511
 31
0.0
  0
LINE
  8
ARMATUR
  6
DURCHGEHEND
 62
     1
  5
29F
 10
147.19696
 20
80.250511
 30
0.0
 11
149.591888
 21
80.250511
 31
0.0
  0
LINE
  8
ARMATUR
  6
DURCHGEHEND
 62
     1
  5
2A0
 10
135.591888
 20
80.875511
 30
0.0
 11
137.077164
 21
80.875511
 31
0.0
  0
LINE
  8
ARMATUR
  6
DURCHGEHEND
 62
     1
  5
2A1
 10
148.250443
 20
80.875511
 30
0.0
 11
149.591888
 21
80.875511
 31
0.0
  0
LINE
  8
ARMATUR
  6
DURCHGEHEND
 62
     1
  5
2A2
 10
137.204376
 20
98.515381
 30
0.0
 11
137.204376
 21
100.015381
 31
0.0
  0
LINE
  8
ARMATUR
  6
DURCHGEHEND
 62
     1
  5
2A3
 10
145.591888
 20
95.515381
 30
0.0
 11
147.954376
 21
95.515381
 31
0.0
  0
LINE
  8
ARMATUR
  6
DURCHGEHEND
 62
     1
  5
2A4
 10
137.204376
 20
101.390381
 30
0.0
 11
139.591888
 21
101.390381
 31
0.0
  0
LINE
  8
ARMATUR
  6
DURCHGEHEND
 62
     1
  5
2A5
 10
145.591888
 20
101.390381
 30
0.0
 11
147.954376
 21
101.390381
 31
0.0
  0
LINE
  8
ARMATUR
  6
DURCHGEHEND
 62
     1
  5
2A6
 10
139.591888
 20
96.908478
 30
0.0
 11
137.204376
 21
98.021774
 31
0.0
  0
LINE
  8
ARMATUR
  6
DURCHGEHEND
 62
     1
  5
2A7
 10
145.591888
 20
105.890381
 30
0.0
 11
163.12941
 21
105.890381
 31
0.0
  0
LINE
  8
ARMATUR
  6
DURCHGEHEND
 62
     1
  5
2A8
 10
163.12941
 20
104.390381
 30
0.0
 11
145.591888
 21
104.390381
 31
0.0
  0
LINE
  8
ARMATUR
  6
DURCHGEHEND
 62
     1
  5
2A9
 10
163.329391
 20
105.690384
 30
0.0
 11
163.329391
 21
104.590378
 31
0.0
  0
ARC
  8
ARMATUR
  6
DURCHGEHEND
 62
     1
  5
2AA
 10
163.12941
 20
104.590378
 30
0.0
 40
0.199997
 50
270.0
 51
360.0
  0
ARC
  8
ARMATUR
  6
DURCHGEHEND
 62
     1
  5
2AB
 10
163.12941
 20
105.690384
 30
0.0
 40
0.199997
 50
0.0
 51
90.0
  0
ARC
  8
ARMATUR
  6
DURCHGEHEND
 62
     1
  5
2AC
 10
135.904388
 20
94.877884
 30
0.0
 40
0.199997
 50
90.0
 51
180.0
  0
LINE
  8
ARMATUR
  6
DURCHGEHEND
 62
     1
  5
2AD
 10
135.716888
 20
93.002884
 30
0.0
 11
135.704376
 21
93.002884
 31
0.0
  0
LINE
  8
ARMATUR
  6
DURCHGEHEND
 62
     1
  5
2AE
 10
135.704376
 20
93.002884
 30
0.0
 11
135.704376
 21
94.877884
 31
0.0
  0
LINE
  8
ARMATUR
  6
DURCHGEHEND
 62
     1
  5
2AF
 10
135.904388
 20
95.077881
 30
0.0
 11
145.215271
 21
95.077881
 31
0.0
  0
LINE
  8
ARMATUR
  6
DURCHGEHEND
 62
     1
  5
2B0
 10
145.216888
 20
95.077881
 30
0.0
 11
149.279388
 21
95.077881
 31
0.0
  0
ARC
  8
ARMATUR
  6
DURCHGEHEND
 62
     1
  5
2B1
 10
149.279388
 20
94.877884
 30
0.0
 40
0.199997
 50
0.0
 51
90.0
  0
LINE
  8
ARMATUR
  6
DURCHGEHEND
 62
     1
  5
2B2
 10
149.479401
 20
94.877884
 30
0.0
 11
149.479401
 21
93.002884
 31
0.0
  0
LINE
  8
ARMATUR
  6
DURCHGEHEND
 62
     1
  5
2B3
 10
136.979401
 20
95.152878
 30
0.0
 11
139.966888
 21
95.152878
 31
0.0
  0
LINE
  8
ARMATUR
  6
DURCHGEHEND
 62
     1
  5
2B4
 10
145.216888
 20
95.152878
 30
0.0
 11
148.204376
 21
95.152878
 31
0.0
  0
CIRCLE
  8
ARMATUR
  6
DURCHGEHEND
 62
     1
  5
2B5
 10
142.592163
 20
89.154076
 30
0.0
 40
0.873322
  0
CIRCLE
  8
ARMATUR
  6
DURCHGEHEND
 62
     1
  5
2B6
 10
142.591888
 20
89.152428
 30
0.0
 40
0.375
  0
ARC
  8
ARMATUR
  6
DURCHGEHEND
 62
     1
  5
2B7
 10
139.791901
 20
95.502884
 30
0.0
 40
0.199997
 50
180.0
 51
270.0
  0
LINE
  8
ARMATUR
  6
DURCHGEHEND
 62
     1
  5
2B8
 10
145.391876
 20
95.302872
 30
0.0
 11
139.791901
 21
95.302872
 31
0.0
  0
ARC
  8
ARMATUR
  6
DURCHGEHEND
 62
     1
  5
2B9
 10
145.391876
 20
95.502884
 30
0.0
 40
0.199997
 50
270.0
 51
360.0
  0
LINE
  8
ARMATUR
  6
DURCHGEHEND
 62
     1
  5
2BA
 10
149.266876
 20
93.002884
 30
0.0
 11
135.916901
 21
93.002884
 31
0.0
  0
LINE
  8
ARMATUR
  6
DURCHGEHEND
 62
     1
  5
2BB
 10
135.716888
 20
93.002884
 30
0.0
 11
135.916901
 21
93.002884
 31
0.0
  0
LINE
  8
ARMATUR
  6
STITCHLINE
 62
     5
  5
2BC
 10
148.091888
 20
84.00518
 30
0.0
 11
148.056274
 21
83.964546
 31
0.0
  0
LINE
  8
ARMATUR
  6
DURCHGEHEND
 62
     1
  5
2BD
 10
138.867004
 20
66.375496
 30
0.0
 11
138.867004
 21
59.502876
 31
0.0
  0
LINE
  8
ARMATUR
  6
DURCHGEHEND
 62
     3
  5
2BE
 10
138.902161
 20
93.002884
 30
0.0
 11
138.902161
 21
86.927422
 31
0.0
  0
LINE
  8
ARMATUR
  6
DURCHGEHEND
 62
     3
  5
2BF
 10
146.255875
 20
93.002884
 30
0.0
 11
146.255875
 21
86.891777
 31
0.0
  0
LINE
  8
ARMATUR
  6
DURCHGEHEND
 62
     1
  5
2C0
 10
85.973053
 20
90.106316
 30
0.0
 11
86.047241
 21
81.604431
 31
0.0
  0
LINE
  8
ARMATUR
  6
DURCHGEHEND
 62
     1
  5
2C1
 10
96.292175
 20
83.702873
 30
0.0
 11
96.348053
 21
90.106316
 31
0.0
  0
ARC
  8
ARMATUR
  6
DURCHGEHEND
 62
     1
  5
2C2
 10
85.473053
 20
90.101952
 30
0.0
 40
0.5
 50
0.501
 51
43.535
  0
ARC
  8
ARMATUR
  6
DURCHGEHEND
 62
     1
  5
2C3
 10
96.848022
 20
90.101952
 30
0.0
 40
0.5
 50
136.464996
 51
179.498993
  0
LINE
  8
ARMATUR
  6
DURCHGEHEND
 62
     1
  5
2C4
 10
85.835541
 20
92.946358
 30
0.0
 11
85.835541
 21
90.446358
 31
0.0
  0
LINE
  8
ARMATUR
  6
DURCHGEHEND
 62
     1
  5
2C5
 10
96.485565
 20
90.446358
 30
0.0
 11
96.485565
 21
92.946358
 31
0.0
  0
POLYLINE
  8
ARMATUR
  6
DURCHGEHEND
 62
     1
  5
2C6
 66
     1
 10
0.0
 20
0.0
 30
0.0
 75
     5
  0
VERTEX
  8
0
  5
2C7
 10
96.148621
 20
86.984421
 30
0.0
  0
VERTEX
  8
0
  5
2C8
 10
96.266663
 20
86.894592
 30
0.0
  0
VERTEX
  8
0
  5
2C9
 10
96.298492
 20
86.778343
 30
0.0
  0
VERTEX
  8
0
  5
2CA
 10
96.30719
 20
86.67746
 30
0.0
  0
VERTEX
  8
0
  5
2CB
 10
96.309692
 20
86.591064
 30
0.0
  0
VERTEX
  8
0
  5
2CC
 10
96.309906
 20
86.510178
 30
0.0
  0
SEQEND
  8
0
  5
2CD
  0
ARC
  8
ARMATUR
  6
DURCHGEHEND
 62
     1
  5
2CE
 10
95.473999
 20
82.252106
 30
0.0
 40
4.780151
 50
81.887001
 51
98.112999
  0
POLYLINE
  8
ARMATUR
  6
DURCHGEHEND
 62
     1
  5
2CF
 66
     1
 10
0.0
 20
0.0
 30
0.0
 75
     5
  0
VERTEX
  8
0
  5
2D0
 10
93.96402
 20
86.510178
 30
0.0
  0
VERTEX
  8
0
  5
2D1
 10
93.968933
 20
86.55481
 30
0.0
  0
VERTEX
  8
0
  5
2D2
 10
94.006989
 20
86.650917
 30
0.0
  0
VERTEX
  8
0
  5
2D3
 10
94.068512
 20
86.728043
 30
0.0
  0
VERTEX
  8
0
  5
2D4
 10
94.207825
 20
86.829651
 30
0.0
  0
VERTEX
  8
0
  5
2D5
 10
94.35733
 20
86.895538
 30
0.0
  0
VERTEX
  8
0
  5
2D6
 10
94.799377
 20
86.984421
 30
0.0
  0
SEQEND
  8
0
  5
2D7
  0
LINE
  8
ARMATUR
  6
DURCHGEHEND
 62
     1
  5
2D8
 10
94.925903
 20
90.446358
 30
0.0
 11
96.485565
 21
90.446358
 31
0.0
  0
LINE
  8
ARMATUR
  6
DURCHGEHEND
 62
     1
  5
2D9
 10
85.835541
 20
90.446358
 30
0.0
 11
94.925903
 21
90.446358
 31
0.0
  0
LINE
  8
ARMATUR
  6
DURCHGEHEND
 62
     1
  5
2DA
 10
94.828674
 20
90.106316
 30
0.0
 11
96.348053
 21
90.106316
 31
0.0
  0
LINE
  8
ARMATUR
  6
DURCHGEHEND
 62
     1
  5
2DB
 10
85.973053
 20
90.106316
 30
0.0
 11
94.828674
 21
90.106316
 31
0.0
  0
POLYLINE
  8
ARMATUR
  6
DURCHGEHEND
 62
     1
  5
2DC
 66
     1
 10
0.0
 20
0.0
 30
0.0
 75
     5
  0
VERTEX
  8
0
  5
2DD
 10
96.309906
 20
86.510178
 30
0.0
  0
VERTEX
  8
0
  5
2DE
 10
96.306091
 20
86.010315
 30
0.0
  0
VERTEX
  8
0
  5
2DF
 10
96.290649
 20
84.010887
 30
0.0
  0
VERTEX
  8
0
  5
2E0
 10
96.290443
 20
83.994957
 30
0.0
  0
VERTEX
  8
0
  5
2E1
 10
96.289864
 20
83.949249
 30
0.0
  0
VERTEX
  8
0
  5
2E2
 10
96.28894
 20
83.87693
 30
0.0
  0
VERTEX
  8
0
  5
2E3
 10
96.28772
 20
83.781136
 30
0.0
  0
VERTEX
  8
0
  5
2E4
 10
96.286247
 20
83.665016
 30
0.0
  0
VERTEX
  8
0
  5
2E5
 10
96.284554
 20
83.531723
 30
0.0
  0
VERTEX
  8
0
  5
2E6
 10
96.282692
 20
83.384407
 30
0.0
  0
VERTEX
  8
0
  5
2E7
 10
96.280685
 20
83.226212
 30
0.0
  0
VERTEX
  8
0
  5
2E8
 10
96.278595
 20
83.060287
 30
0.0
  0
VERTEX
  8
0
  5
2E9
 10
96.276443
 20
82.889778
 30
0.0
  0
VERTEX
  8
0
  5
2EA
 10
96.274292
 20
82.717842
 30
0.0
  0
VERTEX
  8
0
  5
2EB
 10
96.272156
 20
82.547623
 30
0.0
  0
VERTEX
  8
0
  5
2EC
 10
96.270103
 20
82.382271
 30
0.0
  0
VERTEX
  8
0
  5
2ED
 10
96.26815
 20
82.22493
 30
0.0
  0
VERTEX
  8
0
  5
2EE
 10
96.266357
 20
82.078751
 30
0.0
  0
VERTEX
  8
0
  5
2EF
 10
96.264755
 20
81.946892
 30
0.0
  0
VERTEX
  8
0
  5
2F0
 10
96.26339
 20
81.832481
 30
0.0
  0
VERTEX
  8
0
  5
2F1
 10
96.262291
 20
81.738686
 30
0.0
  0
VERTEX
  8
0
  5
2F2
 10
96.261513
 20
81.668648
 30
0.0
  0
VERTEX
  8
0
  5
2F3
 10
96.261093
 20
81.625511
 30
0.0
  0
SEQEND
  8
0
  5
2F4
  0
POLYLINE
  8
ARMATUR
  6
DURCHGEHEND
 62
     1
  5
2F5
 66
     1
 10
0.0
 20
0.0
 30
0.0
 75
     5
  0
VERTEX
  8
0
  5
2F6
 10
96.148621
 20
86.984413
 30
0.0
  0
VERTEX
  8
0
  5
2F7
 10
96.266663
 20
86.894577
 30
0.0
  0
VERTEX
  8
0
  5
2F8
 10
96.298523
 20
86.778336
 30
0.0
  0
VERTEX
  8
0
  5
2F9
 10
96.30719
 20
86.677452
 30
0.0
  0
VERTEX
  8
0
  5
2FA
 10
96.309692
 20
86.591057
 30
0.0
  0
VERTEX
  8
0
  5
2FB
 10
96.309906
 20
86.510178
 30
0.0
  0
SEQEND
  8
0
  5
2FC
  0
POLYLINE
  8
ARMATUR
  6
DURCHGEHEND
 62
     1
  5
2FD
 66
     1
 10
0.0
 20
0.0
 30
0.0
 75
     5
  0
VERTEX
  8
0
  5
2FE
 10
93.855736
 20
81.625511
 30
0.0
  0
VERTEX
  8
0
  5
2FF
 10
93.859444
 20
81.786362
 30
0.0
  0
VERTEX
  8
0
  5
300
 10
93.864014
 20
81.987442
 30
0.0
  0
VERTEX
  8
0
  5
301
 10
93.869339
 20
82.223511
 30
0.0
  0
VERTEX
  8
0
  5
302
 10
93.87529
 20
82.489319
 30
0.0
  0
VERTEX
  8
0
  5
303
 10
93.881767
 20
82.77964
 30
0.0
  0
VERTEX
  8
0
  5
304
 10
93.888649
 20
83.089218
 30
0.0
  0
VERTEX
  8
0
  5
305
 10
93.895828
 20
83.412819
 30
0.0
  0
VERTEX
  8
0
  5
306
 10
93.903183
 20
83.745193
 30
0.0
  0
VERTEX
  8
0
  5
307
 10
93.910606
 20
84.081108
 30
0.0
  0
VERTEX
  8
0
  5
308
 10
93.917976
 20
84.415306
 30
0.0
  0
VERTEX
  8
0
  5
309
 10
93.925186
 20
84.742561
 30
0.0
  0
VERTEX
  8
0
  5
30A
 10
93.932121
 20
85.057625
 30
0.0
  0
VERTEX
  8
0
  5
30B
 10
93.938667
 20
85.355255
 30
0.0
  0
VERTEX
  8
0
  5
30C
 10
93.94471
 20
85.630211
 30
0.0
  0
VERTEX
  8
0
  5
30D
 10
93.950134
 20
85.877251
 30
0.0
  0
VERTEX
  8
0
  5
30E
 10
93.954834
 20
86.091125
 30
0.0
  0
VERTEX
  8
0
  5
30F
 10
93.958679
 20
86.266594
 30
0.0
  0
VERTEX
  8
0
  5
310
 10
93.961571
 20
86.398422
 30
0.0
  0
VERTEX
  8
0
  5
311
 10
93.963387
 20
86.481369
 30
0.0
  0
VERTEX
  8
0
  5
312
 10
93.96402
 20
86.510178
 30
0.0
  0
SEQEND
  8
0
  5
313
  0
POLYLINE
  8
ARMATUR
  6
DURCHGEHEND
 62
     1
  5
314
 66
     1
 10
0.0
 20
0.0
 30
0.0
 75
     5
  0
VERTEX
  8
0
  5
315
 10
93.506439
 20
86.510178
 30
0.0
  0
VERTEX
  8
0
  5
316
 10
93.514374
 20
86.010315
 30
0.0
  0
VERTEX
  8
0
  5
317
 10
93.545654
 20
84.010887
 30
0.0
  0
VERTEX
  8
0
  5
318
 10
93.546257
 20
83.994957
 30
0.0
  0
VERTEX
  8
0
  5
319
 10
93.547989
 20
83.949249
 30
0.0
  0
VERTEX
  8
0
  5
31A
 10
93.550728
 20
83.87693
 30
0.0
  0
VERTEX
  8
0
  5
31B
 10
93.554344
 20
83.781136
 30
0.0
  0
VERTEX
  8
0
  5
31C
 10
93.558716
 20
83.665016
 30
0.0
  0
VERTEX
  8
0
  5
31D
 10
93.563728
 20
83.531723
 30
0.0
  0
VERTEX
  8
0
  5
31E
 10
93.569252
 20
83.384407
 30
0.0
  0
VERTEX
  8
0
  5
31F
 10
93.575165
 20
83.226212
 30
0.0
  0
VERTEX
  8
0
  5
320
 10
93.581345
 20
83.060287
 30
0.0
  0
VERTEX
  8
0
  5
321
 10
93.587669
 20
82.889778
 30
0.0
  0
VERTEX
  8
0
  5
322
 10
93.594009
 20
82.717842
 30
0.0
  0
VERTEX
  8
0
  5
323
 10
93.600258
 20
82.547623
 30
0.0
  0
VERTEX
  8
0
  5
324
 10
93.606277
 20
82.382271
 30
0.0
  0
VERTEX
  8
0
  5
325
 10
93.611946
 20
82.22493
 30
0.0
  0
VERTEX
  8
0
  5
326
 10
93.617157
 20
82.078751
 30
0.0
  0
VERTEX
  8
0
  5
327
 10
93.621765
 20
81.946892
 30
0.0
  0
VERTEX
  8
0
  5
328
 10
93.625664
 20
81.832481
 30
0.0
  0
VERTEX
  8
0
  5
329
 10
93.628716
 20
81.738686
 30
0.0
  0
VERTEX
  8
0
  5
32A
 10
93.630814
 20
81.668648
 30
0.0
  0
VERTEX
  8
0
  5
32B
 10
93.631828
 20
81.625511
 30
0.0
  0
SEQEND
  8
0
  5
32C
  0
POLYLINE
  8
ARMATUR
  6
DURCHGEHEND
 62
     1
  5
32D
 66
     1
 10
0.0
 20
0.0
 30
0.0
 75
     5
  0
VERTEX
  8
0
  5
32E
 10
92.509781
 20
86.984413
 30
0.0
  0
VERTEX
  8
0
  5
32F
 10
93.072571
 20
86.894577
 30
0.0
  0
VERTEX
  8
0
  5
330
 10
93.331696
 20
86.778336
 30
0.0
  0
VERTEX
  8
0
  5
331
 10
93.443008
 20
86.677452
 30
0.0
  0
VERTEX
  8
0
  5
332
 10
93.491486
 20
86.591057
 30
0.0
  0
VERTEX
  8
0
  5
333
 10
93.506439
 20
86.510178
 30
0.0
  0
SEQEND
  8
0
  5
334
  0
ARC
  8
ARMATUR
  6
DURCHGEHEND
 62
     1
  5
335
 10
91.160553
 20
67.16729
 30
0.0
 40
19.862999
 50
86.105003
 51
93.894997
  0
POLYLINE
  8
ARMATUR
  6
DURCHGEHEND
 62
     1
  5
336
 66
     1
 10
0.0
 20
0.0
 30
0.0
 75
     5
  0
VERTEX
  8
0
  5
337
 10
88.814667
 20
86.510178
 30
0.0
  0
VERTEX
  8
0
  5
338
 10
88.819489
 20
86.55481
 30
0.0
  0
VERTEX
  8
0
  5
339
 10
88.859283
 20
86.650909
 30
0.0
  0
VERTEX
  8
0
  5
33A
 10
88.925125
 20
86.728043
 30
0.0
  0
VERTEX
  8
0
  5
33B
 10
89.079163
 20
86.829643
 30
0.0
  0
VERTEX
  8
0
  5
33C
 10
89.251709
 20
86.895538
 30
0.0
  0
VERTEX
  8
0
  5
33D
 10
89.81131
 20
86.984413
 30
0.0
  0
SEQEND
  8
0
  5
33E
  0
POLYLINE
  8
ARMATUR
  6
DURCHGEHEND
 62
     1
  5
33F
 66
     1
 10
0.0
 20
0.0
 30
0.0
 75
     5
  0
VERTEX
  8
0
  5
340
 10
88.759567
 20
81.625511
 30
0.0
  0
VERTEX
  8
0
  5
341
 10
88.761917
 20
81.786362
 30
0.0
  0
VERTEX
  8
0
  5
342
 10
88.764603
 20
81.987442
 30
0.0
  0
VERTEX
  8
0
  5
343
 10
88.767593
 20
82.223511
 30
0.0
  0
VERTEX
  8
0
  5
344
 10
88.770821
 20
82.489319
 30
0.0
  0
VERTEX
  8
0
  5
345
 10
88.774246
 20
82.77964
 30
0.0
  0
VERTEX
  8
0
  5
346
 10
88.777809
 20
83.089218
 30
0.0
  0
VERTEX
  8
0
  5
347
 10
88.781471
 20
83.412819
 30
0.0
  0
VERTEX
  8
0
  5
348
 10
88.785172
 20
83.745193
 30
0.0
  0
VERTEX
  8
0
  5
349
 10
88.788872
 20
84.081108
 30
0.0
  0
VERTEX
  8
0
  5
34A
 10
88.792511
 20
84.415306
 30
0.0
  0
VERTEX
  8
0
  5
34B
 10
88.796043
 20
84.742561
 30
0.0
  0
VERTEX
  8
0
  5
34C
 10
88.799416
 20
85.057625
 30
0.0
  0
VERTEX
  8
0
  5
34D
 10
88.802574
 20
85.355255
 30
0.0
  0
VERTEX
  8
0
  5
34E
 10
88.805481
 20
85.630211
 30
0.0
  0
VERTEX
  8
0
  5
34F
 10
88.808083
 20
85.877251
 30
0.0
  0
VERTEX
  8
0
  5
350
 10
88.810318
 20
86.091125
 30
0.0
  0
VERTEX
  8
0
  5
351
 10
88.812141
 20
86.266594
 30
0.0
  0
VERTEX
  8
0
  5
352
 10
88.813515
 20
86.398422
 30
0.0
  0
VERTEX
  8
0
  5
353
 10
88.814369
 20
86.481369
 30
0.0
  0
VERTEX
  8
0
  5
354
 10
88.814667
 20
86.510178
 30
0.0
  0
SEQEND
  8
0
  5
355
  0
POLYLINE
  8
ARMATUR
  6
DURCHGEHEND
 62
     1
  5
356
 66
     1
 10
0.0
 20
0.0
 30
0.0
 75
     5
  0
VERTEX
  8
0
  5
357
 10
88.357086
 20
86.510178
 30
0.0
  0
VERTEX
  8
0
  5
358
 10
88.368835
 20
86.010315
 30
0.0
  0
VERTEX
  8
0
  5
359
 10
88.415558
 20
84.010887
 30
0.0
  0
VERTEX
  8
0
  5
35A
 10
88.41555
 20
83.994949
 30
0.0
  0
VERTEX
  8
0
  5
35B
 10
88.415543
 20
83.949242
 30
0.0
  0
VERTEX
  8
0
  5
35C
 10
88.415527
 20
83.876915
 30
0.0
  0
VERTEX
  8
0
  5
35D
 10
88.41552
 20
83.781105
 30
0.0
  0
VERTEX
  8
0
  5
35E
 10
88.415512
 20
83.664978
 30
0.0
  0
VERTEX
  8
0
  5
35F
 10
88.41552
 20
83.53167
 30
0.0
  0
VERTEX
  8
0
  5
360
 10
88.415543
 20
83.384338
 30
0.0
  0
VERTEX
  8
0
  5
361
 10
88.415581
 20
83.226128
 30
0.0
  0
VERTEX
  8
0
  5
362
 10
88.415649
 20
83.060196
 30
0.0
  0
VERTEX
  8
0
  5
363
 10
88.415741
 20
82.889679
 30
0.0
  0
VERTEX
  8
0
  5
364
 10
88.415871
 20
82.717735
 30
0.0
  0
VERTEX
  8
0
  5
365
 10
88.416039
 20
82.547508
 30
0.0
  0
VERTEX
  8
0
  5
366
 10
88.416245
 20
82.382149
 30
0.0
  0
VERTEX
  8
0
  5
367
 10
88.416496
 20
82.224815
 30
0.0
  0
VERTEX
  8
0
  5
368
 10
88.416801
 20
82.078644
 30
0.0
  0
VERTEX
  8
0
  5
369
 10
88.41716
 20
81.946785
 30
0.0
  0
VERTEX
  8
0
  5
36A
 10
88.41758
 20
81.832397
 30
0.0
  0
VERTEX
  8
0
  5
36B
 10
88.41806
 20
81.738617
 30
0.0
  0
VERTEX
  8
0
  5
36C
 10
88.41861
 20
81.66861
 30
0.0
  0
VERTEX
  8
0
  5
36D
 10
88.419228
 20
81.625511
 30
0.0
  0
SEQEND
  8
0
  5
36E
  0
POLYLINE
  8
ARMATUR
  6
DURCHGEHEND
 62
     1
  5
36F
 66
     1
 10
0.0
 20
0.0
 30
0.0
 75
     5
  0
VERTEX
  8
0
  5
370
 10
87.521713
 20
86.984413
 30
0.0
  0
VERTEX
  8
0
  5
371
 10
87.966492
 20
86.894577
 30
0.0
  0
VERTEX
  8
0
  5
372
 10
88.193726
 20
86.778336
 30
0.0
  0
VERTEX
  8
0
  5
373
 10
88.296387
 20
86.677452
 30
0.0
  0
VERTEX
  8
0
  5
374
 10
88.342346
 20
86.591057
 30
0.0
  0
VERTEX
  8
0
  5
375
 10
88.357086
 20
86.510178
 30
0.0
  0
SEQEND
  8
0
  5
376
  0
ARC
  8
ARMATUR
  6
DURCHGEHEND
 62
     1
  5
377
 10
86.847107
 20
82.371353
 30
0.0
 40
4.662125
 50
81.68
 51
98.32
  0
POLYLINE
  8
ARMATUR
  6
DURCHGEHEND
 62
     1
  5
378
 66
     1
 10
0.0
 20
0.0
 30
0.0
 75
     5
  0
VERTEX
  8
0
  5
379
 10
86.0112
 20
86.510178
 30
0.0
  0
VERTEX
  8
0
  5
37A
 10
86.011108
 20
86.55481
 30
0.0
  0
VERTEX
  8
0
  5
37B
 10
86.012817
 20
86.650909
 30
0.0
  0
VERTEX
  8
0
  5
37C
 10
86.017166
 20
86.728043
 30
0.0
  0
VERTEX
  8
0
  5
37D
 10
86.031876
 20
86.829643
 30
0.0
  0
VERTEX
  8
0
  5
37E
 10
86.054932
 20
86.895538
 30
0.0
  0
VERTEX
  8
0
  5
37F
 10
86.172485
 20
86.984413
 30
0.0
  0
SEQEND
  8
0
  5
380
  0
LINE
  8
ARMATUR
  6
DURCHGEHEND
 62
     1
  5
381
 10
137.274063
 20
90.162842
 30
0.0
 11
137.300919
 21
87.086235
 31
0.0
  0
LINE
  8
ARMATUR
  6
DURCHGEHEND
 62
     1
  5
382
 10
147.622223
 20
87.086121
 30
0.0
 11
147.649078
 21
90.162842
 31
0.0
  0
ARC
  8
ARMATUR
  6
DURCHGEHEND
 62
     1
  5
383
 10
136.774063
 20
90.158478
 30
0.0
 40
0.5
 50
0.501
 51
43.535
  0
ARC
  8
ARMATUR
  6
DURCHGEHEND
 62
     1
  5
384
 10
148.149017
 20
90.158478
 30
0.0
 40
0.5
 50
136.464996
 51
179.498993
  0
LINE
  8
ARMATUR
  6
DURCHGEHEND
 62
     1
  5
385
 10
137.136551
 20
93.002884
 30
0.0
 11
137.136551
 21
90.502884
 31
0.0
  0
LINE
  8
ARMATUR
  6
DURCHGEHEND
 62
     1
  5
386
 10
147.78656
 20
90.502884
 30
0.0
 11
147.78656
 21
93.002884
 31
0.0
  0
ARC
  8
ARMATUR
  6
STITCHLINE
 62
     5
  5
387
 10
147.372223
 20
87.088997
 30
0.0
 40
0.25
 50
319.579193
 51
359.338989
  0
ARC
  8
ARMATUR
  6
STITCHLINE
 62
     5
  5
388
 10
137.550888
 20
87.088997
 30
0.0
 40
0.25
 50
180.630005
 51
220.341599
  0
LINE
  8
ARMATUR
  6
DURCHGEHEND
 62
     1
  5
389
 10
137.136551
 20
90.502884
 30
0.0
 11
138.341888
 21
90.502884
 31
0.0
  0
LINE
  8
ARMATUR
  6
DURCHGEHEND
 62
     1
  5
38A
 10
146.841888
 20
90.502884
 30
0.0
 11
147.78656
 21
90.502884
 31
0.0
  0
LINE
  8
ARMATUR
  6
DURCHGEHEND
 62
     1
  5
38B
 10
137.274063
 20
90.162842
 30
0.0
 11
138.341888
 21
90.162842
 31
0.0
  0
LINE
  8
ARMATUR
  6
DURCHGEHEND
 62
     1
  5
38C
 10
146.841888
 20
90.162842
 30
0.0
 11
147.649078
 21
90.162842
 31
0.0
  0
POLYLINE
  8
ARMATUR
  6
DURCHGEHEND
 62
     1
  5
38D
 66
     1
 10
0.0
 20
0.0
 30
0.0
 75
     5
  0
VERTEX
  8
0
  5
38E
 10
67.594406
 20
60.401833
 30
0.0
  0
VERTEX
  8
0
  5
38F
 10
67.578194
 20
60.401878
 30
0.0
  0
VERTEX
  8
0
  5
390
 10
67.531403
 20
60.402187
 30
0.0
  0
VERTEX
  8
0
  5
391
 10
67.456764
 20
60.403034
 30
0.0
  0
VERTEX
  8
0
  5
392
 10
67.357048
 20
60.404678
 30
0.0
  0
VERTEX
  8
0
  5
393
 10
67.235001
 20
60.407394
 30
0.0
  0
VERTEX
  8
0
  5
394
 10
67.093361
 20
60.411442
 30
0.0
  0
VERTEX
  8
0
  5
395
 10
66.934891
 20
60.417095
 30
0.0
  0
VERTEX
  8
0
  5
396
 10
66.762337
 20
60.424614
 30
0.0
  0
VERTEX
  8
0
  5
397
 10
66.578453
 20
60.434273
 30
0.0
  0
VERTEX
  8
0
  5
398
 10
66.385986
 20
60.446331
 30
0.0
  0
VERTEX
  8
0
  5
399
 10
66.187683
 20
60.46106
 30
0.0
  0
VERTEX
  8
0
  5
39A
 10
65.986305
 20
60.478729
 30
0.0
  0
VERTEX
  8
0
  5
39B
 10
65.784592
 20
60.499603
 30
0.0
  0
VERTEX
  8
0
  5
39C
 10
65.585304
 20
60.523945
 30
0.0
  0
VERTEX
  8
0
  5
39D
 10
65.391182
 20
60.552029
 30
0.0
  0
VERTEX
  8
0
  5
39E
 10
65.204979
 20
60.584114
 30
0.0
  0
VERTEX
  8
0
  5
39F
 10
65.029457
 20
60.620476
 30
0.0
  0
VERTEX
  8
0
  5
3A0
 10
64.867348
 20
60.661377
 30
0.0
  0
VERTEX
  8
0
  5
3A1
 10
64.721413
 20
60.707085
 30
0.0
  0
VERTEX
  8
0
  5
3A2
 10
64.594406
 20
60.757866
 30
0.0
  0
SEQEND
  8
0
  5
3A3
  0
ARC
  8
ARMATUR
  6
DURCHGEHEND
 62
     1
  5
3A4
 10
67.219406
 20
74.587074
 30
0.0
 40
0.625
 50
0.0
 51
55.385986
  0
ARC
  8
ARMATUR
  6
DURCHGEHEND
 62
     1
  5
3A5
 10
67.219406
 20
74.587074
 30
0.0
 40
0.625
 50
293.576996
 51
360.0
  0
ARC
  8
ARMATUR
  6
DURCHGEHEND
 62
     1
  5
3A6
 10
64.969406
 20
74.587074
 30
0.0
 40
0.625
 50
124.613007
 51
246.421997
  0
ARC
  8
ARMATUR
  6
DURCHGEHEND
 62
     1
  5
3A7
 10
66.969406
 20
71.046181
 30
0.0
 40
0.875
 50
0.0
 51
55.149994
  0
ARC
  8
ARMATUR
  6
DURCHGEHEND
 62
     1
  5
3A8
 10
65.219406
 20
71.046181
 30
0.0
 40
0.875
 50
124.850006
 51
180.0
  0
LINE
  8
ARMATUR
  6
DURCHGEHEND
 62
     1
  5
3A9
 10
67.844406
 20
71.046181
 30
0.0
 11
67.844406
 21
70.264252
 31
0.0
  0
LINE
  8
ARMATUR
  6
DURCHGEHEND
 62
     1
  5
3AA
 10
64.344406
 20
70.264252
 30
0.0
 11
64.344406
 21
71.046181
 31
0.0
  0
LINE
  8
ARMATUR
  6
DURCHGEHEND
 62
     1
  5
3AB
 10
67.594406
 20
70.264252
 30
0.0
 11
67.594406
 21
60.482307
 31
0.0
  0
LINE
  8
ARMATUR
  6
DURCHGEHEND
 62
     1
  5
3AC
 10
64.594406
 20
60.811546
 30
0.0
 11
64.594406
 21
70.264252
 31
0.0
  0
LINE
  8
ARMATUR
  6
DURCHGEHEND
 62
     1
  5
3AD
 10
64.742477
 20
74.014252
 30
0.0
 11
64.719406
 21
74.014252
 31
0.0
  0
LINE
  8
ARMATUR
  6
DURCHGEHEND
 62
     1
  5
3AE
 10
64.80925
 20
74.014252
 30
0.0
 11
64.742477
 21
74.014252
 31
0.0
  0
LINE
  8
ARMATUR
  6
DURCHGEHEND
 62
     1
  5
3AF
 10
65.315781
 20
74.014252
 30
0.0
 11
64.80925
 21
74.014252
 31
0.0
  0
LINE
  8
ARMATUR
  6
DURCHGEHEND
 62
     1
  5
3B0
 10
65.531342
 20
74.014252
 30
0.0
 11
65.315781
 21
74.014252
 31
0.0
  0
LINE
  8
ARMATUR
  6
DURCHGEHEND
 62
     1
  5
3B1
 10
66.345215
 20
74.014252
 30
0.0
 11
65.531342
 21
74.014252
 31
0.0
  0
LINE
  8
ARMATUR
  6
DURCHGEHEND
 62
     1
  5
3B2
 10
66.583282
 20
74.014252
 30
0.0
 11
66.345215
 21
74.014252
 31
0.0
  0
LINE
  8
ARMATUR
  6
DURCHGEHEND
 62
     1
  5
3B3
 10
67.227707
 20
74.014252
 30
0.0
 11
66.583282
 21
74.014252
 31
0.0
  0
LINE
  8
ARMATUR
  6
DURCHGEHEND
 62
     1
  5
3B4
 10
67.348831
 20
74.014252
 30
0.0
 11
67.227707
 21
74.014252
 31
0.0
  0
LINE
  8
ARMATUR
  6
DURCHGEHEND
 62
     1
  5
3B5
 10
67.469406
 20
74.014252
 30
0.0
 11
67.348831
 21
74.014252
 31
0.0
  0
LINE
  8
ARMATUR
  6
DURCHGEHEND
 62
     1
  5
3B6
 10
64.930817
 20
75.101456
 30
0.0
 11
64.614395
 21
75.101456
 31
0.0
  0
LINE
  8
ARMATUR
  6
DURCHGEHEND
 62
     1
  5
3B7
 10
67.574432
 20
75.101456
 30
0.0
 11
64.930817
 21
75.101456
 31
0.0
  0
LINE
  8
ARMATUR
  6
DURCHGEHEND
 62
     1
  5
3B8
 10
67.469406
 20
71.764252
 30
0.0
 11
67.348831
 21
71.764252
 31
0.0
  0
LINE
  8
ARMATUR
  6
DURCHGEHEND
 62
     1
  5
3B9
 10
67.348831
 20
71.764252
 30
0.0
 11
67.227707
 21
71.764252
 31
0.0
  0
LINE
  8
ARMATUR
  6
DURCHGEHEND
 62
     1
  5
3BA
 10
67.227707
 20
71.764252
 30
0.0
 11
66.583282
 21
71.764252
 31
0.0
  0
LINE
  8
ARMATUR
  6
DURCHGEHEND
 62
     1
  5
3BB
 10
66.583282
 20
71.764252
 30
0.0
 11
66.345215
 21
71.764252
 31
0.0
  0
LINE
  8
ARMATUR
  6
DURCHGEHEND
 62
     1
  5
3BC
 10
66.345215
 20
71.764252
 30
0.0
 11
65.531342
 21
71.764252
 31
0.0
  0
LINE
  8
ARMATUR
  6
DURCHGEHEND
 62
     1
  5
3BD
 10
65.531342
 20
71.764252
 30
0.0
 11
65.315781
 21
71.764252
 31
0.0
  0
LINE
  8
ARMATUR
  6
DURCHGEHEND
 62
     1
  5
3BE
 10
65.315781
 20
71.764252
 30
0.0
 11
64.80925
 21
71.764252
 31
0.0
  0
LINE
  8
ARMATUR
  6
DURCHGEHEND
 62
     1
  5
3BF
 10
64.80925
 20
71.764252
 30
0.0
 11
64.742477
 21
71.764252
 31
0.0
  0
LINE
  8
ARMATUR
  6
DURCHGEHEND
 62
     1
  5
3C0
 10
64.742477
 20
71.764252
 30
0.0
 11
64.719406
 21
71.764252
 31
0.0
  0
LINE
  8
ARMATUR
  6
DURCHGEHEND
 62
     1
  5
3C1
 10
64.718552
 20
70.264252
 30
0.0
 11
64.344406
 21
70.264252
 31
0.0
  0
LINE
  8
ARMATUR
  6
DURCHGEHEND
 62
     1
  5
3C2
 10
67.844406
 20
70.264252
 30
0.0
 11
64.718552
 21
70.264252
 31
0.0
  0
LINE
  8
ARMATUR
  6
DURCHGEHEND
 62
     1
  5
3C3
 10
66.504654
 20
74.014252
 30
0.0
 11
66.504654
 21
71.764252
 31
0.0
  0
LINE
  8
ARMATUR
  6
DURCHGEHEND
 62
     1
  5
3C4
 10
65.690781
 20
71.764252
 30
0.0
 11
65.690781
 21
74.014252
 31
0.0
  0
LINE
  8
ARMATUR
  6
DURCHGEHEND
 62
     1
  5
3C5
 10
66.742722
 20
71.764252
 30
0.0
 11
66.742722
 21
74.014252
 31
0.0
  0
LINE
  8
ARMATUR
  6
DURCHGEHEND
 62
     1
  5
3C6
 10
65.47522
 20
74.014252
 30
0.0
 11
65.47522
 21
71.764252
 31
0.0
  0
LINE
  8
ARMATUR
  6
DURCHGEHEND
 62
     1
  5
3C7
 10
67.44635
 20
74.014252
 30
0.0
 11
67.44635
 21
71.764252
 31
0.0
  0
LINE
  8
ARMATUR
  6
DURCHGEHEND
 62
     1
  5
3C8
 10
64.742477
 20
74.014252
 30
0.0
 11
64.742477
 21
71.764252
 31
0.0
  0
LINE
  8
ARMATUR
  6
DURCHGEHEND
 62
     1
  5
3C9
 10
67.594406
 20
78.426453
 30
0.0
 11
66.255402
 21
78.325974
 31
0.0
  0
LINE
  8
ARMATUR
  6
DURCHGEHEND
 62
     1
  5
3CA
 10
66.255402
 20
78.325974
 30
0.0
 11
66.255402
 21
75.276932
 31
0.0
  0
LINE
  8
ARMATUR
  6
DURCHGEHEND
 62
     1
  5
3CB
 10
66.255402
 20
75.276932
 30
0.0
 11
67.594406
 21
75.176453
 31
0.0
  0
LINE
  8
ARMATUR
  6
DURCHGEHEND
 62
     1
  5
3CC
 10
67.594406
 20
75.176453
 30
0.0
 11
68.933426
 21
75.276932
 31
0.0
  0
LINE
  8
ARMATUR
  6
DURCHGEHEND
 62
     1
  5
3CD
 10
68.933426
 20
78.325974
 30
0.0
 11
67.594406
 21
78.426453
 31
0.0
  0
LINE
  8
ARMATUR
  6
DURCHGEHEND
 62
     1
  5
3CE
 10
65.933426
 20
75.276932
 30
0.0
 11
66.255402
 21
75.276932
 31
0.0
  0
POLYLINE
  8
ARMATUR
  6
DURCHGEHEND
 62
     1
  5
3CF
 66
     1
 10
0.0
 20
0.0
 30
0.0
 75
     5
  0
VERTEX
  8
0
  5
3D0
 10
64.594406
 20
75.176453
 30
0.0
  0
VERTEX
  8
0
  5
3D1
 10
65.612595
 20
75.235977
 30
0.0
  0
VERTEX
  8
0
  5
3D2
 10
65.933426
 20
75.276932
 30
0.0
  0
SEQEND
  8
0
  5
3D3
  0
LINE
  8
ARMATUR
  6
DURCHGEHEND
 62
     1
  5
3D4
 10
67.594406
 20
75.176453
 30
0.0
 11
64.594406
 21
75.176453
 31
0.0
  0
POLYLINE
  8
ARMATUR
  6
DURCHGEHEND
 62
     1
  5
3D5
 66
     1
 10
0.0
 20
0.0
 30
0.0
 75
     5
  0
VERTEX
  8
0
  5
3D6
 10
65.933426
 20
78.325974
 30
0.0
  0
VERTEX
  8
0
  5
3D7
 10
65.612595
 20
78.366928
 30
0.0
  0
VERTEX
  8
0
  5
3D8
 10
64.594406
 20
78.426453
 30
0.0
  0
SEQEND
  8
0
  5
3D9
  0
LINE
  8
ARMATUR
  6
DURCHGEHEND
 62
     1
  5
3DA
 10
66.255402
 20
78.325974
 30
0.0
 11
65.933426
 21
78.325974
 31
0.0
  0
LINE
  8
ARMATUR
  6
DURCHGEHEND
 62
     1
  5
3DB
 10
67.594406
 20
78.426453
 30
0.0
 11
64.594406
 21
78.426453
 31
0.0
  0
LINE
  8
ARMATUR
  6
DURCHGEHEND
 62
     1
  5
3DC
 10
65.933426
 20
75.276932
 30
0.0
 11
65.933426
 21
78.325974
 31
0.0
  0
LINE
  8
ARMATUR
  6
DURCHGEHEND
 62
     1
  5
3DD
 10
64.594406
 20
78.426453
 30
0.0
 11
63.25539
 21
78.325974
 31
0.0
  0
LINE
  8
ARMATUR
  6
DURCHGEHEND
 62
     1
  5
3DE
 10
63.25539
 20
75.276932
 30
0.0
 11
64.594406
 21
75.176453
 31
0.0
  0
LINE
  8
ARMATUR
  6
DURCHGEHEND
 62
     1
  5
3DF
 10
69.094406
 20
78.325974
 30
0.0
 11
68.933426
 21
78.325974
 31
0.0
  0
LINE
  8
ARMATUR
  6
DURCHGEHEND
 62
     1
  5
3E0
 10
69.094406
 20
78.426453
 30
0.0
 11
69.094406
 21
78.325974
 31
0.0
  0
LINE
  8
ARMATUR
  6
DURCHGEHEND
 62
     1
  5
3E1
 10
69.094406
 20
78.426453
 30
0.0
 11
67.594406
 21
78.426453
 31
0.0
  0
LINE
  8
ARMATUR
  6
DURCHGEHEND
 62
     1
  5
3E2
 10
69.094406
 20
75.276932
 30
0.0
 11
69.094406
 21
75.176453
 31
0.0
  0
LINE
  8
ARMATUR
  6
DURCHGEHEND
 62
     1
  5
3E3
 10
68.933426
 20
75.276932
 30
0.0
 11
69.094406
 21
75.276932
 31
0.0
  0
LINE
  8
ARMATUR
  6
DURCHGEHEND
 62
     1
  5
3E4
 10
69.094406
 20
75.176453
 30
0.0
 11
67.594406
 21
75.176453
 31
0.0
  0
LINE
  8
ARMATUR
  6
DURCHGEHEND
 62
     1
  5
3E5
 10
63.09441
 20
78.325974
 30
0.0
 11
63.09441
 21
78.426453
 31
0.0
  0
LINE
  8
ARMATUR
  6
DURCHGEHEND
 62
     1
  5
3E6
 10
63.25539
 20
78.325974
 30
0.0
 11
63.09441
 21
78.325974
 31
0.0
  0
LINE
  8
ARMATUR
  6
DURCHGEHEND
 62
     1
  5
3E7
 10
64.594406
 20
78.426453
 30
0.0
 11
63.09441
 21
78.426453
 31
0.0
  0
LINE
  8
ARMATUR
  6
DURCHGEHEND
 62
     1
  5
3E8
 10
63.09441
 20
75.276932
 30
0.0
 11
63.25539
 21
75.276932
 31
0.0
  0
LINE
  8
ARMATUR
  6
DURCHGEHEND
 62
     1
  5
3E9
 10
63.09441
 20
75.176453
 30
0.0
 11
63.09441
 21
75.276932
 31
0.0
  0
LINE
  8
ARMATUR
  6
DURCHGEHEND
 62
     1
  5
3EA
 10
64.594406
 20
75.176453
 30
0.0
 11
63.09441
 21
75.176453
 31
0.0
  0
LINE
  8
ARMATUR
  6
DURCHGEHEND
 62
     1
  5
3EB
 10
69.094406
 20
78.325974
 30
0.0
 11
69.094406
 21
75.276932
 31
0.0
  0
LINE
  8
ARMATUR
  6
DURCHGEHEND
 62
     1
  5
3EC
 10
63.09441
 20
75.276932
 30
0.0
 11
63.09441
 21
78.325974
 31
0.0
  0
POLYLINE
  8
ARMATUR
  6
DURCHGEHEND
 62
     1
  5
3ED
 66
     1
 10
0.0
 20
0.0
 30
0.0
 75
     5
  0
VERTEX
  8
0
  5
3EE
 10
144.128052
 20
60.400879
 30
0.0
  0
VERTEX
  8
0
  5
3EF
 10
144.111847
 20
60.400925
 30
0.0
  0
VERTEX
  8
0
  5
3F0
 10
144.065048
 20
60.401234
 30
0.0
  0
VERTEX
  8
0
  5
3F1
 10
143.990417
 20
60.402081
 30
0.0
  0
VERTEX
  8
0
  5
3F2
 10
143.890701
 20
60.403725
 30
0.0
  0
VERTEX
  8
0
  5
3F3
 10
143.768646
 20
60.406441
 30
0.0
  0
VERTEX
  8
0
  5
3F4
 10
143.627014
 20
60.410488
 30
0.0
  0
VERTEX
  8
0
  5
3F5
 10
143.468536
 20
60.416142
 30
0.0
  0
VERTEX
  8
0
  5
3F6
 10
143.29599
 20
60.42366
 30
0.0
  0
VERTEX
  8
0
  5
3F7
 10
143.112091
 20
60.433319
 30
0.0
  0
VERTEX
  8
0
  5
3F8
 10
142.919632
 20
60.445377
 30
0.0
  0
VERTEX
  8
0
  5
3F9
 10
142.721329
 20
60.460106
 30
0.0
  0
VERTEX
  8
0
  5
3FA
 10
142.519943
 20
60.477776
 30
0.0
  0
VERTEX
  8
0
  5
3FB
 10
142.318237
 20
60.49865
 30
0.0
  0
VERTEX
  8
0
  5
3FC
 10
142.118942
 20
60.522991
 30
0.0
  0
VERTEX
  8
0
  5
3FD
 10
141.92482
 20
60.551075
 30
0.0
  0
VERTEX
  8
0
  5
3FE
 10
141.738632
 20
60.58316
 30
0.0
  0
VERTEX
  8
0
  5
3FF
 10
141.563095
 20
60.619522
 30
0.0
  0
VERTEX
  8
0
  5
400
 10
141.401001
 20
60.660423
 30
0.0
  0
VERTEX
  8
0
  5
401
 10
141.255066
 20
60.706131
 30
0.0
  0
VERTEX
  8
0
  5
402
 10
141.128052
 20
60.756912
 30
0.0
  0
SEQEND
  8
0
  5
403
  0
ARC
  8
ARMATUR
  6
DURCHGEHEND
 62
     1
  5
404
 10
143.753052
 20
74.586121
 30
0.0
 40
0.625
 50
0.0
 51
55.385986
  0
ARC
  8
ARMATUR
  6
DURCHGEHEND
 62
     1
  5
405
 10
143.753052
 20
74.586121
 30
0.0
 40
0.625
 50
293.576996
 51
360.0
  0
ARC
  8
ARMATUR
  6
DURCHGEHEND
 62
     1
  5
406
 10
141.503052
 20
74.586121
 30
0.0
 40
0.625
 50
124.613007
 51
246.421997
  0
ARC
  8
ARMATUR
  6
DURCHGEHEND
 62
     1
  5
407
 10
143.503052
 20
71.045227
 30
0.0
 40
0.875
 50
0.0
 51
55.149994
  0
ARC
  8
ARMATUR
  6
DURCHGEHEND
 62
     1
  5
408
 10
141.753052
 20
71.045227
 30
0.0
 40
0.875
 50
124.850006
 51
180.0
  0
LINE
  8
ARMATUR
  6
DURCHGEHEND
 62
     1
  5
409
 10
144.378052
 20
71.045227
 30
0.0
 11
144.378052
 21
70.263298
 31
0.0
  0
LINE
  8
ARMATUR
  6
DURCHGEHEND
 62
     1
  5
40A
 10
140.878052
 20
70.263298
 30
0.0
 11
140.878052
 21
71.045227
 31
0.0
  0
LINE
  8
ARMATUR
  6
DURCHGEHEND
 62
     1
  5
40B
 10
144.128052
 20
70.263298
 30
0.0
 11
144.128052
 21
60.481354
 31
0.0
  0
LINE
  8
ARMATUR
  6
DURCHGEHEND
 62
     1
  5
40C
 10
141.128052
 20
60.810593
 30
0.0
 11
141.128052
 21
70.263298
 31
0.0
  0
LINE
  8
ARMATUR
  6
DURCHGEHEND
 62
     1
  5
40D
 10
141.276123
 20
74.013298
 30
0.0
 11
141.253052
 21
74.013298
 31
0.0
  0
LINE
  8
ARMATUR
  6
DURCHGEHEND
 62
     1
  5
40E
 10
141.342896
 20
74.013298
 30
0.0
 11
141.276123
 21
74.013298
 31
0.0
  0
LINE
  8
ARMATUR
  6
DURCHGEHEND
 62
     1
  5
40F
 10
141.849426
 20
74.013298
 30
0.0
 11
141.342896
 21
74.013298
 31
0.0
  0
LINE
  8
ARMATUR
  6
DURCHGEHEND
 62
     1
  5
410
 10
142.064987
 20
74.013298
 30
0.0
 11
141.849426
 21
74.013298
 31
0.0
  0
LINE
  8
ARMATUR
  6
DURCHGEHEND
 62
     1
  5
411
 10
142.87886
 20
74.013298
 30
0.0
 11
142.064987
 21
74.013298
 31
0.0
  0
LINE
  8
ARMATUR
  6
DURCHGEHEND
 62
     1
  5
412
 10
143.116928
 20
74.013298
 30
0.0
 11
142.87886
 21
74.013298
 31
0.0
  0
LINE
  8
ARMATUR
  6
DURCHGEHEND
 62
     1
  5
413
 10
143.761353
 20
74.013298
 30
0.0
 11
143.116928
 21
74.013298
 31
0.0
  0
LINE
  8
ARMATUR
  6
DURCHGEHEND
 62
     1
  5
414
 10
143.882477
 20
74.013298
 30
0.0
 11
143.761353
 21
74.013298
 31
0.0
  0
LINE
  8
ARMATUR
  6
DURCHGEHEND
 62
     1
  5
415
 10
144.003052
 20
74.013298
 30
0.0
 11
143.882477
 21
74.013298
 31
0.0
  0
LINE
  8
ARMATUR
  6
DURCHGEHEND
 62
     1
  5
416
 10
141.464462
 20
75.100502
 30
0.0
 11
141.148041
 21
75.100502
 31
0.0
  0
LINE
  8
ARMATUR
  6
DURCHGEHEND
 62
     1
  5
417
 10
144.108078
 20
75.100502
 30
0.0
 11
141.464462
 21
75.100502
 31
0.0
  0
LINE
  8
ARMATUR
  6
DURCHGEHEND
 62
     1
  5
418
 10
144.003052
 20
71.763298
 30
0.0
 11
143.882477
 21
71.763298
 31
0.0
  0
LINE
  8
ARMATUR
  6
DURCHGEHEND
 62
     1
  5
419
 10
143.882477
 20
71.763298
 30
0.0
 11
143.761353
 21
71.763298
 31
0.0
  0
LINE
  8
ARMATUR
  6
DURCHGEHEND
 62
     1
  5
41A
 10
143.761353
 20
71.763298
 30
0.0
 11
143.116928
 21
71.763298
 31
0.0
  0
LINE
  8
ARMATUR
  6
DURCHGEHEND
 62
     1
  5
41B
 10
143.116928
 20
71.763298
 30
0.0
 11
142.87886
 21
71.763298
 31
0.0
  0
LINE
  8
ARMATUR
  6
DURCHGEHEND
 62
     1
  5
41C
 10
142.87886
 20
71.763298
 30
0.0
 11
142.064987
 21
71.763298
 31
0.0
  0
LINE
  8
ARMATUR
  6
DURCHGEHEND
 62
     1
  5
41D
 10
142.064987
 20
71.763298
 30
0.0
 11
141.849426
 21
71.763298
 31
0.0
  0
LINE
  8
ARMATUR
  6
DURCHGEHEND
 62
     1
  5
41E
 10
141.849426
 20
71.763298
 30
0.0
 11
141.342896
 21
71.763298
 31
0.0
  0
LINE
  8
ARMATUR
  6
DURCHGEHEND
 62
     1
  5
41F
 10
141.342896
 20
71.763298
 30
0.0
 11
141.276123
 21
71.763298
 31
0.0
  0
LINE
  8
ARMATUR
  6
DURCHGEHEND
 62
     1
  5
420
 10
141.276123
 20
71.763298
 30
0.0
 11
141.253052
 21
71.763298
 31
0.0
  0
LINE
  8
ARMATUR
  6
DURCHGEHEND
 62
     1
  5
421
 10
141.252197
 20
70.263298
 30
0.0
 11
140.878052
 21
70.263298
 31
0.0
  0
LINE
  8
ARMATUR
  6
DURCHGEHEND
 62
     1
  5
422
 10
144.378052
 20
70.263298
 30
0.0
 11
141.252197
 21
70.263298
 31
0.0
  0
LINE
  8
ARMATUR
  6
DURCHGEHEND
 62
     1
  5
423
 10
143.0383
 20
74.013298
 30
0.0
 11
143.0383
 21
71.763298
 31
0.0
  0
LINE
  8
ARMATUR
  6
DURCHGEHEND
 62
     1
  5
424
 10
142.224426
 20
71.763298
 30
0.0
 11
142.224426
 21
74.013298
 31
0.0
  0
LINE
  8
ARMATUR
  6
DURCHGEHEND
 62
     1
  5
425
 10
143.276367
 20
71.763298
 30
0.0
 11
143.276367
 21
74.013298
 31
0.0
  0
LINE
  8
ARMATUR
  6
DURCHGEHEND
 62
     1
  5
426
 10
142.008865
 20
74.013298
 30
0.0
 11
142.008865
 21
71.763298
 31
0.0
  0
LINE
  8
ARMATUR
  6
DURCHGEHEND
 62
     1
  5
427
 10
143.979996
 20
74.013298
 30
0.0
 11
143.979996
 21
71.763298
 31
0.0
  0
LINE
  8
ARMATUR
  6
DURCHGEHEND
 62
     1
  5
428
 10
141.276123
 20
74.013298
 30
0.0
 11
141.276123
 21
71.763298
 31
0.0
  0
LINE
  8
ARMATUR
  6
DURCHGEHEND
 62
     1
  5
429
 10
144.128052
 20
78.425499
 30
0.0
 11
144.128052
 21
75.376457
 31
0.0
  0
LINE
  8
ARMATUR
  6
DURCHGEHEND
 62
     1
  5
42A
 10
144.128052
 20
75.175499
 30
0.0
 11
141.128052
 21
75.175499
 31
0.0
  0
LINE
  8
ARMATUR
  6
DURCHGEHEND
 62
     1
  5
42B
 10
144.128052
 20
78.425499
 30
0.0
 11
141.128052
 21
78.425499
 31
0.0
  0
LINE
  8
ARMATUR
  6
DURCHGEHEND
 62
     1
  5
42C
 10
141.128052
 20
75.376457
 30
0.0
 11
141.128052
 21
78.425499
 31
0.0
  0
LINE
  8
ARMATUR
  6
DURCHGEHEND
 62
     1
  5
42D
 10
145.628052
 20
78.425499
 30
0.0
 11
145.628052
 21
78.32502
 31
0.0
  0
LINE
  8
ARMATUR
  6
DURCHGEHEND
 62
     1
  5
42E
 10
145.628052
 20
78.425499
 30
0.0
 11
144.128052
 21
78.425499
 31
0.0
  0
LINE
  8
ARMATUR
  6
DURCHGEHEND
 62
     1
  5
42F
 10
145.628052
 20
75.275978
 30
0.0
 11
145.628052
 21
75.175499
 31
0.0
  0
LINE
  8
ARMATUR
  6
DURCHGEHEND
 62
     1
  5
430
 10
145.628052
 20
75.175499
 30
0.0
 11
144.128052
 21
75.175499
 31
0.0
  0
LINE
  8
ARMATUR
  6
DURCHGEHEND
 62
     1
  5
431
 10
139.628052
 20
78.32502
 30
0.0
 11
139.628052
 21
78.425499
 31
0.0
  0
LINE
  8
ARMATUR
  6
DURCHGEHEND
 62
     1
  5
432
 10
141.128052
 20
78.425499
 30
0.0
 11
139.628052
 21
78.425499
 31
0.0
  0
LINE
  8
ARMATUR
  6
DURCHGEHEND
 62
     1
  5
433
 10
139.628052
 20
75.175499
 30
0.0
 11
139.628052
 21
75.275978
 31
0.0
  0
LINE
  8
ARMATUR
  6
DURCHGEHEND
 62
     1
  5
434
 10
141.128052
 20
75.175499
 30
0.0
 11
139.628052
 21
75.175499
 31
0.0
  0
LINE
  8
ARMATUR
  6
DURCHGEHEND
 62
     1
  5
435
 10
145.628052
 20
78.32502
 30
0.0
 11
145.628052
 21
75.275978
 31
0.0
  0
LINE
  8
ARMATUR
  6
DURCHGEHEND
 62
     1
  5
436
 10
139.628052
 20
75.275978
 30
0.0
 11
139.628052
 21
78.32502
 31
0.0
  0
LINE
  8
ARMATUR
  6
DURCHGEHEND
 62
     1
  5
437
 10
63.175049
 20
144.152908
 30
0.0
 11
63.300049
 21
144.027908
 31
0.0
  0
LINE
  8
ARMATUR
  6
DURCHGEHEND
 62
     1
  5
438
 10
69.050049
 20
144.027908
 30
0.0
 11
69.175049
 21
144.152908
 31
0.0
  0
LINE
  8
ARMATUR
  6
DURCHGEHEND
 62
     1
  5
439
 10
69.175049
 20
144.152908
 30
0.0
 11
69.175049
 21
146.052902
 31
0.0
  0
LINE
  8
ARMATUR
  6
DURCHGEHEND
 62
     1
  5
43A
 10
63.175049
 20
146.052902
 30
0.0
 11
63.175049
 21
144.152908
 31
0.0
  0
LINE
  8
ARMATUR
  6
DURCHGEHEND
 62
     1
  5
43B
 10
69.175049
 20
144.152908
 30
0.0
 11
63.175049
 21
144.152908
 31
0.0
  0
LINE
  8
ARMATUR
  6
DURCHGEHEND
 62
     1
  5
43C
 10
69.050049
 20
144.027908
 30
0.0
 11
63.300049
 21
144.027908
 31
0.0
  0
ARC
  8
ARMATUR
  6
DURCHGEHEND
 62
     1
  5
43D
 10
61.875031
 20
150.35289
 30
0.0
 40
0.2
 50
90.0
 51
180.0
  0
LINE
  8
ARMATUR
  6
DURCHGEHEND
 62
     1
  5
43E
 10
70.475037
 20
146.052902
 30
0.0
 11
61.875031
 21
146.052902
 31
0.0
  0
ARC
  8
ARMATUR
  6
DURCHGEHEND
 62
     1
  5
43F
 10
70.475037
 20
150.35289
 30
0.0
 40
0.2
 50
0.0
 51
90.0
  0
LINE
  8
ARMATUR
  6
DURCHGEHEND
 62
     1
  5
440
 10
61.675049
 20
146.252884
 30
0.0
 11
61.675049
 21
150.35289
 31
0.0
  0
ARC
  8
ARMATUR
  6
DURCHGEHEND
 62
     1
  5
441
 10
70.475037
 20
146.252884
 30
0.0
 40
0.2
 50
270.0
 51
360.0
  0
LINE
  8
ARMATUR
  6
DURCHGEHEND
 62
     1
  5
442
 10
61.875031
 20
150.552902
 30
0.0
 11
70.475037
 21
150.552902
 31
0.0
  0
LINE
  8
ARMATUR
  6
DURCHGEHEND
 62
     1
  5
443
 10
70.675049
 20
150.35289
 30
0.0
 11
70.675049
 21
146.252884
 31
0.0
  0
ARC
  8
ARMATUR
  6
DURCHGEHEND
 62
     1
  5
444
 10
61.875031
 20
146.252884
 30
0.0
 40
0.2
 50
180.0
 51
270.0
  0
LINE
  8
ARMATUR
  6
DURCHGEHEND
 62
     1
  5
445
 10
70.675049
 20
146.252884
 30
0.0
 11
70.675049
 21
145.552902
 31
0.0
  0
LINE
  8
ARMATUR
  6
DURCHGEHEND
 62
     1
  5
446
 10
61.675049
 20
145.552902
 30
0.0
 11
61.675049
 21
146.252884
 31
0.0
  0
LINE
  8
ARMATUR
  6
DURCHGEHEND
 62
     1
  5
447
 10
70.675049
 20
145.552902
 30
0.0
 11
70.675049
 21
95.502899
 31
0.0
  0
LINE
  8
ARMATUR
  6
DURCHGEHEND
 62
     1
  5
448
 10
61.675049
 20
95.502884
 30
0.0
 11
61.675049
 21
145.552856
 31
0.0
  0
ARC
  8
ARMATUR
  6
DURCHGEHEND
 62
     1
  5
449
 10
70.475037
 20
95.502884
 30
0.0
 40
0.2
 50
270.0
 51
360.0
  0
ARC
  8
ARMATUR
  6
DURCHGEHEND
 62
     1
  5
44A
 10
61.875031
 20
95.502884
 30
0.0
 40
0.2
 50
180.0
 51
270.0
  0
LINE
  8
ARMATUR
  6
_DURCHGEHEND
 62
    12
  5
44B
 10
186.841904
 20
144.352905
 30
0.0
 11
186.841904
 21
146.252914
 31
0.0
  0
LINE
  8
ARMATUR
  6
_DURCHGEHEND
 62
    12
  5
44C
 10
180.841904
 20
146.252899
 30
0.0
 11
180.841904
 21
144.352921
 31
0.0
  0
LINE
  8
ARMATUR
  6
_DURCHGEHEND
 62
    12
  5
44D
 10
180.841904
 20
144.352905
 30
0.0
 11
180.966904
 21
144.227921
 31
0.0
  0
LINE
  8
ARMATUR
  6
_DURCHGEHEND
 62
    12
  5
44E
 10
186.716904
 20
144.227905
 30
0.0
 11
186.841904
 21
144.352921
 31
0.0
  0
LINE
  8
ARMATUR
  6
_DURCHGEHEND
 62
     3
  5
44F
 10
186.841904
 20
144.352905
 30
0.0
 11
180.841904
 21
144.352921
 31
0.0
  0
LINE
  8
ARMATUR
  6
_DURCHGEHEND
 62
    12
  5
450
 10
186.716904
 20
144.227905
 30
0.0
 11
180.966904
 21
144.227921
 31
0.0
  0
ARC
  8
ARMATUR
  6
_DURCHGEHEND
 62
    12
  5
451
 10
139.791885
 20
150.552887
 30
0.0
 40
0.2
 50
90.0
 51
180.0
  0
LINE
  8
ARMATUR
  6
_DURCHGEHEND
 62
    12
  5
452
 10
139.591888
 20
95.502884
 30
0.0
 11
139.591888
 21
150.552841
 31
0.0
  0
LINE
  8
ARMATUR
  6
_DURCHGEHEND
 62
    12
  5
453
 10
139.791885
 20
150.752899
 30
0.0
 11
189.141922
 21
150.752899
 31
0.0
  0
LINE
  8
ARMATUR
  6
_DURCHGEHEND
 62
    12
  5
454
 10
145.591888
 20
145.752914
 30
0.0
 11
145.591888
 21
95.502899
 31
0.0
  0
ARC
  8
ARMATUR
  6
_DURCHGEHEND
 62
    12
  5
455
 10
146.091873
 20
145.752899
 30
0.0
 40
0.5
 50
90.0
 51
180.0
  0
LINE
  8
ARMATUR
  6
_DURCHGEHEND
 62
    12
  5
456
 10
189.141922
 20
146.252884
 30
0.0
 11
146.091858
 21
146.252914
 31
0.0
  0
ARC
  8
ARMATUR
  6
_DURCHGEHEND
 62
    12
  5
457
 10
189.141922
 20
146.452881
 30
0.0
 40
0.2
 50
270.0
 51
360.0
  0
LINE
  8
ARMATUR
  6
_DURCHGEHEND
 62
    12
  5
458
 10
189.341904
 20
150.552887
 30
0.0
 11
189.341904
 21
146.452896
 31
0.0
  0
ARC
  8
ARMATUR
  6
_DURCHGEHEND
 62
    12
  5
459
 10
189.141922
 20
150.552887
 30
0.0
 40
0.2
 50
0.0
 51
90.0
  0
POLYLINE
  8
ARMATUR
  6
_DURCHGEHEND
 62
     3
  5
45A
 66
     1
 10
0.0
 20
0.0
 30
0.0
 75
     5
  0
VERTEX
  8
0
  5
45B
 10
141.706238
 20
162.019577
 30
0.0
  0
VERTEX
  8
0
  5
45C
 10
143.68808
 20
163.992661
 30
0.0
  0
SEQEND
  8
0
  5
45D
  0
LINE
  8
ARMATUR
  6
DURCHGEHEND
 62
     3
  5
45E
 10
183.162781
 20
162.150665
 30
0.0
 11
185.119843
 21
164.096313
 31
0.0
  0
LINE
  8
ACHSEN
  6
STRICHPUNKTIERT
 62
     4
  5
45F
 10
142.600708
 20
45.496552
 30
0.0
 11
142.600708
 21
152.015167
 31
0.0
  0
LINE
  8
ACHSEN
  6
STRICHPUNKTIERT
 62
     4
  5
460
 10
66.09008
 20
24.952593
 30
0.0
 11
66.09008
 21
152.144882
 31
0.0
  0
LINE
  8
ACHSEN
  6
STRICHPUNKTIERT
 62
     4
  5
461
 10
91.273544
 20
23.732752
 30
0.0
 11
91.273544
 21
107.876648
 31
0.0
  0
LINE
  8
ACHSEN
  6
STRICHPUNKTIERT
 62
     4
  5
462
 10
183.98732
 20
147.6436
 30
0.0
 11
183.98732
 21
143.053909
 31
0.0
  0
LINE
  8
ACHSEN
  6
STRICHPUNKTIERT
 62
     4
  5
463
 10
60.565887
 20
30.344114
 30
0.0
 11
98.185532
 21
30.344114
 31
0.0
  0
TEXT
  8
TEXT
  5
464
 10
64.393593
 20
164.213089
 30
0.0
 40
7.055555
  1
55
  0
TEXT
  8
TEXT
  5
465
 10
45.911224
 20
51.471161
 30
0.0
 40
7.055555
  1
max. 45
 50
90.0
  0
TEXT
  8
TEXT
  5
466
 10
97.178978
 20
164.322556
 30
0.0
 40
7.055555
  1
83
  0
LINE
  8
TEXT
  6
DURCHGEHEND
 62
     9
  5
467
 10
47.972424
 20
28.781965
 30
0.0
 11
43.972424
 21
24.781935
 31
0.0
  0
CIRCLE
  8
TEXT
  6
DURCHGEHEND
 62
     9
  5
468
 10
45.990887
 20
26.800428
 30
0.0
 40
1.875
  0
TEXT
  8
TEXT
  5
469
 10
48.93367
 20
23.833158
 30
0.0
 40
7.055555
  1
35
  0
LINE
  8
TEXT
  6
DURCHGEHEND
 62
     9
  5
46A
 10
104.217278
 20
28.781965
 30
0.0
 11
100.217278
 21
24.781935
 31
0.0
  0
CIRCLE
  8
TEXT
  6
DURCHGEHEND
 62
     9
  5
46B
 10
102.235741
 20
26.800428
 30
0.0
 40
1.875
  0
TEXT
  8
TEXT
  5
46C
 10
105.17852
 20
23.833158
 30
0.0
 40
7.055555
  1
44
  0
POLYLINE
  8
TEXT
  6
DURCHGEHEND
 62
     9
  5
46D
 66
     1
 10
0.0
 20
0.0
 30
0.0
  0
VERTEX
  8
0
  5
46E
 10
59.653641
 20
165.507309
 30
0.0
  0
VERTEX
  8
0
  5
46F
 10
63.153656
 20
165.507309
 30
0.0
  0
VERTEX
  8
0
  5
470
 10
63.153656
 20
169.007309
 30
0.0
  0
VERTEX
  8
0
  5
471
 10
59.653641
 20
169.007309
 30
0.0
  0
VERTEX
  8
0
  5
472
 10
59.653641
 20
165.507309
 30
0.0
  0
SEQEND
  8
0
  5
473
  0
TEXT
  8
TEXT
  5
474
 10
149.616928
 20
24.165705
 30
0.0
 40
7.055555
  1
M 34x1
  0
TEXT
  8
TEXT
  5
475
 10
194.561264
 20
113.12941
 30
0.0
 40
7.055555
  1
205
 50
90.0
  0
TEXT
  8
TEXT
  5
476
 10
209.357712
 20
114.717209
 30
0.0
 40
7.055555
  1
230
 50
90.0
  0
TEXT
  8
TEXT
  5
477
 10
158.815063
 20
163.85022
 30
0.0
 40
7.055555
  1
165
  0
LINE
  8
BEMASSUNG
  6
DURCHGEHEND
 62
     3
  5
478
 10
58.379837
 20
162.957413
 30
0.0
 11
73.960709
 21
162.957413
 31
0.0
  0
LINE
  8
BEMASSUNG
  6
DURCHGEHEND
 62
     3
  5
479
 10
91.273544
 20
108.608246
 30
0.0
 11
91.273544
 21
163.977005
 31
0.0
  0
LINE
  8
BEMASSUNG
  6
DURCHGEHEND
 62
     3
  5
47A
 10
112.995369
 20
163.06163
 30
0.0
 11
90.56823
 21
163.06163
 31
0.0
  0
LINE
  8
BEMASSUNG
  6
DURCHGEHEND
 62
     3
  5
47B
 10
46.943062
 20
94.071442
 30
0.0
 11
46.943062
 21
51.405273
 31
0.0
  0
LINE
  8
BEMASSUNG
  6
DURCHGEHEND
 62
     3
  5
47C
 10
52.946907
 20
93.002884
 30
0.0
 11
45.693054
 21
93.002884
 31
0.0
  0
LINE
  8
BEMASSUNG
  6
DURCHGEHEND
 62
     3
  5
47D
 10
47.827019
 20
80.731117
 30
0.0
 11
46.059258
 21
82.498878
 31
0.0
  0
LINE
  8
BEMASSUNG
  6
DURCHGEHEND
 62
     3
  5
47E
 10
90.436378
 20
162.209732
 30
0.0
 11
92.139503
 21
163.912857
 31
0.0
  0
LINE
  8
BEMASSUNG
  6
DURCHGEHEND
 62
     3
  5
47F
 10
60.173149
 20
163.816666
 30
0.0
 11
58.470028
 21
162.113541
 31
0.0
  0
LINE
  8
BEMASSUNG
  6
DURCHGEHEND
 62
     3
  5
480
 10
73.845238
 20
163.793991
 30
0.0
 11
72.142113
 21
162.090866
 31
0.0
  0
LINE
  8
BEMASSUNG
  6
DURCHGEHEND
 62
     3
  5
481
 10
156.056351
 20
93.002884
 30
0.0
 11
211.935471
 21
93.002884
 31
0.0
  0
LINE
  8
BEMASSUNG
  6
DURCHGEHEND
 62
     3
  5
482
 10
47.827019
 20
92.128281
 30
0.0
 11
46.059258
 21
93.896042
 31
0.0
  0
LINE
  8
BEMASSUNG
  6
DURCHGEHEND
 62
     3
  5
483
 10
59.273186
 20
96.268784
 30
0.0
 11
59.273186
 21
163.979614
 31
0.0
  0
LINE
  8
BEMASSUNG
  6
DURCHGEHEND
 62
     3
  5
484
 10
73.04821
 20
96.133759
 30
0.0
 11
73.04821
 21
163.782425
 31
0.0
  0
LINE
  8
BEMASSUNG
  6
DURCHGEHEND
 62
     3
  5
485
 10
112.003067
 20
106.707169
 30
0.0
 11
112.003067
 21
164.320145
 31
0.0
  0
LINE
  8
BEMASSUNG
  6
DURCHGEHEND
 62
     3
  5
486
 10
111.157928
 20
162.195709
 30
0.0
 11
113.11499
 21
164.141357
 31
0.0
  0
LINE
  8
BEMASSUNG
  6
DURCHGEHEND
 62
     3
  5
487
 10
99.074417
 20
22.469564
 30
0.0
 11
86.080338
 21
35.398018
 31
0.0
  0
LINE
  8
BEMASSUNG
  6
DURCHGEHEND
 62
     3
  5
488
 10
42.149467
 20
22.469599
 30
0.0
 11
58.485954
 21
22.469603
 31
0.0
  0
LINE
  8
BEMASSUNG
  6
DURCHGEHEND
 62
     3
  5
489
 10
88.982468
 20
34.194111
 30
0.0
 11
85.710007
 21
34.194115
 31
0.0
  0
LINE
  8
BEMASSUNG
  6
DURCHGEHEND
 62
     3
  5
48A
 10
96.707756
 20
26.38772
 30
0.0
 11
93.435295
 21
26.38772
 31
0.0
  0
LINE
  8
BEMASSUNG
  6
DURCHGEHEND
 62
     3
  5
48B
 10
58.485954
 20
22.469603
 30
0.0
 11
70.717476
 21
34.701134
 31
0.0
  0
LINE
  8
BEMASSUNG
  6
DURCHGEHEND
 62
     3
  5
48C
 10
71.040215
 20
33.377712
 30
0.0
 11
67.767754
 21
33.377716
 31
0.0
  0
LINE
  8
BEMASSUNG
  6
DURCHGEHEND
 62
     3
  5
48D
 10
64.954796
 20
27.204115
 30
0.0
 11
61.682335
 21
27.204115
 31
0.0
  0
LINE
  8
BEMASSUNG
  6
DURCHGEHEND
 62
     3
  5
48E
 10
99.074432
 20
22.469603
 30
0.0
 11
114.722244
 21
22.469606
 31
0.0
  0
LINE
  8
BEMASSUNG
  6
DURCHGEHEND
 62
     3
  5
48F
 10
60.023689
 20
81.625511
 30
0.0
 11
45.968445
 21
81.625511
 31
0.0
  0
LINE
  8
BEMASSUNG
  6
DURCHGEHEND
 62
     3
  5
490
 10
137.310562
 20
22.469606
 30
0.0
 11
176.847336
 21
22.469606
 31
0.0
  0
LINE
  8
BEMASSUNG
  6
_DURCHGEHEND
 62
     3
  5
491
 10
138.341736
 20
22.469606
 30
0.0
 11
137.675583
 21
21.728588
 31
0.0
  0
LINE
  8
BEMASSUNG
  6
_DURCHGEHEND
 62
     3
  5
492
 10
139.033661
 20
23.229618
 30
0.0
 11
138.341736
 21
22.469606
 31
0.0
  0
LINE
  8
BEMASSUNG
  6
_DURCHGEHEND
 62
     3
  5
493
 10
146.84201
 20
22.469606
 30
0.0
 11
146.038467
 21
21.603502
 31
0.0
  0
LINE
  8
BEMASSUNG
  6
_DURCHGEHEND
 62
     3
  5
494
 10
147.718201
 20
23.46192
 30
0.0
 11
146.84201
 21
22.469606
 31
0.0
  0
LINE
  8
BEMASSUNG
  6
DURCHGEHEND
 62
     3
  5
495
 10
138.316101
 20
86.255417
 30
0.0
 11
138.316101
 21
21.105942
 31
0.0
  0
LINE
  8
BEMASSUNG
  6
DURCHGEHEND
 62
     3
  5
496
 10
146.841888
 20
86.371826
 30
0.0
 11
146.841888
 21
21.065544
 31
0.0
  0
POLYLINE
  8
BEMASSUNG
  6
_DURCHGEHEND
 62
     3
  5
497
 66
     1
 10
0.0
 20
0.0
 30
0.0
 75
     5
  0
VERTEX
  8
0
  5
498
 10
196.400696
 20
143.214539
 30
0.0
  0
VERTEX
  8
0
  5
499
 10
194.695419
 20
145.111282
 30
0.0
  0
SEQEND
  8
0
  5
49A
  0
POLYLINE
  8
BEMASSUNG
  6
_DURCHGEHEND
 62
     3
  5
49B
 66
     1
 10
0.0
 20
0.0
 30
0.0
 75
     5
  0
VERTEX
  8
0
  5
49C
 10
194.475754
 20
94.253586
 30
0.0
  0
VERTEX
  8
0
  5
49D
 10
196.476746
 20
92.083572
 30
0.0
  0
SEQEND
  8
0
  5
49E
  0
LINE
  8
BEMASSUNG
  6
DURCHGEHEND
 62
     3
  5
49F
 10
187.611923
 20
144.118683
 30
0.0
 11
196.540024
 21
144.118683
 31
0.0
  0
LINE
  8
BEMASSUNG
  6
DURCHGEHEND
 62
     3
  5
4A0
 10
190.550018
 20
150.727325
 30
0.0
 11
211.770935
 21
150.727325
 31
0.0
  0
POLYLINE
  8
BEMASSUNG
  6
_DURCHGEHEND
 62
     3
  5
4A1
 66
     1
 10
0.0
 20
0.0
 30
0.0
 75
     5
  0
VERTEX
  8
0
  5
4A2
 10
211.756729
 20
149.465805
 30
0.0
  0
VERTEX
  8
0
  5
4A3
 10
209.693604
 20
151.768173
 30
0.0
  0
SEQEND
  8
0
  5
4A4
  0
POLYLINE
  8
BEMASSUNG
  6
_DURCHGEHEND
 62
     3
  5
4A5
 66
     1
 10
0.0
 20
0.0
 30
0.0
 75
     5
  0
VERTEX
  8
0
  5
4A6
 10
211.590408
 20
92.045242
 30
0.0
  0
VERTEX
  8
0
  5
4A7
 10
209.5961
 20
94.290581
 30
0.0
  0
SEQEND
  8
0
  5
4A8
  0
LINE
  8
BEMASSUNG
  6
DURCHGEHEND
 62
     3
  5
4A9
 10
210.618774
 20
151.697342
 30
0.0
 11
210.618774
 21
91.591629
 31
0.0
  0
LINE
  8
BEMASSUNG
  6
DURCHGEHEND
 62
     3
  5
4AA
 10
195.607025
 20
92.07975
 30
0.0
 11
195.607025
 21
145.210327
 31
0.0
  0
LINE
  8
BEMASSUNG
  6
DURCHGEHEND
 62
     3
  5
4AB
 10
141.347565
 20
162.957413
 30
0.0
 11
185.619324
 21
162.957413
 31
0.0
  0
LINE
  8
BEMASSUNG
  6
DURCHGEHEND
 62
     3
  5
4AC
 10
184.003006
 20
151.60762
 30
0.0
 11
184.003006
 21
164.392044
 31
0.0
  0
LINE
  8
BEMASSUNG
  6
DURCHGEHEND
 62
     3
  5
4AD
 10
142.627991
 20
164.023972
 30
0.0
 11
142.627991
 21
152.431625
 31
0.0
  0
CIRCLE
  8
BEMASSUNG
  6
DURCHGEHEND
 62
     3
  5
4AE
 10
66.09008
 20
30.344114
 30
0.0
 40
4.375
  0
CIRCLE
  8
BEMASSUNG
  6
DURCHGEHEND
 62
     3
  5
4AF
 10
91.263649
 20
30.344114
 30
0.0
 40
5.5
  0
LINE
  8
WAND
  6
DURCHGEHEND
 62
     6
  5
4B0
 10
54.139469
 20
92.946358
 30
0.0
 11
103.338737
 21
92.946358
 31
0.0
  0
LINE
  8
WAND
  6
DURCHGEHEND
 62
     6
  5
4B1
 10
131.250183
 20
93.002884
 30
0.0
 11
154.489822
 21
93.002884
 31
0.0
  0
ENDSEC
  0
EOF
