  0
SECTION
  2
HEADER
  9
$ACADVER
  1
AC1009
  9
$DWGCODEPAGE
  3
ansi_1252
  9
$INSBASE
 10
0.0
 20
0.0
 30
0.0
  9
$EXTMIN
 10
42.798573
 20
4.134059
 30
0.0
  9
$EXTMAX
 10
291.180176
 20
192.147476
 30
0.0
  9
$LIMMIN
 10
0.0
 20
0.0
  9
$LIMMAX
 10
0.0
 20
0.0
  9
$ORTHOMODE
 70
     0
  9
$REGENMODE
 70
     1
  9
$FILLMODE
 70
     1
  9
$QTEXTMODE
 70
     0
  9
$MIRRTEXT
 70
     1
  9
$DRAGMODE
 70
     2
  9
$LTSCALE
 40
1.0
  9
$OSMODE
 70
     0
  9
$ATTMODE
 70
     1
  9
$TEXTSIZE
 40
0.2
  9
$TRACEWID
 40
0.05
  9
$TEXTSTYLE
  7
STANDARD
  9
$CLAYER
  8
0
  9
$CELTYPE
  6
CONTINUOUS
  9
$CECOLOR
 62
   256
  9
$DIMSCALE
 40
1.0
  9
$DIMASZ
 40
0.18
  9
$DIMEXO
 40
0.0625
  9
$DIMDLI
 40
0.38
  9
$DIMRND
 40
0.0
  9
$DIMDLE
 40
0.0
  9
$DIMEXE
 40
0.18
  9
$DIMTP
 40
0.0
  9
$DIMTM
 40
0.0
  9
$DIMTXT
 40
0.18
  9
$DIMCEN
 40
0.09
  9
$DIMTSZ
 40
0.0
  9
$DIMTOL
 70
     0
  9
$DIMLIM
 70
     0
  9
$DIMTIH
 70
     1
  9
$DIMTOH
 70
     1
  9
$DIMSE1
 70
     0
  9
$DIMSE2
 70
     0
  9
$DIMTAD
 70
     0
  9
$DIMZIN
 70
     0
  9
$DIMBLK
  1

  9
$DIMASO
 70
     1
  9
$DIMSHO
 70
     1
  9
$DIMPOST
  1

  9
$DIMAPOST
  1

  9
$DIMALT
 70
     0
  9
$DIMALTD
 70
     2
  9
$DIMALTF
 40
25.4
  9
$DIMLFAC
 40
1.0
  9
$DIMTOFL
 70
     0
  9
$DIMTVP
 40
0.0
  9
$DIMTIX
 70
     0
  9
$DIMSOXD
 70
     0
  9
$DIMSAH
 70
     0
  9
$DIMBLK1
  1

  9
$DIMBLK2
  1

  9
$DIMSTYLE
  2
STANDARD
  9
$DIMCLRD
 70
     0
  9
$DIMCLRE
 70
     0
  9
$DIMCLRT
 70
     0
  9
$DIMTFAC
 40
1.0
  9
$DIMGAP
 40
0.09
  9
$LUNITS
 70
     2
  9
$LUPREC
 70
     4
  9
$AXISMODE
 70
     0
  9
$AXISUNIT
 10
0.0
 20
0.0
  9
$SKETCHINC
 40
0.1
  9
$FILLETRAD
 40
0.0
  9
$AUNITS
 70
     0
  9
$AUPREC
 70
     0
  9
$MENU
  1
acad
  9
$ELEVATION
 40
0.0
  9
$PELEVATION
 40
0.0
  9
$THICKNESS
 40
0.0
  9
$LIMCHECK
 70
     0
  9
$BLIPMODE
 70
     1
  9
$CHAMFERA
 40
0.0
  9
$CHAMFERB
 40
0.0
  9
$SKPOLY
 70
     0
  9
$TDCREATE
 40
0.000000000
  9
$TDUPDATE
 40
0.000000000
  9
$TDINDWG
 40
0.0000000000
  9
$TDUSRTIMER
 40
0.0000000000
  9
$USRTIMER
 70
     1
  9
$ANGBASE
 50
0.0
  9
$ANGDIR
 70
     0
  9
$PDMODE
 70
     0
  9
$PDSIZE
 40
0.0
  9
$PLINEWID
 40
0.0
  9
$COORDS
 70
     0
  9
$SPLFRAME
 70
     0
  9
$SPLINETYPE
 70
     6
  9
$SPLINESEGS
 70
     8
  9
$ATTDIA
 70
     0
  9
$ATTREQ
 70
     1
  9
$HANDLING
 70
     1
  9
$HANDSEED
  5
337
  9
$SURFTAB1
 70
     6
  9
$SURFTAB2
 70
     6
  9
$SURFTYPE
 70
     6
  9
$SURFU
 70
     6
  9
$SURFV
 70
     6
  9
$UCSNAME
  2

  9
$UCSORG
 10
0.0
 20
0.0
 30
0.0
  9
$UCSXDIR
 10
1.0
 20
0.0
 30
0.0
  9
$UCSYDIR
 10
0.0
 20
1.0
 30
0.0
  9
$PUCSNAME
  2

  9
$PUCSORG
 10
0.0
 20
0.0
 30
0.0
  9
$PUCSXDIR
 10
1.0
 20
0.0
 30
0.0
  9
$PUCSYDIR
 10
0.0
 20
1.0
 30
0.0
  9
$USERI1
 70
     0
  9
$USERI2
 70
     0
  9
$USERI3
 70
     0
  9
$USERI4
 70
     0
  9
$USERI5
 70
     0
  9
$USERR1
 40
0.0
  9
$USERR2
 40
0.0
  9
$USERR3
 40
0.0
  9
$USERR4
 40
0.0
  9
$USERR5
 40
0.0
  9
$WORLDVIEW
 70
     1
  9
$SHADEDGE
 70
     3
  9
$SHADEDIF
 70
    70
  9
$TILEMODE
 70
     1
  9
$MAXACTVP
 70
    16
  9
$PINSBASE
 10
0.0
 20
0.0
 30
0.0
  9
$PLIMCHECK
 70
     0
  9
$PEXTMIN
 10
1.000000E+20
 20
1.000000E+20
 30
1.000000E+20
  9
$PEXTMAX
 10
-1.000000E+20
 20
-1.000000E+20
 30
-1.000000E+20
  9
$PLIMMIN
 10
0.0
 20
0.0
  9
$PLIMMAX
 10
12.0
 20
9.0
  9
$UNITMODE
 70
     0
  9
$VISRETAIN
 70
     0
  9
$PLINEGEN
 70
     1
  9
$PSLTSCALE
 70
     0
  9
$TREEDEPTH
 70
  3020
  0
ENDSEC
  0
SECTION
  2
TABLES
  0
TABLE
  2
VPORT
 70
     1
  0
VPORT
  2
*ACTIVE
 70
     0
 10
0.0
 20
0.0
 11
1.0
 21
1.0
 12
6.591288
 22
4.579184
 13
0.0
 23
0.0
 14
1.0
 24
1.0
 15
0.0
 25
0.0
 16
0.0
 26
0.0
 36
1.0
 17
0.0
 27
0.0
 37
0.0
 40
9.158369
 41
0.688564
 42
50.0
 43
0.0
 44
0.0
 50
0.0
 51
0.0
 71
     0
 72
   100
 73
     1
 74
     1
 75
     0
 76
     0
 77
     0
 78
     0
  0
ENDTAB
  0
TABLE
  2
LTYPE
 70
   182
  0
LTYPE
  2
CONTINUOUS
 70
    64
  3
Solid line
 72
    65
 73
     0
 40
0.0
  0
LTYPE
  2
DURCHGEHEND
 70
    64
  3

 72
    65
 73
     0
 40
0.0
  0
LTYPE
  2
GESTRICHELT
 70
    64
  3

 72
    65
 73
     2
 40
10.0
 49
5.0
 49
-5.0
  0
LTYPE
  2
MITTELLINIE
 70
    64
  3

 72
    65
 73
     4
 40
20.0
 49
10.0
 49
-2.0
 49
5.0
 49
-3.0
  0
LTYPE
  2
PUNKTIERT
 70
    64
  3

 72
    65
 73
     2
 40
0.25
 49
0.0
 49
-0.25
  0
LTYPE
  2
STRICHPUNKTIERT
 70
    64
  3

 72
    65
 73
     4
 40
8.0
 49
5.0
 49
-1.0
 49
1.0
 49
-1.0
  0
LTYPE
  2
STRICH-PUNKT-PUNKT
 70
    64
  3

 72
    65
 73
     6
 40
10.0
 49
5.0
 49
-1.0
 49
1.0
 49
-1.0
 49
1.0
 49
-1.0
  0
LTYPE
  2
STARTPFEIL
 70
    64
  3

 72
    65
 73
     0
 40
0.0
  0
LTYPE
  2
ENDPFEIL
 70
    64
  3

 72
    65
 73
     0
 40
0.0
  0
LTYPE
  2
ENDPUNKT
 70
    64
  3

 72
    65
 73
     0
 40
0.0
  0
LTYPE
  2
PFEIL
 70
    64
  3

 72
    65
 73
     0
 40
0.0
  0
LTYPE
  2
STITCHLINE
 70
    64
  3

 72
    65
 73
     2
 40
6.0
 49
3.0
 49
-3.0
  0
LTYPE
  2
MITTELLINIE_2
 70
    64
  3

 72
    65
 73
     4
 40
17.0
 49
10.0
 49
-2.0
 49
3.0
 49
-2.0
  0
LTYPE
  2
VERDECKTE_LINIE
 70
    64
  3

 72
    65
 73
     2
 40
4.0
 49
2.0
 49
-2.0
  0
LTYPE
  2
PHANTOMLINIE
 70
    64
  3

 72
    65
 73
     6
 40
21.0
 49
10.0
 49
-2.0
 49
3.0
 49
-1.0
 49
3.0
 49
-2.0
  0
LTYPE
  2
BRUCHLINIE_1
 70
    64
  3

 72
    65
 73
     0
 40
0.0
  0
LTYPE
  2
BRUCHLINIE_2
 70
    64
  3

 72
    65
 73
     0
 40
0.0
  0
LTYPE
  2
_DURCHGEHEND
 70
    64
  3

 72
    65
 73
     0
 40
0.0
  0
LTYPE
  2
_GESTRICHELT
 70
    64
  3

 72
    65
 73
     2
 40
10.0
 49
5.0
 49
-5.0
  0
LTYPE
  2
_MITTELLINIE
 70
    64
  3

 72
    65
 73
     4
 40
20.0
 49
10.0
 49
-2.0
 49
5.0
 49
-3.0
  0
LTYPE
  2
_PUNKTIERT
 70
    64
  3

 72
    65
 73
     2
 40
0.25
 49
0.0
 49
-0.25
  0
LTYPE
  2
_STRICHPUNKTIERT
 70
    64
  3

 72
    65
 73
     4
 40
8.0
 49
5.0
 49
-1.0
 49
1.0
 49
-1.0
  0
LTYPE
  2
_STRICH-PUNKT-PUNKT
 70
    64
  3

 72
    65
 73
     6
 40
10.0
 49
5.0
 49
-1.0
 49
1.0
 49
-1.0
 49
1.0
 49
-1.0
  0
LTYPE
  2
_STARTPFEIL
 70
    64
  3

 72
    65
 73
     0
 40
0.0
  0
LTYPE
  2
_ENDPFEIL
 70
    64
  3

 72
    65
 73
     0
 40
0.0
  0
LTYPE
  2
_ENDPUNKT
 70
    64
  3

 72
    65
 73
     0
 40
0.0
  0
LTYPE
  2
_PFEIL
 70
    64
  3

 72
    65
 73
     0
 40
0.0
  0
LTYPE
  2
_STITCHLINE
 70
    64
  3

 72
    65
 73
     2
 40
6.0
 49
3.0
 49
-3.0
  0
LTYPE
  2
_MITTELLINIE_2
 70
    64
  3

 72
    65
 73
     4
 40
17.0
 49
10.0
 49
-2.0
 49
3.0
 49
-2.0
  0
LTYPE
  2
_VERDECKTE_LINIE
 70
    64
  3

 72
    65
 73
     2
 40
4.0
 49
2.0
 49
-2.0
  0
LTYPE
  2
_PHANTOMLINIE
 70
    64
  3

 72
    65
 73
     6
 40
21.0
 49
10.0
 49
-2.0
 49
3.0
 49
-1.0
 49
3.0
 49
-2.0
  0
LTYPE
  2
_BRUCHLINIE_1
 70
    64
  3

 72
    65
 73
     0
 40
0.0
  0
LTYPE
  2
_BRUCHLINIE_2
 70
    64
  3

 72
    65
 73
     0
 40
0.0
  0
LTYPE
  2
CONTINUOUS
 70
    64
  3

 72
    65
 73
     0
 40
0.0
  0
LTYPE
  2
_DURCHGEHEND
 70
    64
  3

 72
    65
 73
     0
 40
0.0
  0
LTYPE
  2
_GESTRICHELT
 70
    64
  3

 72
    65
 73
     2
 40
10.0
 49
5.0
 49
-5.0
  0
LTYPE
  2
_MITTELLINIE
 70
    64
  3

 72
    65
 73
     4
 40
20.0
 49
10.0
 49
-2.0
 49
5.0
 49
-3.0
  0
LTYPE
  2
_PUNKTIERT
 70
    64
  3

 72
    65
 73
     2
 40
0.25
 49
0.0
 49
-0.25
  0
LTYPE
  2
_STRICHPUNKTIERT
 70
    64
  3

 72
    65
 73
     4
 40
8.0
 49
5.0
 49
-1.0
 49
1.0
 49
-1.0
  0
LTYPE
  2
_STRICH-PUNKT-PUNKT
 70
    64
  3

 72
    65
 73
     6
 40
10.0
 49
5.0
 49
-1.0
 49
1.0
 49
-1.0
 49
1.0
 49
-1.0
  0
LTYPE
  2
_STARTPFEIL
 70
    64
  3

 72
    65
 73
     0
 40
0.0
  0
LTYPE
  2
_ENDPFEIL
 70
    64
  3

 72
    65
 73
     0
 40
0.0
  0
LTYPE
  2
_ENDPUNKT
 70
    64
  3

 72
    65
 73
     0
 40
0.0
  0
LTYPE
  2
_PFEIL
 70
    64
  3

 72
    65
 73
     0
 40
0.0
  0
LTYPE
  2
_STITCHLINE
 70
    64
  3

 72
    65
 73
     2
 40
6.0
 49
3.0
 49
-3.0
  0
LTYPE
  2
_MITTELLINIE_2
 70
    64
  3

 72
    65
 73
     4
 40
17.0
 49
10.0
 49
-2.0
 49
3.0
 49
-2.0
  0
LTYPE
  2
_VERDECKTE_LINIE
 70
    64
  3

 72
    65
 73
     2
 40
4.0
 49
2.0
 49
-2.0
  0
LTYPE
  2
_PHANTOMLINIE
 70
    64
  3

 72
    65
 73
     6
 40
21.0
 49
10.0
 49
-2.0
 49
3.0
 49
-1.0
 49
3.0
 49
-2.0
  0
LTYPE
  2
_BRUCHLINIE_1
 70
    64
  3

 72
    65
 73
     0
 40
0.0
  0
LTYPE
  2
_BRUCHLINIE_2
 70
    64
  3

 72
    65
 73
     0
 40
0.0
  0
LTYPE
  2
_DURCHGEHEND
 70
    64
  3

 72
    65
 73
     0
 40
0.0
  0
LTYPE
  2
_GESTRICHELT
 70
    64
  3

 72
    65
 73
     2
 40
10.0
 49
5.0
 49
-5.0
  0
LTYPE
  2
_MITTELLINIE
 70
    64
  3

 72
    65
 73
     4
 40
20.0
 49
10.0
 49
-2.0
 49
5.0
 49
-3.0
  0
LTYPE
  2
_PUNKTIERT
 70
    64
  3

 72
    65
 73
     2
 40
0.25
 49
0.0
 49
-0.25
  0
LTYPE
  2
_STRICHPUNKTIERT
 70
    64
  3

 72
    65
 73
     4
 40
8.0
 49
5.0
 49
-1.0
 49
1.0
 49
-1.0
  0
LTYPE
  2
_STRICH-PUNKT-PUNKT
 70
    64
  3

 72
    65
 73
     6
 40
10.0
 49
5.0
 49
-1.0
 49
1.0
 49
-1.0
 49
1.0
 49
-1.0
  0
LTYPE
  2
_STARTPFEIL
 70
    64
  3

 72
    65
 73
     0
 40
0.0
  0
LTYPE
  2
_ENDPFEIL
 70
    64
  3

 72
    65
 73
     0
 40
0.0
  0
LTYPE
  2
_ENDPUNKT
 70
    64
  3

 72
    65
 73
     0
 40
0.0
  0
LTYPE
  2
_PFEIL
 70
    64
  3

 72
    65
 73
     0
 40
0.0
  0
LTYPE
  2
_STITCHLINE
 70
    64
  3

 72
    65
 73
     2
 40
6.0
 49
3.0
 49
-3.0
  0
LTYPE
  2
_MITTELLINIE_2
 70
    64
  3

 72
    65
 73
     4
 40
17.0
 49
10.0
 49
-2.0
 49
3.0
 49
-2.0
  0
LTYPE
  2
_VERDECKTE_LINIE
 70
    64
  3

 72
    65
 73
     2
 40
4.0
 49
2.0
 49
-2.0
  0
LTYPE
  2
_PHANTOMLINIE
 70
    64
  3

 72
    65
 73
     6
 40
21.0
 49
10.0
 49
-2.0
 49
3.0
 49
-1.0
 49
3.0
 49
-2.0
  0
LTYPE
  2
_BRUCHLINIE_1
 70
    64
  3

 72
    65
 73
     0
 40
0.0
  0
LTYPE
  2
_BRUCHLINIE_2
 70
    64
  3

 72
    65
 73
     0
 40
0.0
  0
LTYPE
  2
SLDCENTERLINES0
 70
    64
  3

 72
    65
 73
     4
 40
19.05
 49
15.24
 49
-1.27
 49
1.27
 49
-1.27
  0
LTYPE
  2
SLDTANVISIBLE0
 70
    64
  3

 72
    65
 73
     6
 40
12.7
 49
6.35
 49
-1.27
 49
1.27
 49
-1.27
 49
1.27
 49
-1.27
  0
LTYPE
  2
_DURCHGEHEND
 70
    64
  3

 72
    65
 73
     0
 40
0.0
  0
LTYPE
  2
_GESTRICHELT
 70
    64
  3

 72
    65
 73
     2
 40
10.0
 49
5.0
 49
-5.0
  0
LTYPE
  2
_MITTELLINIE
 70
    64
  3

 72
    65
 73
     4
 40
20.0
 49
10.0
 49
-2.0
 49
5.0
 49
-3.0
  0
LTYPE
  2
_PUNKTIERT
 70
    64
  3

 72
    65
 73
     2
 40
0.25
 49
0.0
 49
-0.25
  0
LTYPE
  2
_STRICHPUNKTIERT
 70
    64
  3

 72
    65
 73
     4
 40
8.0
 49
5.0
 49
-1.0
 49
1.0
 49
-1.0
  0
LTYPE
  2
_STRICH-PUNKT-PUNKT
 70
    64
  3

 72
    65
 73
     6
 40
10.0
 49
5.0
 49
-1.0
 49
1.0
 49
-1.0
 49
1.0
 49
-1.0
  0
LTYPE
  2
_STARTPFEIL
 70
    64
  3

 72
    65
 73
     0
 40
0.0
  0
LTYPE
  2
_ENDPFEIL
 70
    64
  3

 72
    65
 73
     0
 40
0.0
  0
LTYPE
  2
_ENDPUNKT
 70
    64
  3

 72
    65
 73
     0
 40
0.0
  0
LTYPE
  2
_PFEIL
 70
    64
  3

 72
    65
 73
     0
 40
0.0
  0
LTYPE
  2
_STITCHLINE
 70
    64
  3

 72
    65
 73
     2
 40
6.0
 49
3.0
 49
-3.0
  0
LTYPE
  2
_MITTELLINIE_2
 70
    64
  3

 72
    65
 73
     4
 40
17.0
 49
10.0
 49
-2.0
 49
3.0
 49
-2.0
  0
LTYPE
  2
_VERDECKTE_LINIE
 70
    64
  3

 72
    65
 73
     2
 40
4.0
 49
2.0
 49
-2.0
  0
LTYPE
  2
_PHANTOMLINIE
 70
    64
  3

 72
    65
 73
     6
 40
21.0
 49
10.0
 49
-2.0
 49
3.0
 49
-1.0
 49
3.0
 49
-2.0
  0
LTYPE
  2
_BRUCHLINIE_1
 70
    64
  3

 72
    65
 73
     0
 40
0.0
  0
LTYPE
  2
_BRUCHLINIE_2
 70
    64
  3

 72
    65
 73
     0
 40
0.0
  0
LTYPE
  2
_DURCHGEHEND
 70
    64
  3

 72
    65
 73
     0
 40
0.0
  0
LTYPE
  2
_GESTRICHELT
 70
    64
  3

 72
    65
 73
     2
 40
10.0
 49
5.0
 49
-5.0
  0
LTYPE
  2
_MITTELLINIE
 70
    64
  3

 72
    65
 73
     4
 40
20.0
 49
10.0
 49
-2.0
 49
5.0
 49
-3.0
  0
LTYPE
  2
_PUNKTIERT
 70
    64
  3

 72
    65
 73
     2
 40
0.25
 49
0.0
 49
-0.25
  0
LTYPE
  2
_STRICHPUNKTIERT
 70
    64
  3

 72
    65
 73
     4
 40
8.0
 49
5.0
 49
-1.0
 49
1.0
 49
-1.0
  0
LTYPE
  2
_STRICH-PUNKT-PUNKT
 70
    64
  3

 72
    65
 73
     6
 40
10.0
 49
5.0
 49
-1.0
 49
1.0
 49
-1.0
 49
1.0
 49
-1.0
  0
LTYPE
  2
_STARTPFEIL
 70
    64
  3

 72
    65
 73
     0
 40
0.0
  0
LTYPE
  2
_ENDPFEIL
 70
    64
  3

 72
    65
 73
     0
 40
0.0
  0
LTYPE
  2
_ENDPUNKT
 70
    64
  3

 72
    65
 73
     0
 40
0.0
  0
LTYPE
  2
_PFEIL
 70
    64
  3

 72
    65
 73
     0
 40
0.0
  0
LTYPE
  2
_STITCHLINE
 70
    64
  3

 72
    65
 73
     2
 40
6.0
 49
3.0
 49
-3.0
  0
LTYPE
  2
_MITTELLINIE_2
 70
    64
  3

 72
    65
 73
     4
 40
17.0
 49
10.0
 49
-2.0
 49
3.0
 49
-2.0
  0
LTYPE
  2
_VERDECKTE_LINIE
 70
    64
  3

 72
    65
 73
     2
 40
4.0
 49
2.0
 49
-2.0
  0
LTYPE
  2
_PHANTOMLINIE
 70
    64
  3

 72
    65
 73
     6
 40
21.0
 49
10.0
 49
-2.0
 49
3.0
 49
-1.0
 49
3.0
 49
-2.0
  0
LTYPE
  2
_BRUCHLINIE_1
 70
    64
  3

 72
    65
 73
     0
 40
0.0
  0
LTYPE
  2
_BRUCHLINIE_2
 70
    64
  3

 72
    65
 73
     0
 40
0.0
  0
LTYPE
  2
_DURCHGEHEND
 70
    64
  3

 72
    65
 73
     0
 40
0.0
  0
LTYPE
  2
_GESTRICHELT
 70
    64
  3

 72
    65
 73
     2
 40
10.0
 49
5.0
 49
-5.0
  0
LTYPE
  2
_MITTELLINIE
 70
    64
  3

 72
    65
 73
     4
 40
20.0
 49
10.0
 49
-2.0
 49
5.0
 49
-3.0
  0
LTYPE
  2
_PUNKTIERT
 70
    64
  3

 72
    65
 73
     2
 40
0.25
 49
0.0
 49
-0.25
  0
LTYPE
  2
_STRICHPUNKTIERT
 70
    64
  3

 72
    65
 73
     4
 40
8.0
 49
5.0
 49
-1.0
 49
1.0
 49
-1.0
  0
LTYPE
  2
_STRICH-PUNKT-PUNKT
 70
    64
  3

 72
    65
 73
     6
 40
10.0
 49
5.0
 49
-1.0
 49
1.0
 49
-1.0
 49
1.0
 49
-1.0
  0
LTYPE
  2
_STARTPFEIL
 70
    64
  3

 72
    65
 73
     0
 40
0.0
  0
LTYPE
  2
_ENDPFEIL
 70
    64
  3

 72
    65
 73
     0
 40
0.0
  0
LTYPE
  2
_ENDPUNKT
 70
    64
  3

 72
    65
 73
     0
 40
0.0
  0
LTYPE
  2
_PFEIL
 70
    64
  3

 72
    65
 73
     0
 40
0.0
  0
LTYPE
  2
_STITCHLINE
 70
    64
  3

 72
    65
 73
     2
 40
6.0
 49
3.0
 49
-3.0
  0
LTYPE
  2
_MITTELLINIE_2
 70
    64
  3

 72
    65
 73
     4
 40
17.0
 49
10.0
 49
-2.0
 49
3.0
 49
-2.0
  0
LTYPE
  2
_VERDECKTE_LINIE
 70
    64
  3

 72
    65
 73
     2
 40
4.0
 49
2.0
 49
-2.0
  0
LTYPE
  2
_PHANTOMLINIE
 70
    64
  3

 72
    65
 73
     6
 40
21.0
 49
10.0
 49
-2.0
 49
3.0
 49
-1.0
 49
3.0
 49
-2.0
  0
LTYPE
  2
_BRUCHLINIE_1
 70
    64
  3

 72
    65
 73
     0
 40
0.0
  0
LTYPE
  2
_BRUCHLINIE_2
 70
    64
  3

 72
    65
 73
     0
 40
0.0
  0
LTYPE
  2
_DURCHGEHEND
 70
    64
  3

 72
    65
 73
     0
 40
0.0
  0
LTYPE
  2
_GESTRICHELT
 70
    64
  3

 72
    65
 73
     2
 40
10.0
 49
5.0
 49
-5.0
  0
LTYPE
  2
_MITTELLINIE
 70
    64
  3

 72
    65
 73
     4
 40
20.0
 49
10.0
 49
-2.0
 49
5.0
 49
-3.0
  0
LTYPE
  2
_PUNKTIERT
 70
    64
  3

 72
    65
 73
     2
 40
0.25
 49
0.0
 49
-0.25
  0
LTYPE
  2
_STRICHPUNKTIERT
 70
    64
  3

 72
    65
 73
     4
 40
8.0
 49
5.0
 49
-1.0
 49
1.0
 49
-1.0
  0
LTYPE
  2
_STRICH-PUNKT-PUNKT
 70
    64
  3

 72
    65
 73
     6
 40
10.0
 49
5.0
 49
-1.0
 49
1.0
 49
-1.0
 49
1.0
 49
-1.0
  0
LTYPE
  2
_STARTPFEIL
 70
    64
  3

 72
    65
 73
     0
 40
0.0
  0
LTYPE
  2
_ENDPFEIL
 70
    64
  3

 72
    65
 73
     0
 40
0.0
  0
LTYPE
  2
_ENDPUNKT
 70
    64
  3

 72
    65
 73
     0
 40
0.0
  0
LTYPE
  2
_PFEIL
 70
    64
  3

 72
    65
 73
     0
 40
0.0
  0
LTYPE
  2
_STITCHLINE
 70
    64
  3

 72
    65
 73
     2
 40
6.0
 49
3.0
 49
-3.0
  0
LTYPE
  2
_MITTELLINIE_2
 70
    64
  3

 72
    65
 73
     4
 40
17.0
 49
10.0
 49
-2.0
 49
3.0
 49
-2.0
  0
LTYPE
  2
_VERDECKTE_LINIE
 70
    64
  3

 72
    65
 73
     2
 40
4.0
 49
2.0
 49
-2.0
  0
LTYPE
  2
_PHANTOMLINIE
 70
    64
  3

 72
    65
 73
     6
 40
21.0
 49
10.0
 49
-2.0
 49
3.0
 49
-1.0
 49
3.0
 49
-2.0
  0
LTYPE
  2
_BRUCHLINIE_1
 70
    64
  3

 72
    65
 73
     0
 40
0.0
  0
LTYPE
  2
_BRUCHLINIE_2
 70
    64
  3

 72
    65
 73
     0
 40
0.0
  0
LTYPE
  2
_DURCHGEHEND
 70
    64
  3

 72
    65
 73
     0
 40
0.0
  0
LTYPE
  2
_GESTRICHELT
 70
    64
  3

 72
    65
 73
     2
 40
10.0
 49
5.0
 49
-5.0
  0
LTYPE
  2
_MITTELLINIE
 70
    64
  3

 72
    65
 73
     4
 40
20.0
 49
10.0
 49
-2.0
 49
5.0
 49
-3.0
  0
LTYPE
  2
_PUNKTIERT
 70
    64
  3

 72
    65
 73
     2
 40
0.25
 49
0.0
 49
-0.25
  0
LTYPE
  2
_STRICHPUNKTIERT
 70
    64
  3

 72
    65
 73
     4
 40
8.0
 49
5.0
 49
-1.0
 49
1.0
 49
-1.0
  0
LTYPE
  2
_STRICH-PUNKT-PUNKT
 70
    64
  3

 72
    65
 73
     6
 40
10.0
 49
5.0
 49
-1.0
 49
1.0
 49
-1.0
 49
1.0
 49
-1.0
  0
LTYPE
  2
_STARTPFEIL
 70
    64
  3

 72
    65
 73
     0
 40
0.0
  0
LTYPE
  2
_ENDPFEIL
 70
    64
  3

 72
    65
 73
     0
 40
0.0
  0
LTYPE
  2
_ENDPUNKT
 70
    64
  3

 72
    65
 73
     0
 40
0.0
  0
LTYPE
  2
_PFEIL
 70
    64
  3

 72
    65
 73
     0
 40
0.0
  0
LTYPE
  2
_STITCHLINE
 70
    64
  3

 72
    65
 73
     2
 40
6.0
 49
3.0
 49
-3.0
  0
LTYPE
  2
_MITTELLINIE_2
 70
    64
  3

 72
    65
 73
     4
 40
17.0
 49
10.0
 49
-2.0
 49
3.0
 49
-2.0
  0
LTYPE
  2
_VERDECKTE_LINIE
 70
    64
  3

 72
    65
 73
     2
 40
4.0
 49
2.0
 49
-2.0
  0
LTYPE
  2
_PHANTOMLINIE
 70
    64
  3

 72
    65
 73
     6
 40
21.0
 49
10.0
 49
-2.0
 49
3.0
 49
-1.0
 49
3.0
 49
-2.0
  0
LTYPE
  2
_BRUCHLINIE_1
 70
    64
  3

 72
    65
 73
     0
 40
0.0
  0
LTYPE
  2
_BRUCHLINIE_2
 70
    64
  3

 72
    65
 73
     0
 40
0.0
  0
LTYPE
  2
4_2-0_7-0_7-0_7
 70
    64
  3

 72
    65
 73
     4
 40
6.35
 49
4.233334
 49
-0.705556
 49
0.705556
 49
-0.705556
  0
LTYPE
  2
0_7-0_7
 70
    64
  3

 72
    65
 73
     2
 40
1.411111
 49
0.705556
 49
-0.705556
  0
LTYPE
  2
_DURCHGEHEND
 70
    64
  3

 72
    65
 73
     0
 40
0.0
  0
LTYPE
  2
_GESTRICHELT
 70
    64
  3

 72
    65
 73
     2
 40
10.0
 49
5.0
 49
-5.0
  0
LTYPE
  2
_MITTELLINIE
 70
    64
  3

 72
    65
 73
     4
 40
20.0
 49
10.0
 49
-2.0
 49
5.0
 49
-3.0
  0
LTYPE
  2
_PUNKTIERT
 70
    64
  3

 72
    65
 73
     2
 40
0.25
 49
0.0
 49
-0.25
  0
LTYPE
  2
_STRICHPUNKTIERT
 70
    64
  3

 72
    65
 73
     4
 40
8.0
 49
5.0
 49
-1.0
 49
1.0
 49
-1.0
  0
LTYPE
  2
_STRICH-PUNKT-PUNKT
 70
    64
  3

 72
    65
 73
     6
 40
10.0
 49
5.0
 49
-1.0
 49
1.0
 49
-1.0
 49
1.0
 49
-1.0
  0
LTYPE
  2
_STARTPFEIL
 70
    64
  3

 72
    65
 73
     0
 40
0.0
  0
LTYPE
  2
_ENDPFEIL
 70
    64
  3

 72
    65
 73
     0
 40
0.0
  0
LTYPE
  2
_ENDPUNKT
 70
    64
  3

 72
    65
 73
     0
 40
0.0
  0
LTYPE
  2
_PFEIL
 70
    64
  3

 72
    65
 73
     0
 40
0.0
  0
LTYPE
  2
_STITCHLINE
 70
    64
  3

 72
    65
 73
     2
 40
6.0
 49
3.0
 49
-3.0
  0
LTYPE
  2
_MITTELLINIE_2
 70
    64
  3

 72
    65
 73
     4
 40
17.0
 49
10.0
 49
-2.0
 49
3.0
 49
-2.0
  0
LTYPE
  2
_VERDECKTE_LINIE
 70
    64
  3

 72
    65
 73
     2
 40
4.0
 49
2.0
 49
-2.0
  0
LTYPE
  2
_PHANTOMLINIE
 70
    64
  3

 72
    65
 73
     6
 40
21.0
 49
10.0
 49
-2.0
 49
3.0
 49
-1.0
 49
3.0
 49
-2.0
  0
LTYPE
  2
_BRUCHLINIE_1
 70
    64
  3

 72
    65
 73
     0
 40
0.0
  0
LTYPE
  2
_BRUCHLINIE_2
 70
    64
  3

 72
    65
 73
     0
 40
0.0
  0
LTYPE
  2
_DURCHGEHEND
 70
    64
  3

 72
    65
 73
     0
 40
0.0
  0
LTYPE
  2
_GESTRICHELT
 70
    64
  3

 72
    65
 73
     2
 40
10.0
 49
5.0
 49
-5.0
  0
LTYPE
  2
_MITTELLINIE
 70
    64
  3

 72
    65
 73
     4
 40
20.0
 49
10.0
 49
-2.0
 49
5.0
 49
-3.0
  0
LTYPE
  2
_PUNKTIERT
 70
    64
  3

 72
    65
 73
     2
 40
0.25
 49
0.0
 49
-0.25
  0
LTYPE
  2
_STRICHPUNKTIERT
 70
    64
  3

 72
    65
 73
     4
 40
8.0
 49
5.0
 49
-1.0
 49
1.0
 49
-1.0
  0
LTYPE
  2
_STRICH-PUNKT-PUNKT
 70
    64
  3

 72
    65
 73
     6
 40
10.0
 49
5.0
 49
-1.0
 49
1.0
 49
-1.0
 49
1.0
 49
-1.0
  0
LTYPE
  2
_STARTPFEIL
 70
    64
  3

 72
    65
 73
     0
 40
0.0
  0
LTYPE
  2
_ENDPFEIL
 70
    64
  3

 72
    65
 73
     0
 40
0.0
  0
LTYPE
  2
_ENDPUNKT
 70
    64
  3

 72
    65
 73
     0
 40
0.0
  0
LTYPE
  2
_PFEIL
 70
    64
  3

 72
    65
 73
     0
 40
0.0
  0
LTYPE
  2
_STITCHLINE
 70
    64
  3

 72
    65
 73
     2
 40
6.0
 49
3.0
 49
-3.0
  0
LTYPE
  2
_MITTELLINIE_2
 70
    64
  3

 72
    65
 73
     4
 40
17.0
 49
10.0
 49
-2.0
 49
3.0
 49
-2.0
  0
LTYPE
  2
_VERDECKTE_LINIE
 70
    64
  3

 72
    65
 73
     2
 40
4.0
 49
2.0
 49
-2.0
  0
LTYPE
  2
_PHANTOMLINIE
 70
    64
  3

 72
    65
 73
     6
 40
21.0
 49
10.0
 49
-2.0
 49
3.0
 49
-1.0
 49
3.0
 49
-2.0
  0
LTYPE
  2
_BRUCHLINIE_1
 70
    64
  3

 72
    65
 73
     0
 40
0.0
  0
LTYPE
  2
_BRUCHLINIE_2
 70
    64
  3

 72
    65
 73
     0
 40
0.0
  0
ENDTAB
  0
TABLE
  2
LAYER
 70
     7
  0
LAYER
  2
0
 70
     0
 62
     7
  6
CONTINUOUS
  0
LAYER
  2
STANDARDEBENE
 70
     0
 62
     7
  6
CONTINUOUS
  0
LAYER
  2
ARMATUR
 70
     0
 62
     7
  6
CONTINUOUS
  0
LAYER
  2
ACHSEN
 70
     0
 62
     7
  6
CONTINUOUS
  0
LAYER
  2
TEXT
 70
     0
 62
     7
  6
CONTINUOUS
  0
LAYER
  2
BEMASSUNG
 70
     0
 62
     7
  6
CONTINUOUS
  0
LAYER
  2
WAND
 70
     0
 62
     7
  6
CONTINUOUS
  0
ENDTAB
  0
TABLE
  2
STYLE
 70
     1
  0
STYLE
  2
STANDARD
 70
     0
 40
0.0
 41
1.0
 50
0.0
 71
     0
 42
0.0
  3
txt
  4

  0
ENDTAB
  0
TABLE
  2
VIEW
 70
     0
  0
ENDTAB
  0
TABLE
  2
UCS
 70
     1
  0
UCS
  2
ISODRAW_6
 70
     0
 10
0.0
 20
0.0
 30
0.0
 11
0.0
 21
1.0
 31
0.0
 12
0.0
 22
0.0
 32
1.0
  0
ENDTAB
  0
TABLE
  2
APPID
 70
     1
  0
APPID
  2
ACAD
 70
     0
  0
ENDTAB
  0
TABLE
  2
DIMSTYLE
 70
     1
  0
DIMSTYLE
  2
STANDARD
 70
     0
  3

  4

  5

  6

  7

 40
1.0
 41
0.18
 42
0.0625
 43
0.38
 44
0.18
 45
0.0
 46
0.0
 47
0.0
 48
0.0
 71
     0
 72
     0
 73
     1
 74
     1
 75
     0
 76
     0
 77
     0
 78
     0
140
0.18
141
0.09
142
0.0
143
25.4
144
1.0
145
0.0
146
1.0
147
0.09
170
     0
171
     2
172
     0
173
     0
174
     0
175
     0
176
     0
177
     0
178
     0
  0
ENDTAB
  0
ENDSEC
  0
SECTION
  2
BLOCKS
  0
ENDSEC
  0
SECTION
  2
ENTITIES
  0
LINE
  8
ARMATUR
  6
DURCHGEHEND
 62
     1
  5
D9
 10
130.743103
 20
102.215057
 30
0.0
 11
145.730225
 21
101.191849
 31
0.0
  0
LINE
  8
ARMATUR
  6
DURCHGEHEND
 62
     1
  5
DA
 10
130.743103
 20
105.827934
 30
0.0
 11
145.730225
 21
106.827934
 31
0.0
  0
LINE
  8
ARMATUR
  6
DURCHGEHEND
 62
     1
  5
DB
 10
145.730225
 20
106.827934
 30
0.0
 11
145.730225
 21
101.191849
 31
0.0
  0
LINE
  8
ARMATUR
  6
DURCHGEHEND
 62
     1
  5
DC
 10
130.743103
 20
105.827934
 30
0.0
 11
130.743103
 21
102.215057
 31
0.0
  0
LINE
  8
ARMATUR
  6
DURCHGEHEND
 62
     1
  5
DD
 10
123.993111
 20
106.078865
 30
0.0
 11
123.993111
 21
102.197441
 31
0.0
  0
LINE
  8
ARMATUR
  6
DURCHGEHEND
 62
     1
  5
DE
 10
129.743103
 20
105.507469
 30
0.0
 11
129.743103
 21
106.078865
 31
0.0
  0
LINE
  8
ARMATUR
  6
DURCHGEHEND
 62
     1
  5
DF
 10
129.743103
 20
102.197441
 30
0.0
 11
129.743103
 21
102.537666
 31
0.0
  0
ARC
  8
ARMATUR
  6
DURCHGEHEND
 62
     1
  5
E0
 10
129.493103
 20
106.078865
 30
0.0
 40
0.25
 50
0.0
 51
77.071999
  0
ARC
  8
ARMATUR
  6
DURCHGEHEND
 62
     1
  5
E1
 10
124.243111
 20
106.078865
 30
0.0
 40
0.25
 50
102.932999
 51
180.005005
  0
ARC
  8
ARMATUR
  6
DURCHGEHEND
 62
     1
  5
E2
 10
129.493103
 20
102.197441
 30
0.0
 40
0.25
 50
294.21701
 51
360.0
  0
ARC
  8
ARMATUR
  6
DURCHGEHEND
 62
     1
  5
E3
 10
124.243111
 20
102.197441
 30
0.0
 40
0.25
 50
180.0
 51
245.785995
  0
ARC
  8
ARMATUR
  6
DURCHGEHEND
 62
     1
  5
E4
 10
123.547798
 20
100.651268
 30
0.0
 40
1.445351
 50
3.137
 51
65.786003
  0
ARC
  8
ARMATUR
  6
DURCHGEHEND
 62
     1
  5
E5
 10
130.188416
 20
100.651268
 30
0.0
 40
1.445297
 50
114.212997
 51
176.862
  0
ARC
  8
ARMATUR
  6
DURCHGEHEND
 62
     1
  5
E6
 10
126.868111
 20
94.643242
 30
0.0
 40
11.983047
 50
77.071999
 51
102.928001
  0
ARC
  8
ARMATUR
  6
DURCHGEHEND
 62
     1
  5
E7
 10
124.680611
 20
100.338768
 30
0.0
 40
0.3125
 50
90.0
 51
270.0
  0
ARC
  8
ARMATUR
  6
DURCHGEHEND
 62
     1
  5
E8
 10
129.055603
 20
100.338768
 30
0.0
 40
0.3125
 50
0.0
 51
90.0
  0
ARC
  8
ARMATUR
  6
DURCHGEHEND
 62
     1
  5
E9
 10
129.055603
 20
100.338768
 30
0.0
 40
0.3125
 50
270.0
 51
360.0
  0
ARC
  8
ARMATUR
  6
DURCHGEHEND
 62
     1
  5
EA
 10
128.82016
 20
100.72628
 30
0.0
 40
0.074997
 50
176.867004
 51
270.003998
  0
ARC
  8
ARMATUR
  6
DURCHGEHEND
 62
     1
  5
EB
 10
124.916054
 20
100.72628
 30
0.0
 40
0.074997
 50
0.0
 51
3.137
  0
ARC
  8
ARMATUR
  6
DURCHGEHEND
 62
     1
  5
EC
 10
124.916054
 20
100.72628
 30
0.0
 40
0.074997
 50
270.0
 51
360.0
  0
ARC
  8
ARMATUR
  6
DURCHGEHEND
 62
     1
  5
ED
 10
130.368103
 20
102.401283
 30
0.0
 40
0.375
 50
189.207001
 51
360.0
  0
ARC
  8
ARMATUR
  6
DURCHGEHEND
 62
     1
  5
EE
 10
130.368103
 20
105.651283
 30
0.0
 40
0.375
 50
0.0
 51
170.792999
  0
ARC
  8
ARMATUR
  6
DURCHGEHEND
 62
     1
  5
EF
 10
129.75116
 20
102.301277
 30
0.0
 40
0.25
 50
9.206
 51
89.999001
  0
ARC
  8
ARMATUR
  6
DURCHGEHEND
 62
     1
  5
F0
 10
129.75116
 20
105.751274
 30
0.0
 40
0.25
 50
270.0
 51
350.792999
  0
ARC
  8
ARMATUR
  6
DURCHGEHEND
 62
     1
  5
F1
 10
146.105225
 20
101.338737
 30
0.0
 40
0.375
 50
180.0
 51
360.0
  0
ARC
  8
ARMATUR
  6
DURCHGEHEND
 62
     1
  5
F2
 10
146.105225
 20
106.588753
 30
0.0
 40
0.375
 50
0.0
 51
180.0
  0
ARC
  8
ARMATUR
  6
DURCHGEHEND
 62
     1
  5
F3
 10
147.980225
 20
101.402
 30
0.0
 40
1.5
 50
127.980003
 51
180.0
  0
ARC
  8
ARMATUR
  6
DURCHGEHEND
 62
     1
  5
F4
 10
147.980225
 20
106.52549
 30
0.0
 40
1.5
 50
180.0
 51
232.020004
  0
ARC
  8
ARMATUR
  6
DURCHGEHEND
 62
     1
  5
F5
 10
145.980225
 20
103.963753
 30
0.0
 40
1.75
 50
0.0
 51
52.019001
  0
ARC
  8
ARMATUR
  6
DURCHGEHEND
 62
     1
  5
F6
 10
145.980225
 20
103.963753
 30
0.0
 40
1.75
 50
307.979004
 51
360.0
  0
POLYLINE
  8
ARMATUR
  6
DURCHGEHEND
 62
     1
  5
F7
 66
     1
 10
0.0
 20
0.0
 30
0.0
 70
    12
 75
     5
  0
VERTEX
  8
0
  5
F8
 10
129.737244
 20
102.537666
 30
0.0
 70
    48
  0
VERTEX
  8
0
  5
F9
 10
129.737244
 20
102.537666
 30
0.0
 70
    40
  0
VERTEX
  8
0
  5
FA
 10
129.741959
 20
102.528496
 30
0.0
 70
    40
  0
VERTEX
  8
0
  5
FB
 10
129.737244
 20
102.537666
 30
0.0
 70
    48
  0
VERTEX
  8
0
  5
FC
 10
129.741959
 20
102.528496
 30
0.0
 70
    48
  0
VERTEX
  8
0
  5
FD
 10
129.741959
 20
102.528496
 30
0.0
 70
    48
  0
VERTEX
  8
0
  5
FE
 10
129.695282
 20
102.620125
 30
0.0
 70
    40
  0
VERTEX
  8
0
  5
FF
 10
129.741959
 20
102.528496
 30
0.0
 70
    48
  0
VERTEX
  8
0
  5
100
 10
129.695282
 20
102.620125
 30
0.0
 70
    48
  0
VERTEX
  8
0
  5
101
 10
129.695282
 20
102.620125
 30
0.0
 70
    48
  0
VERTEX
  8
0
  5
102
 10
129.594025
 20
102.836723
 30
0.0
 70
    40
  0
VERTEX
  8
0
  5
103
 10
129.695282
 20
102.620125
 30
0.0
 70
    48
  0
VERTEX
  8
0
  5
104
 10
129.594025
 20
102.836723
 30
0.0
 70
    48
  0
VERTEX
  8
0
  5
105
 10
129.594025
 20
102.836723
 30
0.0
 70
    48
  0
VERTEX
  8
0
  5
106
 10
129.458832
 20
103.191856
 30
0.0
 70
    40
  0
VERTEX
  8
0
  5
107
 10
129.594025
 20
102.836723
 30
0.0
 70
    48
  0
VERTEX
  8
0
  5
108
 10
129.458832
 20
103.191856
 30
0.0
 70
    48
  0
VERTEX
  8
0
  5
109
 10
129.458832
 20
103.191856
 30
0.0
 70
    48
  0
VERTEX
  8
0
  5
10A
 10
129.39389
 20
103.423546
 30
0.0
 70
    40
  0
VERTEX
  8
0
  5
10B
 10
129.458832
 20
103.191856
 30
0.0
 70
    48
  0
VERTEX
  8
0
  5
10C
 10
129.39389
 20
103.423546
 30
0.0
 70
    48
  0
VERTEX
  8
0
  5
10D
 10
129.39389
 20
103.423546
 30
0.0
 70
    48
  0
VERTEX
  8
0
  5
10E
 10
129.345535
 20
103.676994
 30
0.0
 70
    40
  0
VERTEX
  8
0
  5
10F
 10
129.39389
 20
103.423546
 30
0.0
 70
    48
  0
VERTEX
  8
0
  5
110
 10
129.345535
 20
103.676994
 30
0.0
 70
    48
  0
VERTEX
  8
0
  5
111
 10
129.345535
 20
103.676994
 30
0.0
 70
    48
  0
VERTEX
  8
0
  5
112
 10
129.325134
 20
104.172462
 30
0.0
 70
    40
  0
VERTEX
  8
0
  5
113
 10
129.345535
 20
103.676994
 30
0.0
 70
    48
  0
VERTEX
  8
0
  5
114
 10
129.325134
 20
104.172462
 30
0.0
 70
    48
  0
VERTEX
  8
0
  5
115
 10
129.325134
 20
104.172462
 30
0.0
 70
    48
  0
VERTEX
  8
0
  5
116
 10
129.385101
 20
104.591591
 30
0.0
 70
    40
  0
VERTEX
  8
0
  5
117
 10
129.325134
 20
104.172462
 30
0.0
 70
    48
  0
VERTEX
  8
0
  5
118
 10
129.385101
 20
104.591591
 30
0.0
 70
    48
  0
VERTEX
  8
0
  5
119
 10
129.385101
 20
104.591591
 30
0.0
 70
    48
  0
VERTEX
  8
0
  5
11A
 10
129.496826
 20
104.972084
 30
0.0
 70
    40
  0
VERTEX
  8
0
  5
11B
 10
129.385101
 20
104.591591
 30
0.0
 70
    48
  0
VERTEX
  8
0
  5
11C
 10
129.496826
 20
104.972084
 30
0.0
 70
    48
  0
VERTEX
  8
0
  5
11D
 10
129.496826
 20
104.972084
 30
0.0
 70
    48
  0
VERTEX
  8
0
  5
11E
 10
129.633163
 20
105.302956
 30
0.0
 70
    40
  0
VERTEX
  8
0
  5
11F
 10
129.496826
 20
104.972084
 30
0.0
 70
    48
  0
VERTEX
  8
0
  5
120
 10
129.633163
 20
105.302956
 30
0.0
 70
    48
  0
VERTEX
  8
0
  5
121
 10
129.633163
 20
105.302956
 30
0.0
 70
    48
  0
VERTEX
  8
0
  5
122
 10
129.689606
 20
105.421074
 30
0.0
 70
    40
  0
VERTEX
  8
0
  5
123
 10
129.633163
 20
105.302956
 30
0.0
 70
    48
  0
VERTEX
  8
0
  5
124
 10
129.689606
 20
105.421074
 30
0.0
 70
    48
  0
VERTEX
  8
0
  5
125
 10
129.689606
 20
105.421074
 30
0.0
 70
    48
  0
VERTEX
  8
0
  5
126
 10
129.727905
 20
105.496941
 30
0.0
 70
    40
  0
VERTEX
  8
0
  5
127
 10
129.689606
 20
105.421074
 30
0.0
 70
    48
  0
VERTEX
  8
0
  5
128
 10
129.727905
 20
105.496941
 30
0.0
 70
    48
  0
VERTEX
  8
0
  5
129
 10
129.727905
 20
105.496941
 30
0.0
 70
    48
  0
VERTEX
  8
0
  5
12A
 10
129.733337
 20
105.507469
 30
0.0
 70
    40
  0
VERTEX
  8
0
  5
12B
 10
129.727905
 20
105.496941
 30
0.0
 70
    48
  0
VERTEX
  8
0
  5
12C
 10
129.733337
 20
105.507469
 30
0.0
 70
    48
  0
VERTEX
  8
0
  5
12D
 10
129.733337
 20
105.507469
 30
0.0
 70
    48
  0
SEQEND
  8
0
  5
12E
  0
LINE
  8
ARMATUR
  6
DURCHGEHEND
 62
     1
  5
12F
 10
124.680611
 20
100.651268
 30
0.0
 11
129.055603
 21
100.651268
 31
0.0
  0
LINE
  8
ARMATUR
  6
DURCHGEHEND
 62
     1
  5
130
 10
124.680611
 20
100.026268
 30
0.0
 11
129.055603
 21
100.026268
 31
0.0
  0
LINE
  8
ARMATUR
  6
DURCHGEHEND
 62
     1
  5
131
 10
130.743103
 20
102.401283
 30
0.0
 11
130.743103
 21
105.651283
 31
0.0
  0
LINE
  8
ARMATUR
  6
DURCHGEHEND
 62
     1
  5
132
 10
145.730225
 20
101.472832
 30
0.0
 11
145.730225
 21
106.588753
 31
0.0
  0
LINE
  8
ARMATUR
  6
DURCHGEHEND
 62
     1
  5
133
 10
145.730225
 20
101.338737
 30
0.0
 11
145.730225
 21
101.472832
 31
0.0
  0
LINE
  8
ARMATUR
  6
DURCHGEHEND
 62
     1
  5
134
 10
146.480225
 20
101.472832
 30
0.0
 11
146.480225
 21
106.588753
 31
0.0
  0
LINE
  8
ARMATUR
  6
DURCHGEHEND
 62
     1
  5
135
 10
146.480225
 20
101.338737
 30
0.0
 11
146.480225
 21
101.472832
 31
0.0
  0
LINE
  8
ARMATUR
  6
DURCHGEHEND
 62
     1
  5
136
 10
126.868111
 20
106.078865
 30
0.0
 11
123.993111
 21
106.078865
 31
0.0
  0
LINE
  8
ARMATUR
  6
DURCHGEHEND
 62
     1
  5
137
 10
129.743103
 20
106.078865
 30
0.0
 11
126.868111
 21
106.078865
 31
0.0
  0
LINE
  8
ARMATUR
  6
DURCHGEHEND
 62
     1
  5
138
 10
126.868111
 20
101.969444
 30
0.0
 11
124.140572
 21
101.969444
 31
0.0
  0
LINE
  8
ARMATUR
  6
DURCHGEHEND
 62
     1
  5
139
 10
129.595642
 20
101.969444
 30
0.0
 11
126.868111
 21
101.969444
 31
0.0
  0
LINE
  8
ARMATUR
  6
DURCHGEHEND
 62
     1
  5
13A
 10
129.99794
 20
102.341286
 30
0.0
 11
129.99794
 21
105.711281
 31
0.0
  0
LINE
  8
ARMATUR
  6
DURCHGEHEND
 62
     1
  5
13B
 10
129.75116
 20
102.551277
 30
0.0
 11
129.75116
 21
105.501274
 31
0.0
  0
LINE
  8
ARMATUR
  6
DURCHGEHEND
 62
     1
  5
13C
 10
147.057159
 20
102.584358
 30
0.0
 11
147.057159
 21
102.654808
 31
0.0
  0
LINE
  8
ARMATUR
  6
DURCHGEHEND
 62
     1
  5
13D
 10
124.194962
 20
100.020988
 30
0.0
 11
129.760345
 21
100.020988
 31
0.0
  0
LINE
  8
ARMATUR
  6
DURCHGEHEND
 62
     1
  5
13E
 10
126.936874
 20
100.020988
 30
0.0
 11
126.986404
 21
100.020988
 31
0.0
  0
LINE
  8
ARMATUR
  6
DURCHGEHEND
 62
     1
  5
13F
 10
126.936874
 20
100.020988
 30
0.0
 11
126.936874
 21
100.020988
 31
0.0
  0
LINE
  8
ARMATUR
  6
DURCHGEHEND
 62
     1
  5
140
 10
123.916763
 20
100.020988
 30
0.0
 11
129.95697
 21
100.020988
 31
0.0
  0
ARC
  8
ARMATUR
  6
DURCHGEHEND
 62
     1
  5
141
 10
119.513412
 20
90.151268
 30
0.0
 40
0.125
 50
180.0
 51
270.0
  0
ARC
  8
ARMATUR
  6
DURCHGEHEND
 62
     1
  5
142
 10
134.263412
 20
90.151268
 30
0.0
 40
0.125
 50
270.0
 51
360.0
  0
LINE
  8
ARMATUR
  6
DURCHGEHEND
 62
     1
  5
143
 10
134.388412
 20
90.151268
 30
0.0
 11
134.388412
 21
92.767601
 31
0.0
  0
LINE
  8
ARMATUR
  6
DURCHGEHEND
 62
     1
  5
144
 10
119.388412
 20
92.767601
 30
0.0
 11
119.388412
 21
90.151268
 31
0.0
  0
POLYLINE
  8
ARMATUR
  6
DURCHGEHEND
 62
     1
  5
145
 66
     1
 10
0.0
 20
0.0
 30
0.0
 70
    12
 75
     5
  0
VERTEX
  8
0
  5
146
 10
123.84198
 20
100.026817
 30
0.0
 70
    48
  0
VERTEX
  8
0
  5
147
 10
123.84198
 20
100.026817
 30
0.0
 70
    40
  0
VERTEX
  8
0
  5
148
 10
123.803467
 20
99.828865
 30
0.0
 70
    40
  0
VERTEX
  8
0
  5
149
 10
123.84198
 20
100.026817
 30
0.0
 70
    48
  0
VERTEX
  8
0
  5
14A
 10
123.803467
 20
99.828865
 30
0.0
 70
    48
  0
VERTEX
  8
0
  5
14B
 10
123.803467
 20
99.828865
 30
0.0
 70
    48
  0
VERTEX
  8
0
  5
14C
 10
123.693832
 20
99.352058
 30
0.0
 70
    40
  0
VERTEX
  8
0
  5
14D
 10
123.803467
 20
99.828865
 30
0.0
 70
    48
  0
VERTEX
  8
0
  5
14E
 10
123.693832
 20
99.352058
 30
0.0
 70
    48
  0
VERTEX
  8
0
  5
14F
 10
123.693832
 20
99.352058
 30
0.0
 70
    48
  0
VERTEX
  8
0
  5
150
 10
123.562729
 20
98.879005
 30
0.0
 70
    40
  0
VERTEX
  8
0
  5
151
 10
123.693832
 20
99.352058
 30
0.0
 70
    48
  0
VERTEX
  8
0
  5
152
 10
123.562729
 20
98.879005
 30
0.0
 70
    48
  0
VERTEX
  8
0
  5
153
 10
123.562729
 20
98.879005
 30
0.0
 70
    48
  0
VERTEX
  8
0
  5
154
 10
123.410233
 20
98.410103
 30
0.0
 70
    40
  0
VERTEX
  8
0
  5
155
 10
123.562729
 20
98.879005
 30
0.0
 70
    48
  0
VERTEX
  8
0
  5
156
 10
123.410233
 20
98.410103
 30
0.0
 70
    48
  0
VERTEX
  8
0
  5
157
 10
123.410233
 20
98.410103
 30
0.0
 70
    48
  0
VERTEX
  8
0
  5
158
 10
123.23642
 20
97.946022
 30
0.0
 70
    40
  0
VERTEX
  8
0
  5
159
 10
123.410233
 20
98.410103
 30
0.0
 70
    48
  0
VERTEX
  8
0
  5
15A
 10
123.23642
 20
97.946022
 30
0.0
 70
    48
  0
VERTEX
  8
0
  5
15B
 10
123.23642
 20
97.946022
 30
0.0
 70
    48
  0
VERTEX
  8
0
  5
15C
 10
123.041458
 20
97.487373
 30
0.0
 70
    40
  0
VERTEX
  8
0
  5
15D
 10
123.23642
 20
97.946022
 30
0.0
 70
    48
  0
VERTEX
  8
0
  5
15E
 10
123.041458
 20
97.487373
 30
0.0
 70
    48
  0
VERTEX
  8
0
  5
15F
 10
123.041458
 20
97.487373
 30
0.0
 70
    48
  0
VERTEX
  8
0
  5
160
 10
122.82547
 20
97.034813
 30
0.0
 70
    40
  0
VERTEX
  8
0
  5
161
 10
123.041458
 20
97.487373
 30
0.0
 70
    48
  0
VERTEX
  8
0
  5
162
 10
122.82547
 20
97.034813
 30
0.0
 70
    48
  0
VERTEX
  8
0
  5
163
 10
122.82547
 20
97.034813
 30
0.0
 70
    48
  0
VERTEX
  8
0
  5
164
 10
122.588638
 20
96.588997
 30
0.0
 70
    40
  0
VERTEX
  8
0
  5
165
 10
122.82547
 20
97.034813
 30
0.0
 70
    48
  0
VERTEX
  8
0
  5
166
 10
122.588638
 20
96.588997
 30
0.0
 70
    48
  0
VERTEX
  8
0
  5
167
 10
122.588638
 20
96.588997
 30
0.0
 70
    48
  0
VERTEX
  8
0
  5
168
 10
122.331146
 20
96.150551
 30
0.0
 70
    40
  0
VERTEX
  8
0
  5
169
 10
122.588638
 20
96.588997
 30
0.0
 70
    48
  0
VERTEX
  8
0
  5
16A
 10
122.331146
 20
96.150551
 30
0.0
 70
    48
  0
VERTEX
  8
0
  5
16B
 10
122.331146
 20
96.150551
 30
0.0
 70
    48
  0
VERTEX
  8
0
  5
16C
 10
122.053223
 20
95.720192
 30
0.0
 70
    40
  0
VERTEX
  8
0
  5
16D
 10
122.331146
 20
96.150551
 30
0.0
 70
    48
  0
VERTEX
  8
0
  5
16E
 10
122.053223
 20
95.720192
 30
0.0
 70
    48
  0
VERTEX
  8
0
  5
16F
 10
122.053223
 20
95.720192
 30
0.0
 70
    48
  0
VERTEX
  8
0
  5
170
 10
121.755112
 20
95.298592
 30
0.0
 70
    40
  0
VERTEX
  8
0
  5
171
 10
122.053223
 20
95.720192
 30
0.0
 70
    48
  0
VERTEX
  8
0
  5
172
 10
121.755112
 20
95.298592
 30
0.0
 70
    48
  0
VERTEX
  8
0
  5
173
 10
121.755112
 20
95.298592
 30
0.0
 70
    48
  0
VERTEX
  8
0
  5
174
 10
121.437088
 20
94.886421
 30
0.0
 70
    40
  0
VERTEX
  8
0
  5
175
 10
121.755112
 20
95.298592
 30
0.0
 70
    48
  0
VERTEX
  8
0
  5
176
 10
121.437088
 20
94.886421
 30
0.0
 70
    48
  0
VERTEX
  8
0
  5
177
 10
121.437088
 20
94.886421
 30
0.0
 70
    48
  0
VERTEX
  8
0
  5
178
 10
121.099472
 20
94.484383
 30
0.0
 70
    40
  0
VERTEX
  8
0
  5
179
 10
121.437088
 20
94.886421
 30
0.0
 70
    48
  0
VERTEX
  8
0
  5
17A
 10
121.099472
 20
94.484383
 30
0.0
 70
    48
  0
VERTEX
  8
0
  5
17B
 10
121.099472
 20
94.484383
 30
0.0
 70
    48
  0
VERTEX
  8
0
  5
17C
 10
120.74263
 20
94.093178
 30
0.0
 70
    40
  0
VERTEX
  8
0
  5
17D
 10
121.099472
 20
94.484383
 30
0.0
 70
    48
  0
VERTEX
  8
0
  5
17E
 10
120.74263
 20
94.093178
 30
0.0
 70
    48
  0
VERTEX
  8
0
  5
17F
 10
120.74263
 20
94.093178
 30
0.0
 70
    48
  0
VERTEX
  8
0
  5
180
 10
120.366943
 20
93.713493
 30
0.0
 70
    40
  0
VERTEX
  8
0
  5
181
 10
120.74263
 20
94.093178
 30
0.0
 70
    48
  0
VERTEX
  8
0
  5
182
 10
120.366943
 20
93.713493
 30
0.0
 70
    48
  0
VERTEX
  8
0
  5
183
 10
120.366943
 20
93.713493
 30
0.0
 70
    48
  0
VERTEX
  8
0
  5
184
 10
119.972824
 20
93.346046
 30
0.0
 70
    40
  0
VERTEX
  8
0
  5
185
 10
120.366943
 20
93.713493
 30
0.0
 70
    48
  0
VERTEX
  8
0
  5
186
 10
119.972824
 20
93.346046
 30
0.0
 70
    48
  0
VERTEX
  8
0
  5
187
 10
119.972824
 20
93.346046
 30
0.0
 70
    48
  0
VERTEX
  8
0
  5
188
 10
119.560776
 20
92.991539
 30
0.0
 70
    40
  0
VERTEX
  8
0
  5
189
 10
119.972824
 20
93.346046
 30
0.0
 70
    48
  0
VERTEX
  8
0
  5
18A
 10
119.560776
 20
92.991539
 30
0.0
 70
    48
  0
VERTEX
  8
0
  5
18B
 10
119.560776
 20
92.991539
 30
0.0
 70
    48
  0
VERTEX
  8
0
  5
18C
 10
119.453278
 20
92.903603
 30
0.0
 70
    40
  0
VERTEX
  8
0
  5
18D
 10
119.560776
 20
92.991539
 30
0.0
 70
    48
  0
VERTEX
  8
0
  5
18E
 10
119.453278
 20
92.903603
 30
0.0
 70
    48
  0
VERTEX
  8
0
  5
18F
 10
119.453278
 20
92.903603
 30
0.0
 70
    48
  0
SEQEND
  8
0
  5
190
  0
POLYLINE
  8
ARMATUR
  6
DURCHGEHEND
 62
     1
  5
191
 66
     1
 10
0.0
 20
0.0
 30
0.0
 70
    12
 75
     5
  0
VERTEX
  8
0
  5
192
 10
134.323532
 20
92.903603
 30
0.0
 70
    48
  0
VERTEX
  8
0
  5
193
 10
134.323532
 20
92.903603
 30
0.0
 70
    40
  0
VERTEX
  8
0
  5
194
 10
134.102463
 20
93.086433
 30
0.0
 70
    40
  0
VERTEX
  8
0
  5
195
 10
134.323532
 20
92.903603
 30
0.0
 70
    48
  0
VERTEX
  8
0
  5
196
 10
134.102463
 20
93.086433
 30
0.0
 70
    48
  0
VERTEX
  8
0
  5
197
 10
134.102463
 20
93.086433
 30
0.0
 70
    48
  0
VERTEX
  8
0
  5
198
 10
133.693008
 20
93.446541
 30
0.0
 70
    40
  0
VERTEX
  8
0
  5
199
 10
134.102463
 20
93.086433
 30
0.0
 70
    48
  0
VERTEX
  8
0
  5
19A
 10
133.693008
 20
93.446541
 30
0.0
 70
    48
  0
VERTEX
  8
0
  5
19B
 10
133.693008
 20
93.446541
 30
0.0
 70
    48
  0
VERTEX
  8
0
  5
19C
 10
133.301865
 20
93.819542
 30
0.0
 70
    40
  0
VERTEX
  8
0
  5
19D
 10
133.693008
 20
93.446541
 30
0.0
 70
    48
  0
VERTEX
  8
0
  5
19E
 10
133.301865
 20
93.819542
 30
0.0
 70
    48
  0
VERTEX
  8
0
  5
19F
 10
133.301865
 20
93.819542
 30
0.0
 70
    48
  0
VERTEX
  8
0
  5
1A0
 10
132.929459
 20
94.204689
 30
0.0
 70
    40
  0
VERTEX
  8
0
  5
1A1
 10
133.301865
 20
93.819542
 30
0.0
 70
    48
  0
VERTEX
  8
0
  5
1A2
 10
132.929459
 20
94.204689
 30
0.0
 70
    48
  0
VERTEX
  8
0
  5
1A3
 10
132.929459
 20
94.204689
 30
0.0
 70
    48
  0
VERTEX
  8
0
  5
1A4
 10
132.576248
 20
94.60128
 30
0.0
 70
    40
  0
VERTEX
  8
0
  5
1A5
 10
132.929459
 20
94.204689
 30
0.0
 70
    48
  0
VERTEX
  8
0
  5
1A6
 10
132.576248
 20
94.60128
 30
0.0
 70
    48
  0
VERTEX
  8
0
  5
1A7
 10
132.576248
 20
94.60128
 30
0.0
 70
    48
  0
VERTEX
  8
0
  5
1A8
 10
132.24263
 20
95.008553
 30
0.0
 70
    40
  0
VERTEX
  8
0
  5
1A9
 10
132.576248
 20
94.60128
 30
0.0
 70
    48
  0
VERTEX
  8
0
  5
1AA
 10
132.24263
 20
95.008553
 30
0.0
 70
    48
  0
VERTEX
  8
0
  5
1AB
 10
132.24263
 20
95.008553
 30
0.0
 70
    48
  0
VERTEX
  8
0
  5
1AC
 10
131.92894
 20
95.425789
 30
0.0
 70
    40
  0
VERTEX
  8
0
  5
1AD
 10
132.24263
 20
95.008553
 30
0.0
 70
    48
  0
VERTEX
  8
0
  5
1AE
 10
131.92894
 20
95.425789
 30
0.0
 70
    48
  0
VERTEX
  8
0
  5
1AF
 10
131.92894
 20
95.425789
 30
0.0
 70
    48
  0
VERTEX
  8
0
  5
1B0
 10
131.635529
 20
95.852303
 30
0.0
 70
    40
  0
VERTEX
  8
0
  5
1B1
 10
131.92894
 20
95.425789
 30
0.0
 70
    48
  0
VERTEX
  8
0
  5
1B2
 10
131.635529
 20
95.852303
 30
0.0
 70
    48
  0
VERTEX
  8
0
  5
1B3
 10
131.635529
 20
95.852303
 30
0.0
 70
    48
  0
VERTEX
  8
0
  5
1B4
 10
131.36264
 20
96.287315
 30
0.0
 70
    40
  0
VERTEX
  8
0
  5
1B5
 10
131.635529
 20
95.852303
 30
0.0
 70
    48
  0
VERTEX
  8
0
  5
1B6
 10
131.36264
 20
96.287315
 30
0.0
 70
    48
  0
VERTEX
  8
0
  5
1B7
 10
131.36264
 20
96.287315
 30
0.0
 70
    48
  0
VERTEX
  8
0
  5
1B8
 10
131.110535
 20
96.730156
 30
0.0
 70
    40
  0
VERTEX
  8
0
  5
1B9
 10
131.36264
 20
96.287315
 30
0.0
 70
    48
  0
VERTEX
  8
0
  5
1BA
 10
131.110535
 20
96.730156
 30
0.0
 70
    48
  0
VERTEX
  8
0
  5
1BB
 10
131.110535
 20
96.730156
 30
0.0
 70
    48
  0
VERTEX
  8
0
  5
1BC
 10
130.879364
 20
97.180122
 30
0.0
 70
    40
  0
VERTEX
  8
0
  5
1BD
 10
131.110535
 20
96.730156
 30
0.0
 70
    48
  0
VERTEX
  8
0
  5
1BE
 10
130.879364
 20
97.180122
 30
0.0
 70
    48
  0
VERTEX
  8
0
  5
1BF
 10
130.879364
 20
97.180122
 30
0.0
 70
    48
  0
VERTEX
  8
0
  5
1C0
 10
130.669373
 20
97.636513
 30
0.0
 70
    40
  0
VERTEX
  8
0
  5
1C1
 10
130.879364
 20
97.180122
 30
0.0
 70
    48
  0
VERTEX
  8
0
  5
1C2
 10
130.669373
 20
97.636513
 30
0.0
 70
    48
  0
VERTEX
  8
0
  5
1C3
 10
130.669373
 20
97.636513
 30
0.0
 70
    48
  0
VERTEX
  8
0
  5
1C4
 10
130.480652
 20
98.098671
 30
0.0
 70
    40
  0
VERTEX
  8
0
  5
1C5
 10
130.669373
 20
97.636513
 30
0.0
 70
    48
  0
VERTEX
  8
0
  5
1C6
 10
130.480652
 20
98.098671
 30
0.0
 70
    48
  0
VERTEX
  8
0
  5
1C7
 10
130.480652
 20
98.098671
 30
0.0
 70
    48
  0
VERTEX
  8
0
  5
1C8
 10
130.313385
 20
98.565926
 30
0.0
 70
    40
  0
VERTEX
  8
0
  5
1C9
 10
130.480652
 20
98.098671
 30
0.0
 70
    48
  0
VERTEX
  8
0
  5
1CA
 10
130.313385
 20
98.565926
 30
0.0
 70
    48
  0
VERTEX
  8
0
  5
1CB
 10
130.313385
 20
98.565926
 30
0.0
 70
    48
  0
VERTEX
  8
0
  5
1CC
 10
130.167633
 20
99.037605
 30
0.0
 70
    40
  0
VERTEX
  8
0
  5
1CD
 10
130.313385
 20
98.565926
 30
0.0
 70
    48
  0
VERTEX
  8
0
  5
1CE
 10
130.167633
 20
99.037605
 30
0.0
 70
    48
  0
VERTEX
  8
0
  5
1CF
 10
130.167633
 20
99.037605
 30
0.0
 70
    48
  0
VERTEX
  8
0
  5
1D0
 10
130.043457
 20
99.513069
 30
0.0
 70
    40
  0
VERTEX
  8
0
  5
1D1
 10
130.167633
 20
99.037605
 30
0.0
 70
    48
  0
VERTEX
  8
0
  5
1D2
 10
130.043457
 20
99.513069
 30
0.0
 70
    48
  0
VERTEX
  8
0
  5
1D3
 10
130.043457
 20
99.513069
 30
0.0
 70
    48
  0
VERTEX
  8
0
  5
1D4
 10
129.945953
 20
99.965858
 30
0.0
 70
    40
  0
VERTEX
  8
0
  5
1D5
 10
130.043457
 20
99.513069
 30
0.0
 70
    48
  0
VERTEX
  8
0
  5
1D6
 10
129.945953
 20
99.965858
 30
0.0
 70
    48
  0
VERTEX
  8
0
  5
1D7
 10
129.945953
 20
99.965858
 30
0.0
 70
    48
  0
VERTEX
  8
0
  5
1D8
 10
129.934509
 20
100.026741
 30
0.0
 70
    40
  0
VERTEX
  8
0
  5
1D9
 10
129.945953
 20
99.965858
 30
0.0
 70
    48
  0
VERTEX
  8
0
  5
1DA
 10
129.934509
 20
100.026741
 30
0.0
 70
    48
  0
VERTEX
  8
0
  5
1DB
 10
129.934509
 20
100.026741
 30
0.0
 70
    48
  0
SEQEND
  8
0
  5
1DC
  0
ARC
  8
ARMATUR
  6
DURCHGEHEND
 62
     1
  5
1DD
 10
119.5634
 20
92.767601
 30
0.0
 40
0.174995
 50
128.998993
 51
180.001999
  0
ARC
  8
ARMATUR
  6
DURCHGEHEND
 62
     1
  5
1DE
 10
134.213394
 20
92.767601
 30
0.0
 40
0.175003
 50
0.0
 51
51.002991
  0
LINE
  8
ARMATUR
  6
DURCHGEHEND
 62
     1
  5
1DF
 10
125.451797
 20
100.026268
 30
0.0
 11
128.325043
 21
100.026268
 31
0.0
  0
POLYLINE
  8
ARMATUR
  6
DURCHGEHEND
 62
     1
  5
1E0
 66
     1
 10
0.0
 20
0.0
 30
0.0
 70
    12
 75
     5
  0
VERTEX
  8
0
  5
1E1
 10
130.638428
 20
92.767601
 30
0.0
 70
    48
  0
VERTEX
  8
0
  5
1E2
 10
130.638428
 20
92.767601
 30
0.0
 70
    40
  0
VERTEX
  8
0
  5
1E3
 10
130.077423
 20
92.508507
 30
0.0
 70
    40
  0
VERTEX
  8
0
  5
1E4
 10
130.638428
 20
92.767601
 30
0.0
 70
    48
  0
VERTEX
  8
0
  5
1E5
 10
130.077423
 20
92.508507
 30
0.0
 70
    48
  0
VERTEX
  8
0
  5
1E6
 10
130.077423
 20
92.508507
 30
0.0
 70
    48
  0
VERTEX
  8
0
  5
1E7
 10
129.47525
 20
92.29792
 30
0.0
 70
    40
  0
VERTEX
  8
0
  5
1E8
 10
130.077423
 20
92.508507
 30
0.0
 70
    48
  0
VERTEX
  8
0
  5
1E9
 10
129.47525
 20
92.29792
 30
0.0
 70
    48
  0
VERTEX
  8
0
  5
1EA
 10
129.47525
 20
92.29792
 30
0.0
 70
    48
  0
VERTEX
  8
0
  5
1EB
 10
128.842407
 20
92.136726
 30
0.0
 70
    40
  0
VERTEX
  8
0
  5
1EC
 10
129.47525
 20
92.29792
 30
0.0
 70
    48
  0
VERTEX
  8
0
  5
1ED
 10
128.842407
 20
92.136726
 30
0.0
 70
    48
  0
VERTEX
  8
0
  5
1EE
 10
128.842407
 20
92.136726
 30
0.0
 70
    48
  0
VERTEX
  8
0
  5
1EF
 10
128.183594
 20
92.023994
 30
0.0
 70
    40
  0
VERTEX
  8
0
  5
1F0
 10
128.842407
 20
92.136726
 30
0.0
 70
    48
  0
VERTEX
  8
0
  5
1F1
 10
128.183594
 20
92.023994
 30
0.0
 70
    48
  0
VERTEX
  8
0
  5
1F2
 10
128.183594
 20
92.023994
 30
0.0
 70
    48
  0
VERTEX
  8
0
  5
1F3
 10
127.506027
 20
91.958275
 30
0.0
 70
    40
  0
VERTEX
  8
0
  5
1F4
 10
128.183594
 20
92.023994
 30
0.0
 70
    48
  0
VERTEX
  8
0
  5
1F5
 10
127.506027
 20
91.958275
 30
0.0
 70
    48
  0
VERTEX
  8
0
  5
1F6
 10
127.506027
 20
91.958275
 30
0.0
 70
    48
  0
VERTEX
  8
0
  5
1F7
 10
126.822693
 20
91.939369
 30
0.0
 70
    40
  0
VERTEX
  8
0
  5
1F8
 10
127.506027
 20
91.958275
 30
0.0
 70
    48
  0
VERTEX
  8
0
  5
1F9
 10
126.822693
 20
91.939369
 30
0.0
 70
    48
  0
VERTEX
  8
0
  5
1FA
 10
126.822693
 20
91.939369
 30
0.0
 70
    48
  0
VERTEX
  8
0
  5
1FB
 10
126.147644
 20
91.966652
 30
0.0
 70
    40
  0
VERTEX
  8
0
  5
1FC
 10
126.822693
 20
91.939369
 30
0.0
 70
    48
  0
VERTEX
  8
0
  5
1FD
 10
126.147644
 20
91.966652
 30
0.0
 70
    48
  0
VERTEX
  8
0
  5
1FE
 10
126.147644
 20
91.966652
 30
0.0
 70
    48
  0
VERTEX
  8
0
  5
1FF
 10
125.479797
 20
92.039833
 30
0.0
 70
    40
  0
VERTEX
  8
0
  5
200
 10
126.147644
 20
91.966652
 30
0.0
 70
    48
  0
VERTEX
  8
0
  5
201
 10
125.479797
 20
92.039833
 30
0.0
 70
    48
  0
VERTEX
  8
0
  5
202
 10
125.479797
 20
92.039833
 30
0.0
 70
    48
  0
VERTEX
  8
0
  5
203
 10
124.831711
 20
92.159111
 30
0.0
 70
    40
  0
VERTEX
  8
0
  5
204
 10
125.479797
 20
92.039833
 30
0.0
 70
    48
  0
VERTEX
  8
0
  5
205
 10
124.831711
 20
92.159111
 30
0.0
 70
    48
  0
VERTEX
  8
0
  5
206
 10
124.831711
 20
92.159111
 30
0.0
 70
    48
  0
VERTEX
  8
0
  5
207
 10
124.235992
 20
92.317848
 30
0.0
 70
    40
  0
VERTEX
  8
0
  5
208
 10
124.831711
 20
92.159111
 30
0.0
 70
    48
  0
VERTEX
  8
0
  5
209
 10
124.235992
 20
92.317848
 30
0.0
 70
    48
  0
VERTEX
  8
0
  5
20A
 10
124.235992
 20
92.317848
 30
0.0
 70
    48
  0
VERTEX
  8
0
  5
20B
 10
123.66861
 20
92.520943
 30
0.0
 70
    40
  0
VERTEX
  8
0
  5
20C
 10
124.235992
 20
92.317848
 30
0.0
 70
    48
  0
VERTEX
  8
0
  5
20D
 10
123.66861
 20
92.520943
 30
0.0
 70
    48
  0
VERTEX
  8
0
  5
20E
 10
123.66861
 20
92.520943
 30
0.0
 70
    48
  0
VERTEX
  8
0
  5
20F
 10
123.138412
 20
92.767601
 30
0.0
 70
    40
  0
VERTEX
  8
0
  5
210
 10
123.66861
 20
92.520943
 30
0.0
 70
    48
  0
VERTEX
  8
0
  5
211
 10
123.138412
 20
92.767601
 30
0.0
 70
    48
  0
VERTEX
  8
0
  5
212
 10
123.138412
 20
92.767601
 30
0.0
 70
    48
  0
SEQEND
  8
0
  5
213
  0
LINE
  8
ARMATUR
  6
DURCHGEHEND
 62
     1
  5
214
 10
134.263443
 20
90.026276
 30
0.0
 11
119.513405
 21
90.026276
 31
0.0
  0
POLYLINE
  8
ARMATUR
  6
DURCHGEHEND
 62
     1
  5
215
 66
     1
 10
0.0
 20
0.0
 30
0.0
 70
    12
 75
     5
  0
VERTEX
  8
0
  5
216
 10
134.388412
 20
92.767601
 30
0.0
 70
    48
  0
VERTEX
  8
0
  5
217
 10
134.388412
 20
92.767601
 30
0.0
 70
    40
  0
VERTEX
  8
0
  5
218
 10
134.361191
 20
92.508507
 30
0.0
 70
    40
  0
VERTEX
  8
0
  5
219
 10
134.388412
 20
92.767601
 30
0.0
 70
    48
  0
VERTEX
  8
0
  5
21A
 10
134.361191
 20
92.508507
 30
0.0
 70
    48
  0
VERTEX
  8
0
  5
21B
 10
134.361191
 20
92.508507
 30
0.0
 70
    48
  0
VERTEX
  8
0
  5
21C
 10
134.277939
 20
92.29792
 30
0.0
 70
    40
  0
VERTEX
  8
0
  5
21D
 10
134.361191
 20
92.508507
 30
0.0
 70
    48
  0
VERTEX
  8
0
  5
21E
 10
134.277939
 20
92.29792
 30
0.0
 70
    48
  0
VERTEX
  8
0
  5
21F
 10
134.277939
 20
92.29792
 30
0.0
 70
    48
  0
VERTEX
  8
0
  5
220
 10
134.136276
 20
92.136726
 30
0.0
 70
    40
  0
VERTEX
  8
0
  5
221
 10
134.277939
 20
92.29792
 30
0.0
 70
    48
  0
VERTEX
  8
0
  5
222
 10
134.136276
 20
92.136726
 30
0.0
 70
    48
  0
VERTEX
  8
0
  5
223
 10
134.136276
 20
92.136726
 30
0.0
 70
    48
  0
VERTEX
  8
0
  5
224
 10
133.933121
 20
92.023994
 30
0.0
 70
    40
  0
VERTEX
  8
0
  5
225
 10
134.136276
 20
92.136726
 30
0.0
 70
    48
  0
VERTEX
  8
0
  5
226
 10
133.933121
 20
92.023994
 30
0.0
 70
    48
  0
VERTEX
  8
0
  5
227
 10
133.933121
 20
92.023994
 30
0.0
 70
    48
  0
VERTEX
  8
0
  5
228
 10
133.669846
 20
91.958275
 30
0.0
 70
    40
  0
VERTEX
  8
0
  5
229
 10
133.933121
 20
92.023994
 30
0.0
 70
    48
  0
VERTEX
  8
0
  5
22A
 10
133.669846
 20
91.958275
 30
0.0
 70
    48
  0
VERTEX
  8
0
  5
22B
 10
133.669846
 20
91.958275
 30
0.0
 70
    48
  0
VERTEX
  8
0
  5
22C
 10
133.350479
 20
91.939369
 30
0.0
 70
    40
  0
VERTEX
  8
0
  5
22D
 10
133.669846
 20
91.958275
 30
0.0
 70
    48
  0
VERTEX
  8
0
  5
22E
 10
133.350479
 20
91.939369
 30
0.0
 70
    48
  0
VERTEX
  8
0
  5
22F
 10
133.350479
 20
91.939369
 30
0.0
 70
    48
  0
VERTEX
  8
0
  5
230
 10
132.981003
 20
91.966652
 30
0.0
 70
    40
  0
VERTEX
  8
0
  5
231
 10
133.350479
 20
91.939369
 30
0.0
 70
    48
  0
VERTEX
  8
0
  5
232
 10
132.981003
 20
91.966652
 30
0.0
 70
    48
  0
VERTEX
  8
0
  5
233
 10
132.981003
 20
91.966652
 30
0.0
 70
    48
  0
VERTEX
  8
0
  5
234
 10
132.563248
 20
92.039833
 30
0.0
 70
    40
  0
VERTEX
  8
0
  5
235
 10
132.981003
 20
91.966652
 30
0.0
 70
    48
  0
VERTEX
  8
0
  5
236
 10
132.563248
 20
92.039833
 30
0.0
 70
    48
  0
VERTEX
  8
0
  5
237
 10
132.563248
 20
92.039833
 30
0.0
 70
    48
  0
VERTEX
  8
0
  5
238
 10
132.106247
 20
92.159111
 30
0.0
 70
    40
  0
VERTEX
  8
0
  5
239
 10
132.563248
 20
92.039833
 30
0.0
 70
    48
  0
VERTEX
  8
0
  5
23A
 10
132.106247
 20
92.159111
 30
0.0
 70
    48
  0
VERTEX
  8
0
  5
23B
 10
132.106247
 20
92.159111
 30
0.0
 70
    48
  0
VERTEX
  8
0
  5
23C
 10
131.637268
 20
92.317848
 30
0.0
 70
    40
  0
VERTEX
  8
0
  5
23D
 10
132.106247
 20
92.159111
 30
0.0
 70
    48
  0
VERTEX
  8
0
  5
23E
 10
131.637268
 20
92.317848
 30
0.0
 70
    48
  0
VERTEX
  8
0
  5
23F
 10
131.637268
 20
92.317848
 30
0.0
 70
    48
  0
VERTEX
  8
0
  5
240
 10
131.144287
 20
92.520943
 30
0.0
 70
    40
  0
VERTEX
  8
0
  5
241
 10
131.637268
 20
92.317848
 30
0.0
 70
    48
  0
VERTEX
  8
0
  5
242
 10
131.144287
 20
92.520943
 30
0.0
 70
    48
  0
VERTEX
  8
0
  5
243
 10
131.144287
 20
92.520943
 30
0.0
 70
    48
  0
VERTEX
  8
0
  5
244
 10
130.638428
 20
92.767601
 30
0.0
 70
    40
  0
VERTEX
  8
0
  5
245
 10
131.144287
 20
92.520943
 30
0.0
 70
    48
  0
VERTEX
  8
0
  5
246
 10
130.638428
 20
92.767601
 30
0.0
 70
    48
  0
VERTEX
  8
0
  5
247
 10
130.638428
 20
92.767601
 30
0.0
 70
    48
  0
SEQEND
  8
0
  5
248
  0
POLYLINE
  8
ARMATUR
  6
DURCHGEHEND
 62
     1
  5
249
 66
     1
 10
0.0
 20
0.0
 30
0.0
 70
    12
 75
     5
  0
VERTEX
  8
0
  5
24A
 10
123.138412
 20
92.767601
 30
0.0
 70
    48
  0
VERTEX
  8
0
  5
24B
 10
123.138412
 20
92.767601
 30
0.0
 70
    40
  0
VERTEX
  8
0
  5
24C
 10
122.604645
 20
92.508507
 30
0.0
 70
    40
  0
VERTEX
  8
0
  5
24D
 10
123.138412
 20
92.767601
 30
0.0
 70
    48
  0
VERTEX
  8
0
  5
24E
 10
122.604645
 20
92.508507
 30
0.0
 70
    48
  0
VERTEX
  8
0
  5
24F
 10
122.604645
 20
92.508507
 30
0.0
 70
    48
  0
VERTEX
  8
0
  5
250
 10
122.085709
 20
92.29792
 30
0.0
 70
    40
  0
VERTEX
  8
0
  5
251
 10
122.604645
 20
92.508507
 30
0.0
 70
    48
  0
VERTEX
  8
0
  5
252
 10
122.085709
 20
92.29792
 30
0.0
 70
    48
  0
VERTEX
  8
0
  5
253
 10
122.085709
 20
92.29792
 30
0.0
 70
    48
  0
VERTEX
  8
0
  5
254
 10
121.594528
 20
92.136726
 30
0.0
 70
    40
  0
VERTEX
  8
0
  5
255
 10
122.085709
 20
92.29792
 30
0.0
 70
    48
  0
VERTEX
  8
0
  5
256
 10
121.594528
 20
92.136726
 30
0.0
 70
    48
  0
VERTEX
  8
0
  5
257
 10
121.594528
 20
92.136726
 30
0.0
 70
    48
  0
VERTEX
  8
0
  5
258
 10
121.138885
 20
92.023994
 30
0.0
 70
    40
  0
VERTEX
  8
0
  5
259
 10
121.594528
 20
92.136726
 30
0.0
 70
    48
  0
VERTEX
  8
0
  5
25A
 10
121.138885
 20
92.023994
 30
0.0
 70
    48
  0
VERTEX
  8
0
  5
25B
 10
121.138885
 20
92.023994
 30
0.0
 70
    48
  0
VERTEX
  8
0
  5
25C
 10
120.724564
 20
91.958275
 30
0.0
 70
    40
  0
VERTEX
  8
0
  5
25D
 10
121.138885
 20
92.023994
 30
0.0
 70
    48
  0
VERTEX
  8
0
  5
25E
 10
120.724564
 20
91.958275
 30
0.0
 70
    48
  0
VERTEX
  8
0
  5
25F
 10
120.724564
 20
91.958275
 30
0.0
 70
    48
  0
VERTEX
  8
0
  5
260
 10
120.360611
 20
91.939369
 30
0.0
 70
    40
  0
VERTEX
  8
0
  5
261
 10
120.724564
 20
91.958275
 30
0.0
 70
    48
  0
VERTEX
  8
0
  5
262
 10
120.360611
 20
91.939369
 30
0.0
 70
    48
  0
VERTEX
  8
0
  5
263
 10
120.360611
 20
91.939369
 30
0.0
 70
    48
  0
VERTEX
  8
0
  5
264
 10
120.055054
 20
91.966652
 30
0.0
 70
    40
  0
VERTEX
  8
0
  5
265
 10
120.360611
 20
91.939369
 30
0.0
 70
    48
  0
VERTEX
  8
0
  5
266
 10
120.055054
 20
91.966652
 30
0.0
 70
    48
  0
VERTEX
  8
0
  5
267
 10
120.055054
 20
91.966652
 30
0.0
 70
    48
  0
VERTEX
  8
0
  5
268
 10
119.804962
 20
92.039833
 30
0.0
 70
    40
  0
VERTEX
  8
0
  5
269
 10
120.055054
 20
91.966652
 30
0.0
 70
    48
  0
VERTEX
  8
0
  5
26A
 10
119.804962
 20
92.039833
 30
0.0
 70
    48
  0
VERTEX
  8
0
  5
26B
 10
119.804962
 20
92.039833
 30
0.0
 70
    48
  0
VERTEX
  8
0
  5
26C
 10
119.613861
 20
92.159111
 30
0.0
 70
    40
  0
VERTEX
  8
0
  5
26D
 10
119.804962
 20
92.039833
 30
0.0
 70
    48
  0
VERTEX
  8
0
  5
26E
 10
119.613861
 20
92.159111
 30
0.0
 70
    48
  0
VERTEX
  8
0
  5
26F
 10
119.613861
 20
92.159111
 30
0.0
 70
    48
  0
VERTEX
  8
0
  5
270
 10
119.487152
 20
92.317848
 30
0.0
 70
    40
  0
VERTEX
  8
0
  5
271
 10
119.613861
 20
92.159111
 30
0.0
 70
    48
  0
VERTEX
  8
0
  5
272
 10
119.487152
 20
92.317848
 30
0.0
 70
    48
  0
VERTEX
  8
0
  5
273
 10
119.487152
 20
92.317848
 30
0.0
 70
    48
  0
VERTEX
  8
0
  5
274
 10
119.41272
 20
92.520943
 30
0.0
 70
    40
  0
VERTEX
  8
0
  5
275
 10
119.487152
 20
92.317848
 30
0.0
 70
    48
  0
VERTEX
  8
0
  5
276
 10
119.41272
 20
92.520943
 30
0.0
 70
    48
  0
VERTEX
  8
0
  5
277
 10
119.41272
 20
92.520943
 30
0.0
 70
    48
  0
VERTEX
  8
0
  5
278
 10
119.388412
 20
92.767601
 30
0.0
 70
    40
  0
VERTEX
  8
0
  5
279
 10
119.41272
 20
92.520943
 30
0.0
 70
    48
  0
VERTEX
  8
0
  5
27A
 10
119.388412
 20
92.767601
 30
0.0
 70
    48
  0
VERTEX
  8
0
  5
27B
 10
119.388412
 20
92.767601
 30
0.0
 70
    48
  0
SEQEND
  8
0
  5
27C
  0
POLYLINE
  8
ARMATUR
  6
DURCHGEHEND
 62
     1
  5
27D
 66
     1
 10
0.0
 20
0.0
 30
0.0
 70
    12
 75
     5
  0
VERTEX
  8
0
  5
27E
 10
119.388412
 20
92.767601
 30
0.0
 70
    48
  0
VERTEX
  8
0
  5
27F
 10
119.388412
 20
92.767601
 30
0.0
 70
    40
  0
VERTEX
  8
0
  5
280
 10
119.389603
 20
92.78614
 30
0.0
 70
    40
  0
VERTEX
  8
0
  5
281
 10
119.388412
 20
92.767601
 30
0.0
 70
    48
  0
VERTEX
  8
0
  5
282
 10
119.389603
 20
92.78614
 30
0.0
 70
    48
  0
VERTEX
  8
0
  5
283
 10
119.389603
 20
92.78614
 30
0.0
 70
    48
  0
VERTEX
  8
0
  5
284
 10
119.393188
 20
92.804436
 30
0.0
 70
    40
  0
VERTEX
  8
0
  5
285
 10
119.389603
 20
92.78614
 30
0.0
 70
    48
  0
VERTEX
  8
0
  5
286
 10
119.393188
 20
92.804436
 30
0.0
 70
    48
  0
VERTEX
  8
0
  5
287
 10
119.393188
 20
92.804436
 30
0.0
 70
    48
  0
VERTEX
  8
0
  5
288
 10
119.399124
 20
92.822212
 30
0.0
 70
    40
  0
VERTEX
  8
0
  5
289
 10
119.393188
 20
92.804436
 30
0.0
 70
    48
  0
VERTEX
  8
0
  5
28A
 10
119.399124
 20
92.822212
 30
0.0
 70
    48
  0
VERTEX
  8
0
  5
28B
 10
119.399124
 20
92.822212
 30
0.0
 70
    48
  0
VERTEX
  8
0
  5
28C
 10
119.407303
 20
92.839241
 30
0.0
 70
    40
  0
VERTEX
  8
0
  5
28D
 10
119.399124
 20
92.822212
 30
0.0
 70
    48
  0
VERTEX
  8
0
  5
28E
 10
119.407303
 20
92.839241
 30
0.0
 70
    48
  0
VERTEX
  8
0
  5
28F
 10
119.407303
 20
92.839241
 30
0.0
 70
    48
  0
VERTEX
  8
0
  5
290
 10
119.417618
 20
92.855293
 30
0.0
 70
    40
  0
VERTEX
  8
0
  5
291
 10
119.407303
 20
92.839241
 30
0.0
 70
    48
  0
VERTEX
  8
0
  5
292
 10
119.417618
 20
92.855293
 30
0.0
 70
    48
  0
VERTEX
  8
0
  5
293
 10
119.417618
 20
92.855293
 30
0.0
 70
    48
  0
VERTEX
  8
0
  5
294
 10
119.429947
 20
92.87014
 30
0.0
 70
    40
  0
VERTEX
  8
0
  5
295
 10
119.417618
 20
92.855293
 30
0.0
 70
    48
  0
VERTEX
  8
0
  5
296
 10
119.429947
 20
92.87014
 30
0.0
 70
    48
  0
VERTEX
  8
0
  5
297
 10
119.429947
 20
92.87014
 30
0.0
 70
    48
  0
VERTEX
  8
0
  5
298
 10
119.444107
 20
92.883583
 30
0.0
 70
    40
  0
VERTEX
  8
0
  5
299
 10
119.429947
 20
92.87014
 30
0.0
 70
    48
  0
VERTEX
  8
0
  5
29A
 10
119.444107
 20
92.883583
 30
0.0
 70
    48
  0
VERTEX
  8
0
  5
29B
 10
119.444107
 20
92.883583
 30
0.0
 70
    48
  0
VERTEX
  8
0
  5
29C
 10
119.4599
 20
92.895424
 30
0.0
 70
    40
  0
VERTEX
  8
0
  5
29D
 10
119.444107
 20
92.883583
 30
0.0
 70
    48
  0
VERTEX
  8
0
  5
29E
 10
119.4599
 20
92.895424
 30
0.0
 70
    48
  0
VERTEX
  8
0
  5
29F
 10
119.4599
 20
92.895424
 30
0.0
 70
    48
  0
SEQEND
  8
0
  5
2A0
  0
POLYLINE
  8
ARMATUR
  6
DURCHGEHEND
 62
     1
  5
2A1
 66
     1
 10
0.0
 20
0.0
 30
0.0
 70
    12
 75
     5
  0
VERTEX
  8
0
  5
2A2
 10
134.31691
 20
92.895424
 30
0.0
 70
    48
  0
VERTEX
  8
0
  5
2A3
 10
134.31691
 20
92.895424
 30
0.0
 70
    40
  0
VERTEX
  8
0
  5
2A4
 10
134.332687
 20
92.883583
 30
0.0
 70
    40
  0
VERTEX
  8
0
  5
2A5
 10
134.31691
 20
92.895424
 30
0.0
 70
    48
  0
VERTEX
  8
0
  5
2A6
 10
134.332687
 20
92.883583
 30
0.0
 70
    48
  0
VERTEX
  8
0
  5
2A7
 10
134.332687
 20
92.883583
 30
0.0
 70
    48
  0
VERTEX
  8
0
  5
2A8
 10
134.346848
 20
92.87014
 30
0.0
 70
    40
  0
VERTEX
  8
0
  5
2A9
 10
134.332687
 20
92.883583
 30
0.0
 70
    48
  0
VERTEX
  8
0
  5
2AA
 10
134.346848
 20
92.87014
 30
0.0
 70
    48
  0
VERTEX
  8
0
  5
2AB
 10
134.346848
 20
92.87014
 30
0.0
 70
    48
  0
VERTEX
  8
0
  5
2AC
 10
134.359177
 20
92.855293
 30
0.0
 70
    40
  0
VERTEX
  8
0
  5
2AD
 10
134.346848
 20
92.87014
 30
0.0
 70
    48
  0
VERTEX
  8
0
  5
2AE
 10
134.359177
 20
92.855293
 30
0.0
 70
    48
  0
VERTEX
  8
0
  5
2AF
 10
134.359177
 20
92.855293
 30
0.0
 70
    48
  0
VERTEX
  8
0
  5
2B0
 10
134.369492
 20
92.839241
 30
0.0
 70
    40
  0
VERTEX
  8
0
  5
2B1
 10
134.359177
 20
92.855293
 30
0.0
 70
    48
  0
VERTEX
  8
0
  5
2B2
 10
134.369492
 20
92.839241
 30
0.0
 70
    48
  0
VERTEX
  8
0
  5
2B3
 10
134.369492
 20
92.839241
 30
0.0
 70
    48
  0
VERTEX
  8
0
  5
2B4
 10
134.377701
 20
92.822212
 30
0.0
 70
    40
  0
VERTEX
  8
0
  5
2B5
 10
134.369492
 20
92.839241
 30
0.0
 70
    48
  0
VERTEX
  8
0
  5
2B6
 10
134.377701
 20
92.822212
 30
0.0
 70
    48
  0
VERTEX
  8
0
  5
2B7
 10
134.377701
 20
92.822212
 30
0.0
 70
    48
  0
VERTEX
  8
0
  5
2B8
 10
134.383621
 20
92.804436
 30
0.0
 70
    40
  0
VERTEX
  8
0
  5
2B9
 10
134.377701
 20
92.822212
 30
0.0
 70
    48
  0
VERTEX
  8
0
  5
2BA
 10
134.383621
 20
92.804436
 30
0.0
 70
    48
  0
VERTEX
  8
0
  5
2BB
 10
134.383621
 20
92.804436
 30
0.0
 70
    48
  0
VERTEX
  8
0
  5
2BC
 10
134.387192
 20
92.78614
 30
0.0
 70
    40
  0
VERTEX
  8
0
  5
2BD
 10
134.383621
 20
92.804436
 30
0.0
 70
    48
  0
VERTEX
  8
0
  5
2BE
 10
134.387192
 20
92.78614
 30
0.0
 70
    48
  0
VERTEX
  8
0
  5
2BF
 10
134.387192
 20
92.78614
 30
0.0
 70
    48
  0
VERTEX
  8
0
  5
2C0
 10
134.388412
 20
92.767601
 30
0.0
 70
    40
  0
VERTEX
  8
0
  5
2C1
 10
134.387192
 20
92.78614
 30
0.0
 70
    48
  0
VERTEX
  8
0
  5
2C2
 10
134.388412
 20
92.767601
 30
0.0
 70
    48
  0
VERTEX
  8
0
  5
2C3
 10
134.388412
 20
92.767601
 30
0.0
 70
    48
  0
SEQEND
  8
0
  5
2C4
  0
POLYLINE
  8
ARMATUR
  6
DURCHGEHEND
 62
     1
  5
2C5
 66
     1
 10
0.0
 20
0.0
 30
0.0
 70
    12
 75
     5
  0
VERTEX
  8
0
  5
2C6
 10
123.122406
 20
92.895424
 30
0.0
 70
    48
  0
VERTEX
  8
0
  5
2C7
 10
123.122406
 20
92.895424
 30
0.0
 70
    40
  0
VERTEX
  8
0
  5
2C8
 10
123.426743
 20
93.422371
 30
0.0
 70
    40
  0
VERTEX
  8
0
  5
2C9
 10
123.122406
 20
92.895424
 30
0.0
 70
    48
  0
VERTEX
  8
0
  5
2CA
 10
123.426743
 20
93.422371
 30
0.0
 70
    48
  0
VERTEX
  8
0
  5
2CB
 10
123.426743
 20
93.422371
 30
0.0
 70
    48
  0
VERTEX
  8
0
  5
2CC
 10
123.712463
 20
93.980125
 30
0.0
 70
    40
  0
VERTEX
  8
0
  5
2CD
 10
123.426743
 20
93.422371
 30
0.0
 70
    48
  0
VERTEX
  8
0
  5
2CE
 10
123.712463
 20
93.980125
 30
0.0
 70
    48
  0
VERTEX
  8
0
  5
2CF
 10
123.712463
 20
93.980125
 30
0.0
 70
    48
  0
VERTEX
  8
0
  5
2D0
 10
123.978546
 20
94.566689
 30
0.0
 70
    40
  0
VERTEX
  8
0
  5
2D1
 10
123.712463
 20
93.980125
 30
0.0
 70
    48
  0
VERTEX
  8
0
  5
2D2
 10
123.978546
 20
94.566689
 30
0.0
 70
    48
  0
VERTEX
  8
0
  5
2D3
 10
123.978546
 20
94.566689
 30
0.0
 70
    48
  0
VERTEX
  8
0
  5
2D4
 10
124.224045
 20
95.17997
 30
0.0
 70
    40
  0
VERTEX
  8
0
  5
2D5
 10
123.978546
 20
94.566689
 30
0.0
 70
    48
  0
VERTEX
  8
0
  5
2D6
 10
124.224045
 20
95.17997
 30
0.0
 70
    48
  0
VERTEX
  8
0
  5
2D7
 10
124.224045
 20
95.17997
 30
0.0
 70
    48
  0
VERTEX
  8
0
  5
2D8
 10
124.448074
 20
95.817757
 30
0.0
 70
    40
  0
VERTEX
  8
0
  5
2D9
 10
124.224045
 20
95.17997
 30
0.0
 70
    48
  0
VERTEX
  8
0
  5
2DA
 10
124.448074
 20
95.817757
 30
0.0
 70
    48
  0
VERTEX
  8
0
  5
2DB
 10
124.448074
 20
95.817757
 30
0.0
 70
    48
  0
VERTEX
  8
0
  5
2DC
 10
124.649826
 20
96.47776
 30
0.0
 70
    40
  0
VERTEX
  8
0
  5
2DD
 10
124.448074
 20
95.817757
 30
0.0
 70
    48
  0
VERTEX
  8
0
  5
2DE
 10
124.649826
 20
96.47776
 30
0.0
 70
    48
  0
VERTEX
  8
0
  5
2DF
 10
124.649826
 20
96.47776
 30
0.0
 70
    48
  0
VERTEX
  8
0
  5
2E0
 10
124.828583
 20
97.157631
 30
0.0
 70
    40
  0
VERTEX
  8
0
  5
2E1
 10
124.649826
 20
96.47776
 30
0.0
 70
    48
  0
VERTEX
  8
0
  5
2E2
 10
124.828583
 20
97.157631
 30
0.0
 70
    48
  0
VERTEX
  8
0
  5
2E3
 10
124.828583
 20
97.157631
 30
0.0
 70
    48
  0
VERTEX
  8
0
  5
2E4
 10
124.983719
 20
97.854958
 30
0.0
 70
    40
  0
VERTEX
  8
0
  5
2E5
 10
124.828583
 20
97.157631
 30
0.0
 70
    48
  0
VERTEX
  8
0
  5
2E6
 10
124.983719
 20
97.854958
 30
0.0
 70
    48
  0
VERTEX
  8
0
  5
2E7
 10
124.983719
 20
97.854958
 30
0.0
 70
    48
  0
VERTEX
  8
0
  5
2E8
 10
125.114655
 20
98.567207
 30
0.0
 70
    40
  0
VERTEX
  8
0
  5
2E9
 10
124.983719
 20
97.854958
 30
0.0
 70
    48
  0
VERTEX
  8
0
  5
2EA
 10
125.114655
 20
98.567207
 30
0.0
 70
    48
  0
VERTEX
  8
0
  5
2EB
 10
125.114655
 20
98.567207
 30
0.0
 70
    48
  0
VERTEX
  8
0
  5
2EC
 10
125.220947
 20
99.291847
 30
0.0
 70
    40
  0
VERTEX
  8
0
  5
2ED
 10
125.114655
 20
98.567207
 30
0.0
 70
    48
  0
VERTEX
  8
0
  5
2EE
 10
125.220947
 20
99.291847
 30
0.0
 70
    48
  0
VERTEX
  8
0
  5
2EF
 10
125.220947
 20
99.291847
 30
0.0
 70
    48
  0
VERTEX
  8
0
  5
2F0
 10
125.302185
 20
100.026268
 30
0.0
 70
    40
  0
VERTEX
  8
0
  5
2F1
 10
125.220947
 20
99.291847
 30
0.0
 70
    48
  0
VERTEX
  8
0
  5
2F2
 10
125.302185
 20
100.026268
 30
0.0
 70
    48
  0
VERTEX
  8
0
  5
2F3
 10
125.302185
 20
100.026268
 30
0.0
 70
    48
  0
SEQEND
  8
0
  5
2F4
  0
LINE
  8
ARMATUR
  6
DURCHGEHEND
 62
     1
  5
2F5
 10
125.302185
 20
100.026268
 30
0.0
 11
125.451797
 21
100.026268
 31
0.0
  0
POLYLINE
  8
ARMATUR
  6
DURCHGEHEND
 62
     1
  5
2F6
 66
     1
 10
0.0
 20
0.0
 30
0.0
 70
    12
 75
     5
  0
VERTEX
  8
0
  5
2F7
 10
128.474625
 20
100.026268
 30
0.0
 70
    48
  0
VERTEX
  8
0
  5
2F8
 10
128.474625
 20
100.026268
 30
0.0
 70
    40
  0
VERTEX
  8
0
  5
2F9
 10
128.555878
 20
99.291847
 30
0.0
 70
    40
  0
VERTEX
  8
0
  5
2FA
 10
128.474625
 20
100.026268
 30
0.0
 70
    48
  0
VERTEX
  8
0
  5
2FB
 10
128.555878
 20
99.291847
 30
0.0
 70
    48
  0
VERTEX
  8
0
  5
2FC
 10
128.555878
 20
99.291847
 30
0.0
 70
    48
  0
VERTEX
  8
0
  5
2FD
 10
128.66217
 20
98.567207
 30
0.0
 70
    40
  0
VERTEX
  8
0
  5
2FE
 10
128.555878
 20
99.291847
 30
0.0
 70
    48
  0
VERTEX
  8
0
  5
2FF
 10
128.66217
 20
98.567207
 30
0.0
 70
    48
  0
VERTEX
  8
0
  5
300
 10
128.66217
 20
98.567207
 30
0.0
 70
    48
  0
VERTEX
  8
0
  5
301
 10
128.793091
 20
97.854958
 30
0.0
 70
    40
  0
VERTEX
  8
0
  5
302
 10
128.66217
 20
98.567207
 30
0.0
 70
    48
  0
VERTEX
  8
0
  5
303
 10
128.793091
 20
97.854958
 30
0.0
 70
    48
  0
VERTEX
  8
0
  5
304
 10
128.793091
 20
97.854958
 30
0.0
 70
    48
  0
VERTEX
  8
0
  5
305
 10
128.948242
 20
97.157631
 30
0.0
 70
    40
  0
VERTEX
  8
0
  5
306
 10
128.793091
 20
97.854958
 30
0.0
 70
    48
  0
VERTEX
  8
0
  5
307
 10
128.948242
 20
97.157631
 30
0.0
 70
    48
  0
VERTEX
  8
0
  5
308
 10
128.948242
 20
97.157631
 30
0.0
 70
    48
  0
VERTEX
  8
0
  5
309
 10
129.126984
 20
96.47776
 30
0.0
 70
    40
  0
VERTEX
  8
0
  5
30A
 10
128.948242
 20
97.157631
 30
0.0
 70
    48
  0
VERTEX
  8
0
  5
30B
 10
129.126984
 20
96.47776
 30
0.0
 70
    48
  0
VERTEX
  8
0
  5
30C
 10
129.126984
 20
96.47776
 30
0.0
 70
    48
  0
VERTEX
  8
0
  5
30D
 10
129.328766
 20
95.817757
 30
0.0
 70
    40
  0
VERTEX
  8
0
  5
30E
 10
129.126984
 20
96.47776
 30
0.0
 70
    48
  0
VERTEX
  8
0
  5
30F
 10
129.328766
 20
95.817757
 30
0.0
 70
    48
  0
VERTEX
  8
0
  5
310
 10
129.328766
 20
95.817757
 30
0.0
 70
    48
  0
VERTEX
  8
0
  5
311
 10
129.552765
 20
95.17997
 30
0.0
 70
    40
  0
VERTEX
  8
0
  5
312
 10
129.328766
 20
95.817757
 30
0.0
 70
    48
  0
VERTEX
  8
0
  5
313
 10
129.552765
 20
95.17997
 30
0.0
 70
    48
  0
VERTEX
  8
0
  5
314
 10
129.552765
 20
95.17997
 30
0.0
 70
    48
  0
VERTEX
  8
0
  5
315
 10
129.798279
 20
94.566689
 30
0.0
 70
    40
  0
VERTEX
  8
0
  5
316
 10
129.552765
 20
95.17997
 30
0.0
 70
    48
  0
VERTEX
  8
0
  5
317
 10
129.798279
 20
94.566689
 30
0.0
 70
    48
  0
VERTEX
  8
0
  5
318
 10
129.798279
 20
94.566689
 30
0.0
 70
    48
  0
VERTEX
  8
0
  5
319
 10
130.064362
 20
93.980125
 30
0.0
 70
    40
  0
VERTEX
  8
0
  5
31A
 10
129.798279
 20
94.566689
 30
0.0
 70
    48
  0
VERTEX
  8
0
  5
31B
 10
130.064362
 20
93.980125
 30
0.0
 70
    48
  0
VERTEX
  8
0
  5
31C
 10
130.064362
 20
93.980125
 30
0.0
 70
    48
  0
VERTEX
  8
0
  5
31D
 10
130.350098
 20
93.422371
 30
0.0
 70
    40
  0
VERTEX
  8
0
  5
31E
 10
130.064362
 20
93.980125
 30
0.0
 70
    48
  0
VERTEX
  8
0
  5
31F
 10
130.350098
 20
93.422371
 30
0.0
 70
    48
  0
VERTEX
  8
0
  5
320
 10
130.350098
 20
93.422371
 30
0.0
 70
    48
  0
VERTEX
  8
0
  5
321
 10
130.654419
 20
92.895424
 30
0.0
 70
    40
  0
VERTEX
  8
0
  5
322
 10
130.350098
 20
93.422371
 30
0.0
 70
    48
  0
VERTEX
  8
0
  5
323
 10
130.654419
 20
92.895424
 30
0.0
 70
    48
  0
VERTEX
  8
0
  5
324
 10
130.654419
 20
92.895424
 30
0.0
 70
    48
  0
SEQEND
  8
0
  5
325
  0
LINE
  8
ARMATUR
  6
DURCHGEHEND
 62
     1
  5
326
 10
128.325043
 20
100.026268
 30
0.0
 11
128.47464
 21
100.026268
 31
0.0
  0
LINE
  8
ARMATUR
  6
DURCHGEHEND
 62
     1
  5
327
 10
123.86557
 20
100.026268
 30
0.0
 11
125.302185
 21
100.026268
 31
0.0
  0
LINE
  8
ARMATUR
  6
DURCHGEHEND
 62
     1
  5
328
 10
129.911255
 20
100.026268
 30
0.0
 11
128.47464
 21
100.026268
 31
0.0
  0
LINE
  8
ARMATUR
  6
DURCHGEHEND
 62
     1
  5
329
 10
119.4599
 20
92.895424
 30
0.0
 11
119.453278
 21
92.903603
 31
0.0
  0
LINE
  8
ARMATUR
  6
DURCHGEHEND
 62
     1
  5
32A
 10
123.86557
 20
100.026268
 30
0.0
 11
123.84436
 21
100.026268
 31
0.0
  0
LINE
  8
ARMATUR
  6
DURCHGEHEND
 62
     1
  5
32B
 10
134.323532
 20
92.903603
 30
0.0
 11
134.31691
 21
92.895424
 31
0.0
  0
LINE
  8
ARMATUR
  6
DURCHGEHEND
 62
     1
  5
32C
 10
129.911255
 20
100.026268
 30
0.0
 11
129.932007
 21
100.026268
 31
0.0
  0
LINE
  8
ACHSEN
  6
STRICHPUNKTIERT
 62
     4
  5
32D
 10
128.313522
 20
103.960442
 30
0.0
 11
148.499847
 21
103.960442
 31
0.0
  0
LINE
  8
ACHSEN
  6
STRICHPUNKTIERT
 62
     4
  5
32E
 10
126.89682
 20
107.052887
 30
0.0
 11
126.89682
 21
88.844902
 31
0.0
  0
TEXT
  8
TEXT
  5
32F
 10
134.249084
 20
118.292885
 30
0.0
 40
7.055555
  1
60
  0
LINE
  8
BEMASSUNG
  6
DURCHGEHEND
 62
     3
  5
330
 10
130.743118
 20
107.674507
 30
0.0
 11
130.743118
 21
118.072815
 31
0.0
  0
LINE
  8
BEMASSUNG
  6
DURCHGEHEND
 62
     3
  5
331
 10
145.788345
 20
108.596802
 30
0.0
 11
145.788345
 21
118.059982
 31
0.0
  0
LINE
  8
BEMASSUNG
  6
DURCHGEHEND
 62
     3
  5
332
 10
129.850159
 20
117.105515
 30
0.0
 11
147.095581
 21
117.105515
 31
0.0
  0
LINE
  8
BEMASSUNG
  6
DURCHGEHEND
 62
     3
  5
333
 10
131.803436
 20
118.28157
 30
0.0
 11
129.629547
 21
115.835419
 31
0.0
  0
LINE
  8
BEMASSUNG
  6
DURCHGEHEND
 62
     3
  5
334
 10
146.895309
 20
118.249069
 30
0.0
 11
144.72142
 21
115.802917
 31
0.0
  0
ENDSEC
  0
EOF
