  0
SECTION
  2
HEADER
  9
$ACADVER
  1
AC1015
  9
$ACADMAINTVER
 70
     6
  9
$DWGCODEPAGE
  3
ANSI_1252
  9
$INSBASE
 10
0.0
 20
0.0
 30
0.0
  9
$EXTMIN
 10
42.798573
 20
3.481307
 30
0.0
  9
$EXTMAX
 10
294.17984
 20
192.147476
 30
0.0
  9
$LIMMIN
 10
0.0
 20
0.0
  9
$LIMMAX
 10
0.0
 20
0.0
  9
$ORTHOMODE
 70
     0
  9
$REGENMODE
 70
     1
  9
$FILLMODE
 70
     1
  9
$QTEXTMODE
 70
     0
  9
$MIRRTEXT
 70
     1
  9
$LTSCALE
 40
1.0
  9
$ATTMODE
 70
     1
  9
$TEXTSIZE
 40
0.2
  9
$TRACEWID
 40
0.05
  9
$TEXTSTYLE
  7
Standard
  9
$CLAYER
  8
0
  9
$CELTYPE
  6
Continuous
  9
$CECOLOR
 62
   256
  9
$CELTSCALE
 40
1.0
  9
$DISPSILH
 70
     0
  9
$DIMSCALE
 40
1.0
  9
$DIMASZ
 40
0.18
  9
$DIMEXO
 40
0.0625
  9
$DIMDLI
 40
0.38
  9
$DIMRND
 40
0.0
  9
$DIMDLE
 40
0.0
  9
$DIMEXE
 40
0.18
  9
$DIMTP
 40
0.0
  9
$DIMTM
 40
0.0
  9
$DIMTXT
 40
0.18
  9
$DIMCEN
 40
0.09
  9
$DIMTSZ
 40
0.0
  9
$DIMTOL
 70
     0
  9
$DIMLIM
 70
     0
  9
$DIMTIH
 70
     1
  9
$DIMTOH
 70
     1
  9
$DIMSE1
 70
     0
  9
$DIMSE2
 70
     0
  9
$DIMTAD
 70
     0
  9
$DIMZIN
 70
     0
  9
$DIMBLK
  1

  9
$DIMASO
 70
     1
  9
$DIMSHO
 70
     1
  9
$DIMPOST
  1

  9
$DIMAPOST
  1

  9
$DIMALT
 70
     0
  9
$DIMALTD
 70
     2
  9
$DIMALTF
 40
25.4
  9
$DIMLFAC
 40
1.0
  9
$DIMTOFL
 70
     0
  9
$DIMTVP
 40
0.0
  9
$DIMTIX
 70
     0
  9
$DIMSOXD
 70
     0
  9
$DIMSAH
 70
     0
  9
$DIMBLK1
  1

  9
$DIMBLK2
  1

  9
$DIMSTYLE
  2
Standard
  9
$DIMCLRD
 70
     0
  9
$DIMCLRE
 70
     0
  9
$DIMCLRT
 70
     0
  9
$DIMTFAC
 40
1.0
  9
$DIMGAP
 40
0.09
  9
$DIMJUST
 70
     0
  9
$DIMSD1
 70
     0
  9
$DIMSD2
 70
     0
  9
$DIMTOLJ
 70
     1
  9
$DIMTZIN
 70
     0
  9
$DIMALTZ
 70
     0
  9
$DIMALTTZ
 70
     0
  9
$DIMUPT
 70
     0
  9
$DIMDEC
 70
     4
  9
$DIMTDEC
 70
     4
  9
$DIMALTU
 70
     2
  9
$DIMALTTD
 70
     2
  9
$DIMTXSTY
  7
Standard
  9
$DIMAUNIT
 70
     0
  9
$DIMADEC
 70
     0
  9
$DIMALTRND
 40
0.0
  9
$DIMAZIN
 70
     0
  9
$DIMDSEP
 70
     0
  9
$DIMATFIT
 70
     3
  9
$DIMFRAC
 70
     0
  9
$DIMLDRBLK
  1

  9
$DIMLUNIT
 70
     2
  9
$DIMLWD
 70
     0
  9
$DIMLWE
 70
     0
  9
$DIMTMOVE
 70
     0
  9
$LUNITS
 70
     2
  9
$LUPREC
 70
     4
  9
$SKETCHINC
 40
0.1
  9
$FILLETRAD
 40
0.0
  9
$AUNITS
 70
     0
  9
$AUPREC
 70
     0
  9
$MENU
  1
acad
  9
$ELEVATION
 40
0.0
  9
$PELEVATION
 40
0.0
  9
$THICKNESS
 40
0.0
  9
$LIMCHECK
 70
     0
  9
$CHAMFERA
 40
0.0
  9
$CHAMFERB
 40
0.0
  9
$CHAMFERC
 40
0.0
  9
$CHAMFERD
 40
0.0
  9
$SKPOLY
 70
     0
  9
$TDCREATE
 40
0.000000000
  9
$TDUCREATE
 40
0.000000000
  9
$TDUPDATE
 40
0.000000000
  9
$TDUUPDATE
 40
0.000000000
  9
$TDINDWG
 40
0.0000000000
  9
$TDUSRTIMER
 40
0.0000000000
  9
$USRTIMER
 70
     1
  9
$ANGBASE
 50
0.0
  9
$ANGDIR
 70
     0
  9
$PDMODE
 70
     0
  9
$PDSIZE
 40
0.0
  9
$PLINEWID
 40
0.0
  9
$SPLFRAME
 70
     0
  9
$SPLINETYPE
 70
     6
  9
$SPLINESEGS
 70
     8
  9
$HANDSEED
  5
6A3
  9
$SURFTAB1
 70
     6
  9
$SURFTAB2
 70
     6
  9
$SURFTYPE
 70
     6
  9
$SURFU
 70
     6
  9
$SURFV
 70
     6
  9
$UCSBASE
  2

  9
$UCSNAME
  2

  9
$UCSORG
 10
0.0
 20
0.0
 30
0.0
  9
$UCSXDIR
 10
1.0
 20
0.0
 30
0.0
  9
$UCSYDIR
 10
0.0
 20
1.0
 30
0.0
  9
$UCSORTHOREF
  2

  9
$UCSORTHOVIEW
 70
     0
  9
$UCSORGTOP
 10
0.0
 20
0.0
 30
0.0
  9
$UCSORGBOTTOM
 10
0.0
 20
0.0
 30
0.0
  9
$UCSORGLEFT
 10
0.0
 20
0.0
 30
0.0
  9
$UCSORGRIGHT
 10
0.0
 20
0.0
 30
0.0
  9
$UCSORGFRONT
 10
0.0
 20
0.0
 30
0.0
  9
$UCSORGBACK
 10
0.0
 20
0.0
 30
0.0
  9
$PUCSBASE
  2

  9
$PUCSNAME
  2

  9
$PUCSORG
 10
0.0
 20
0.0
 30
0.0
  9
$PUCSXDIR
 10
1.0
 20
0.0
 30
0.0
  9
$PUCSYDIR
 10
0.0
 20
1.0
 30
0.0
  9
$PUCSORTHOREF
  2

  9
$PUCSORTHOVIEW
 70
     0
  9
$PUCSORGTOP
 10
0.0
 20
0.0
 30
0.0
  9
$PUCSORGBOTTOM
 10
0.0
 20
0.0
 30
0.0
  9
$PUCSORGLEFT
 10
0.0
 20
0.0
 30
0.0
  9
$PUCSORGRIGHT
 10
0.0
 20
0.0
 30
0.0
  9
$PUCSORGFRONT
 10
0.0
 20
0.0
 30
0.0
  9
$PUCSORGBACK
 10
0.0
 20
0.0
 30
0.0
  9
$USERI1
 70
     0
  9
$USERI2
 70
     0
  9
$USERI3
 70
     0
  9
$USERI4
 70
     0
  9
$USERI5
 70
     0
  9
$USERR1
 40
0.0
  9
$USERR2
 40
0.0
  9
$USERR3
 40
0.0
  9
$USERR4
 40
0.0
  9
$USERR5
 40
0.0
  9
$WORLDVIEW
 70
     1
  9
$SHADEDGE
 70
     3
  9
$SHADEDIF
 70
    70
  9
$TILEMODE
 70
     1
  9
$MAXACTVP
 70
    16
  9
$PINSBASE
 10
0.0
 20
0.0
 30
0.0
  9
$PLIMCHECK
 70
     0
  9
$PEXTMIN
 10
1.000000E+20
 20
1.000000E+20
 30
1.000000E+20
  9
$PEXTMAX
 10
-1.000000E+20
 20
-1.000000E+20
 30
-1.000000E+20
  9
$PLIMMIN
 10
0.0
 20
0.0
  9
$PLIMMAX
 10
12.0
 20
9.0
  9
$UNITMODE
 70
     0
  9
$VISRETAIN
 70
     0
  9
$PLINEGEN
 70
     1
  9
$PSLTSCALE
 70
     0
  9
$TREEDEPTH
 70
  3020
  9
$CMLSTYLE
  2
Standard
  9
$CMLJUST
 70
     0
  9
$CMLSCALE
 40
1.0
  9
$PROXYGRAPHICS
 70
     0
  9
$MEASUREMENT
 70
     0
  9
$CELWEIGHT
370
     0
  9
$ENDCAPS
280
     0
  9
$JOINSTYLE
280
     0
  9
$LWDISPLAY
290
     0
  9
$INSUNITS
 70
     0
  9
$HYPERLINKBASE
  1

  9
$STYLESHEET
  1

  9
$XEDIT
290
     1
  9
$CEPSNTYPE
380
     0
  9
$PSTYLEMODE
290
     1
  9
$FINGERPRINTGUID
  2

  9
$VERSIONGUID
  2

  9
$EXTNAMES
290
     1
  9
$PSVPSCALE
 40
0.0
  0
ENDSEC
  0
SECTION
  2
CLASSES
  0
CLASS
  1
LWPOLYLINE
  2
AcDbPolyline
  3
AutoCAD 2000
 90
        0
280
     0
281
     1
  0
CLASS
  1
IMAGE
  2
AcDbRasterImage
  3
ISM
 90
      127
280
     0
281
     1
  0
CLASS
  1
OLE2FRAME
  2
AcDbOle2Frame
  3
AutoCAD 2000
 90
        0
280
     0
281
     1
  0
CLASS
  1
HATCH
  2
AcDbHatch
  3
AutoCAD 2000
 90
        0
280
     0
281
     1
  0
CLASS
  1
DICTIONARYVAR
  2
AcDbDictionaryVar
  3
AutoCAD 2000
 90
        0
280
     0
281
     0
  0
CLASS
  1
RASTERVARIABLES
  2
AcDbRasterVariables
  3
ISM
 90
        0
280
     0
281
     0
  0
CLASS
  1
IMAGEDEF
  2
AcDbRasterImageDef
  3
ISM
 90
        0
280
     0
281
     0
  0
CLASS
  1
IMAGEDEF_REACTOR
  2
AcDbRasterImageDefReactor
  3
ISM
 90
        1
280
     0
281
     0
  0
CLASS
  1
IDBUFFER
  2
AcDbIdBuffer
  3
AutoCAD 2000
 90
        0
280
     0
281
     0
  0
CLASS
  1
SPATIAL_FILTER
  2
AcDbSpatialFilter
  3
AutoCAD 2000
 90
        0
280
     0
281
     0
  0
CLASS
  1
XRECORD
  2
AcDbXrecord
  3
AutoCAD 2000
 90
        0
280
     0
281
     0
  0
CLASS
  1
SORTENTSTABLE
  2
AcDbSortentsTable
  3
AutoCAD 2000
 90
        0
280
     0
281
     0
  0
CLASS
  1
LAYER_INDEX
  2
AcDbLayerIndex
  3
AutoCAD 2000
 90
        0
280
     0
281
     0
  0
CLASS
  1
SPATIAL_INDEX
  2
AcDbSpatialIndex
  3
AutoCAD 2000
 90
        0
280
     0
281
     0
  0
CLASS
  1
OBJECT_PTR
  2
CAseDLPNTableRecord
  3
"ASE-LPNTableRecord"
 90
        1
280
     0
281
     0
  0
CLASS
  1
LAYOUT
  2
AcDbLayout
  3
AutoCAD 2000
 90
        0
280
     0
281
     0
  0
CLASS
  1
PLOTSETTINGS
  2
AcDbPlotSettings
  3
AutoCAD 2000
 90
        0
280
     0
281
     0
  0
CLASS
  1
ACDBDICTIONARYWDFLT
  2
AcDbDictionaryWithDefault
  3
AutoCAD 2000
 90
        0
280
     0
281
     0
  0
CLASS
  1
ACDBPLACEHOLDER
  2
AcDbPlaceHolder
  3
AutoCAD 2000
 90
        0
280
     0
281
     0
  0
CLASS
  1
VBA_PROJECT
  2
AcDbVbaProject
  3
acadvba
 90
        0
280
     0
281
     0
  0
CLASS
  1
WIPEOUT
  2
AcDbWipeout
  3
WipeOut|AutoCAD Express Tool|expresstools@autodesk.com
 90
      127
280
     0
281
     1
  0
CLASS
  1
WIPEOUTVARIABLES
  2
AcDbWipeoutVariables
  3
WipeOut|AutoCAD Express Tool|expresstools@autodesk.com
 90
        0
280
     0
281
     0
  0
CLASS
  1
RTEXT
  2
RText
  3
RText|AutoCAD Express Tool|expresstools@autodesk.com
 90
        0
280
     0
281
     1
  0
CLASS
  1
ARCALIGNEDTEXT
  2
AcDbArcAlignedText
  3
ATEXT|AutoCAD Express Tool|expresstools@autodesk.com
 90
        0
280
     0
281
     1
  0
ENDSEC
  0
SECTION
  2
TABLES
  0
TABLE
  2
VPORT
  5
7
100
AcDbSymbolTable
 70
     1
  0
VPORT
  5
15
100
AcDbSymbolTableRecord
100
AcDbViewportTableRecord
  2
*ACTIVE
 70
     0
 10
0.0
 20
0.0
 11
1.0
 21
1.0
 12
6.591288
 22
4.579184
 13
0.0
 23
0.0
 14
1.0
 24
1.0
 15
0.0
 25
0.0
 16
0.0
 26
0.0
 36
1.0
 17
0.0
 27
0.0
 37
0.0
 40
9.158369
 41
0.688564
 42
50.0
 43
0.0
 44
0.0
 50
0.0
 51
0.0
 71
     0
 72
   100
 73
     1
 74
     1
 75
     0
 76
     0
 77
     0
 78
     0
281
     0
 65
     0
110
0.0
120
0.0
130
0.0
111
1.0
121
0.0
131
0.0
112
0.0
122
1.0
132
0.0
345
0
346
0
 79
     0
146
0.0
  0
ENDTAB
  0
TABLE
  2
LTYPE
  5
4
100
AcDbSymbolTable
 70
   203
  0
LTYPE
  5
11
100
AcDbSymbolTableRecord
100
AcDbLinetypeTableRecord
  2
ByBlock
 70
    64
  3

 72
    65
 73
     0
 40
0.0
  0
LTYPE
  5
12
100
AcDbSymbolTableRecord
100
AcDbLinetypeTableRecord
  2
ByLayer
 70
    64
  3

 72
    65
 73
     0
 40
0.0
  0
LTYPE
  5
13
100
AcDbSymbolTableRecord
100
AcDbLinetypeTableRecord
  2
Continuous
 70
    64
  3
Solid line
 72
    65
 73
     0
 40
0.0
  0
LTYPE
  5
25
100
AcDbSymbolTableRecord
100
AcDbLinetypeTableRecord
  2
DURCHGEHEND
 70
    64
  3

 72
    65
 73
     0
 40
0.0
  0
LTYPE
  5
26
100
AcDbSymbolTableRecord
100
AcDbLinetypeTableRecord
  2
GESTRICHELT
 70
    64
  3

 72
    65
 73
     2
 40
10.0
 49
5.0
 74
     0
 49
-5.0
 74
     0
  0
LTYPE
  5
27
100
AcDbSymbolTableRecord
100
AcDbLinetypeTableRecord
  2
MITTELLINIE
 70
    64
  3

 72
    65
 73
     4
 40
20.0
 49
10.0
 74
     0
 49
-2.0
 74
     0
 49
5.0
 74
     0
 49
-3.0
 74
     0
  0
LTYPE
  5
28
100
AcDbSymbolTableRecord
100
AcDbLinetypeTableRecord
  2
PUNKTIERT
 70
    64
  3

 72
    65
 73
     2
 40
0.25
 49
0.0
 74
     0
 49
-0.25
 74
     0
  0
LTYPE
  5
29
100
AcDbSymbolTableRecord
100
AcDbLinetypeTableRecord
  2
STRICHPUNKTIERT
 70
    64
  3

 72
    65
 73
     4
 40
8.0
 49
5.0
 74
     0
 49
-1.0
 74
     0
 49
1.0
 74
     0
 49
-1.0
 74
     0
  0
LTYPE
  5
2A
100
AcDbSymbolTableRecord
100
AcDbLinetypeTableRecord
  2
STRICH-PUNKT-PUNKT
 70
    64
  3

 72
    65
 73
     6
 40
10.0
 49
5.0
 74
     0
 49
-1.0
 74
     0
 49
1.0
 74
     0
 49
-1.0
 74
     0
 49
1.0
 74
     0
 49
-1.0
 74
     0
  0
LTYPE
  5
2B
100
AcDbSymbolTableRecord
100
AcDbLinetypeTableRecord
  2
STARTPFEIL
 70
    64
  3

 72
    65
 73
     0
 40
0.0
  0
LTYPE
  5
2C
100
AcDbSymbolTableRecord
100
AcDbLinetypeTableRecord
  2
ENDPFEIL
 70
    64
  3

 72
    65
 73
     0
 40
0.0
  0
LTYPE
  5
2D
100
AcDbSymbolTableRecord
100
AcDbLinetypeTableRecord
  2
ENDPUNKT
 70
    64
  3

 72
    65
 73
     0
 40
0.0
  0
LTYPE
  5
2E
100
AcDbSymbolTableRecord
100
AcDbLinetypeTableRecord
  2
PFEIL
 70
    64
  3

 72
    65
 73
     0
 40
0.0
  0
LTYPE
  5
2F
100
AcDbSymbolTableRecord
100
AcDbLinetypeTableRecord
  2
STITCHLINE
 70
    64
  3

 72
    65
 73
     2
 40
6.0
 49
3.0
 74
     0
 49
-3.0
 74
     0
  0
LTYPE
  5
30
100
AcDbSymbolTableRecord
100
AcDbLinetypeTableRecord
  2
MITTELLINIE_2
 70
    64
  3

 72
    65
 73
     4
 40
17.0
 49
10.0
 74
     0
 49
-2.0
 74
     0
 49
3.0
 74
     0
 49
-2.0
 74
     0
  0
LTYPE
  5
31
100
AcDbSymbolTableRecord
100
AcDbLinetypeTableRecord
  2
VERDECKTE_LINIE
 70
    64
  3

 72
    65
 73
     2
 40
4.0
 49
2.0
 74
     0
 49
-2.0
 74
     0
  0
LTYPE
  5
32
100
AcDbSymbolTableRecord
100
AcDbLinetypeTableRecord
  2
PHANTOMLINIE
 70
    64
  3

 72
    65
 73
     6
 40
21.0
 49
10.0
 74
     0
 49
-2.0
 74
     0
 49
3.0
 74
     0
 49
-1.0
 74
     0
 49
3.0
 74
     0
 49
-2.0
 74
     0
  0
LTYPE
  5
33
100
AcDbSymbolTableRecord
100
AcDbLinetypeTableRecord
  2
BRUCHLINIE_1
 70
    64
  3

 72
    65
 73
     0
 40
0.0
  0
LTYPE
  5
34
100
AcDbSymbolTableRecord
100
AcDbLinetypeTableRecord
  2
BRUCHLINIE_2
 70
    64
  3

 72
    65
 73
     0
 40
0.0
  0
LTYPE
  5
35
100
AcDbSymbolTableRecord
100
AcDbLinetypeTableRecord
  2
_DURCHGEHEND
 70
    64
  3

 72
    65
 73
     0
 40
0.0
  0
LTYPE
  5
36
100
AcDbSymbolTableRecord
100
AcDbLinetypeTableRecord
  2
_GESTRICHELT
 70
    64
  3

 72
    65
 73
     2
 40
10.0
 49
5.0
 74
     0
 49
-5.0
 74
     0
  0
LTYPE
  5
37
100
AcDbSymbolTableRecord
100
AcDbLinetypeTableRecord
  2
_MITTELLINIE
 70
    64
  3

 72
    65
 73
     4
 40
20.0
 49
10.0
 74
     0
 49
-2.0
 74
     0
 49
5.0
 74
     0
 49
-3.0
 74
     0
  0
LTYPE
  5
38
100
AcDbSymbolTableRecord
100
AcDbLinetypeTableRecord
  2
_PUNKTIERT
 70
    64
  3

 72
    65
 73
     2
 40
0.25
 49
0.0
 74
     0
 49
-0.25
 74
     0
  0
LTYPE
  5
39
100
AcDbSymbolTableRecord
100
AcDbLinetypeTableRecord
  2
_STRICHPUNKTIERT
 70
    64
  3

 72
    65
 73
     4
 40
8.0
 49
5.0
 74
     0
 49
-1.0
 74
     0
 49
1.0
 74
     0
 49
-1.0
 74
     0
  0
LTYPE
  5
3A
100
AcDbSymbolTableRecord
100
AcDbLinetypeTableRecord
  2
_STRICH-PUNKT-PUNKT
 70
    64
  3

 72
    65
 73
     6
 40
10.0
 49
5.0
 74
     0
 49
-1.0
 74
     0
 49
1.0
 74
     0
 49
-1.0
 74
     0
 49
1.0
 74
     0
 49
-1.0
 74
     0
  0
LTYPE
  5
3B
100
AcDbSymbolTableRecord
100
AcDbLinetypeTableRecord
  2
_STARTPFEIL
 70
    64
  3

 72
    65
 73
     0
 40
0.0
  0
LTYPE
  5
3C
100
AcDbSymbolTableRecord
100
AcDbLinetypeTableRecord
  2
_ENDPFEIL
 70
    64
  3

 72
    65
 73
     0
 40
0.0
  0
LTYPE
  5
3D
100
AcDbSymbolTableRecord
100
AcDbLinetypeTableRecord
  2
_ENDPUNKT
 70
    64
  3

 72
    65
 73
     0
 40
0.0
  0
LTYPE
  5
3E
100
AcDbSymbolTableRecord
100
AcDbLinetypeTableRecord
  2
_PFEIL
 70
    64
  3

 72
    65
 73
     0
 40
0.0
  0
LTYPE
  5
3F
100
AcDbSymbolTableRecord
100
AcDbLinetypeTableRecord
  2
_STITCHLINE
 70
    64
  3

 72
    65
 73
     2
 40
6.0
 49
3.0
 74
     0
 49
-3.0
 74
     0
  0
LTYPE
  5
40
100
AcDbSymbolTableRecord
100
AcDbLinetypeTableRecord
  2
_MITTELLINIE_2
 70
    64
  3

 72
    65
 73
     4
 40
17.0
 49
10.0
 74
     0
 49
-2.0
 74
     0
 49
3.0
 74
     0
 49
-2.0
 74
     0
  0
LTYPE
  5
41
100
AcDbSymbolTableRecord
100
AcDbLinetypeTableRecord
  2
_VERDECKTE_LINIE
 70
    64
  3

 72
    65
 73
     2
 40
4.0
 49
2.0
 74
     0
 49
-2.0
 74
     0
  0
LTYPE
  5
42
100
AcDbSymbolTableRecord
100
AcDbLinetypeTableRecord
  2
_PHANTOMLINIE
 70
    64
  3

 72
    65
 73
     6
 40
21.0
 49
10.0
 74
     0
 49
-2.0
 74
     0
 49
3.0
 74
     0
 49
-1.0
 74
     0
 49
3.0
 74
     0
 49
-2.0
 74
     0
  0
LTYPE
  5
43
100
AcDbSymbolTableRecord
100
AcDbLinetypeTableRecord
  2
_BRUCHLINIE_1
 70
    64
  3

 72
    65
 73
     0
 40
0.0
  0
LTYPE
  5
44
100
AcDbSymbolTableRecord
100
AcDbLinetypeTableRecord
  2
_BRUCHLINIE_2
 70
    64
  3

 72
    65
 73
     0
 40
0.0
  0
LTYPE
  5
45
100
AcDbSymbolTableRecord
100
AcDbLinetypeTableRecord
  2
CONTINUOUS
 70
    64
  3

 72
    65
 73
     0
 40
0.0
  0
LTYPE
  5
46
100
AcDbSymbolTableRecord
100
AcDbLinetypeTableRecord
  2
_DURCHGEHEND
 70
    64
  3

 72
    65
 73
     0
 40
0.0
  0
LTYPE
  5
47
100
AcDbSymbolTableRecord
100
AcDbLinetypeTableRecord
  2
_GESTRICHELT
 70
    64
  3

 72
    65
 73
     2
 40
10.0
 49
5.0
 74
     0
 49
-5.0
 74
     0
  0
LTYPE
  5
48
100
AcDbSymbolTableRecord
100
AcDbLinetypeTableRecord
  2
_MITTELLINIE
 70
    64
  3

 72
    65
 73
     4
 40
20.0
 49
10.0
 74
     0
 49
-2.0
 74
     0
 49
5.0
 74
     0
 49
-3.0
 74
     0
  0
LTYPE
  5
49
100
AcDbSymbolTableRecord
100
AcDbLinetypeTableRecord
  2
_PUNKTIERT
 70
    64
  3

 72
    65
 73
     2
 40
0.25
 49
0.0
 74
     0
 49
-0.25
 74
     0
  0
LTYPE
  5
4A
100
AcDbSymbolTableRecord
100
AcDbLinetypeTableRecord
  2
_STRICHPUNKTIERT
 70
    64
  3

 72
    65
 73
     4
 40
8.0
 49
5.0
 74
     0
 49
-1.0
 74
     0
 49
1.0
 74
     0
 49
-1.0
 74
     0
  0
LTYPE
  5
4B
100
AcDbSymbolTableRecord
100
AcDbLinetypeTableRecord
  2
_STRICH-PUNKT-PUNKT
 70
    64
  3

 72
    65
 73
     6
 40
10.0
 49
5.0
 74
     0
 49
-1.0
 74
     0
 49
1.0
 74
     0
 49
-1.0
 74
     0
 49
1.0
 74
     0
 49
-1.0
 74
     0
  0
LTYPE
  5
4C
100
AcDbSymbolTableRecord
100
AcDbLinetypeTableRecord
  2
_STARTPFEIL
 70
    64
  3

 72
    65
 73
     0
 40
0.0
  0
LTYPE
  5
4D
100
AcDbSymbolTableRecord
100
AcDbLinetypeTableRecord
  2
_ENDPFEIL
 70
    64
  3

 72
    65
 73
     0
 40
0.0
  0
LTYPE
  5
4E
100
AcDbSymbolTableRecord
100
AcDbLinetypeTableRecord
  2
_ENDPUNKT
 70
    64
  3

 72
    65
 73
     0
 40
0.0
  0
LTYPE
  5
4F
100
AcDbSymbolTableRecord
100
AcDbLinetypeTableRecord
  2
_PFEIL
 70
    64
  3

 72
    65
 73
     0
 40
0.0
  0
LTYPE
  5
50
100
AcDbSymbolTableRecord
100
AcDbLinetypeTableRecord
  2
_STITCHLINE
 70
    64
  3

 72
    65
 73
     2
 40
6.0
 49
3.0
 74
     0
 49
-3.0
 74
     0
  0
LTYPE
  5
51
100
AcDbSymbolTableRecord
100
AcDbLinetypeTableRecord
  2
_MITTELLINIE_2
 70
    64
  3

 72
    65
 73
     4
 40
17.0
 49
10.0
 74
     0
 49
-2.0
 74
     0
 49
3.0
 74
     0
 49
-2.0
 74
     0
  0
LTYPE
  5
52
100
AcDbSymbolTableRecord
100
AcDbLinetypeTableRecord
  2
_VERDECKTE_LINIE
 70
    64
  3

 72
    65
 73
     2
 40
4.0
 49
2.0
 74
     0
 49
-2.0
 74
     0
  0
LTYPE
  5
53
100
AcDbSymbolTableRecord
100
AcDbLinetypeTableRecord
  2
_PHANTOMLINIE
 70
    64
  3

 72
    65
 73
     6
 40
21.0
 49
10.0
 74
     0
 49
-2.0
 74
     0
 49
3.0
 74
     0
 49
-1.0
 74
     0
 49
3.0
 74
     0
 49
-2.0
 74
     0
  0
LTYPE
  5
54
100
AcDbSymbolTableRecord
100
AcDbLinetypeTableRecord
  2
_BRUCHLINIE_1
 70
    64
  3

 72
    65
 73
     0
 40
0.0
  0
LTYPE
  5
55
100
AcDbSymbolTableRecord
100
AcDbLinetypeTableRecord
  2
_BRUCHLINIE_2
 70
    64
  3

 72
    65
 73
     0
 40
0.0
  0
LTYPE
  5
56
100
AcDbSymbolTableRecord
100
AcDbLinetypeTableRecord
  2
_DURCHGEHEND
 70
    64
  3

 72
    65
 73
     0
 40
0.0
  0
LTYPE
  5
57
100
AcDbSymbolTableRecord
100
AcDbLinetypeTableRecord
  2
_GESTRICHELT
 70
    64
  3

 72
    65
 73
     2
 40
10.0
 49
5.0
 74
     0
 49
-5.0
 74
     0
  0
LTYPE
  5
58
100
AcDbSymbolTableRecord
100
AcDbLinetypeTableRecord
  2
_MITTELLINIE
 70
    64
  3

 72
    65
 73
     4
 40
20.0
 49
10.0
 74
     0
 49
-2.0
 74
     0
 49
5.0
 74
     0
 49
-3.0
 74
     0
  0
LTYPE
  5
59
100
AcDbSymbolTableRecord
100
AcDbLinetypeTableRecord
  2
_PUNKTIERT
 70
    64
  3

 72
    65
 73
     2
 40
0.25
 49
0.0
 74
     0
 49
-0.25
 74
     0
  0
LTYPE
  5
5A
100
AcDbSymbolTableRecord
100
AcDbLinetypeTableRecord
  2
_STRICHPUNKTIERT
 70
    64
  3

 72
    65
 73
     4
 40
8.0
 49
5.0
 74
     0
 49
-1.0
 74
     0
 49
1.0
 74
     0
 49
-1.0
 74
     0
  0
LTYPE
  5
5B
100
AcDbSymbolTableRecord
100
AcDbLinetypeTableRecord
  2
_STRICH-PUNKT-PUNKT
 70
    64
  3

 72
    65
 73
     6
 40
10.0
 49
5.0
 74
     0
 49
-1.0
 74
     0
 49
1.0
 74
     0
 49
-1.0
 74
     0
 49
1.0
 74
     0
 49
-1.0
 74
     0
  0
LTYPE
  5
5C
100
AcDbSymbolTableRecord
100
AcDbLinetypeTableRecord
  2
_STARTPFEIL
 70
    64
  3

 72
    65
 73
     0
 40
0.0
  0
LTYPE
  5
5D
100
AcDbSymbolTableRecord
100
AcDbLinetypeTableRecord
  2
_ENDPFEIL
 70
    64
  3

 72
    65
 73
     0
 40
0.0
  0
LTYPE
  5
5E
100
AcDbSymbolTableRecord
100
AcDbLinetypeTableRecord
  2
_ENDPUNKT
 70
    64
  3

 72
    65
 73
     0
 40
0.0
  0
LTYPE
  5
5F
100
AcDbSymbolTableRecord
100
AcDbLinetypeTableRecord
  2
_PFEIL
 70
    64
  3

 72
    65
 73
     0
 40
0.0
  0
LTYPE
  5
60
100
AcDbSymbolTableRecord
100
AcDbLinetypeTableRecord
  2
_STITCHLINE
 70
    64
  3

 72
    65
 73
     2
 40
6.0
 49
3.0
 74
     0
 49
-3.0
 74
     0
  0
LTYPE
  5
61
100
AcDbSymbolTableRecord
100
AcDbLinetypeTableRecord
  2
_MITTELLINIE_2
 70
    64
  3

 72
    65
 73
     4
 40
17.0
 49
10.0
 74
     0
 49
-2.0
 74
     0
 49
3.0
 74
     0
 49
-2.0
 74
     0
  0
LTYPE
  5
62
100
AcDbSymbolTableRecord
100
AcDbLinetypeTableRecord
  2
_VERDECKTE_LINIE
 70
    64
  3

 72
    65
 73
     2
 40
4.0
 49
2.0
 74
     0
 49
-2.0
 74
     0
  0
LTYPE
  5
63
100
AcDbSymbolTableRecord
100
AcDbLinetypeTableRecord
  2
_PHANTOMLINIE
 70
    64
  3

 72
    65
 73
     6
 40
21.0
 49
10.0
 74
     0
 49
-2.0
 74
     0
 49
3.0
 74
     0
 49
-1.0
 74
     0
 49
3.0
 74
     0
 49
-2.0
 74
     0
  0
LTYPE
  5
64
100
AcDbSymbolTableRecord
100
AcDbLinetypeTableRecord
  2
_BRUCHLINIE_1
 70
    64
  3

 72
    65
 73
     0
 40
0.0
  0
LTYPE
  5
65
100
AcDbSymbolTableRecord
100
AcDbLinetypeTableRecord
  2
_BRUCHLINIE_2
 70
    64
  3

 72
    65
 73
     0
 40
0.0
  0
LTYPE
  5
66
100
AcDbSymbolTableRecord
100
AcDbLinetypeTableRecord
  2
SLDCENTERLINES0
 70
    64
  3

 72
    65
 73
     4
 40
19.05
 49
15.24
 74
     0
 49
-1.27
 74
     0
 49
1.27
 74
     0
 49
-1.27
 74
     0
  0
LTYPE
  5
67
100
AcDbSymbolTableRecord
100
AcDbLinetypeTableRecord
  2
SLDTANVISIBLE0
 70
    64
  3

 72
    65
 73
     6
 40
12.7
 49
6.35
 74
     0
 49
-1.27
 74
     0
 49
1.27
 74
     0
 49
-1.27
 74
     0
 49
1.27
 74
     0
 49
-1.27
 74
     0
  0
LTYPE
  5
68
100
AcDbSymbolTableRecord
100
AcDbLinetypeTableRecord
  2
_DURCHGEHEND
 70
    64
  3

 72
    65
 73
     0
 40
0.0
  0
LTYPE
  5
69
100
AcDbSymbolTableRecord
100
AcDbLinetypeTableRecord
  2
_GESTRICHELT
 70
    64
  3

 72
    65
 73
     2
 40
10.0
 49
5.0
 74
     0
 49
-5.0
 74
     0
  0
LTYPE
  5
6A
100
AcDbSymbolTableRecord
100
AcDbLinetypeTableRecord
  2
_MITTELLINIE
 70
    64
  3

 72
    65
 73
     4
 40
20.0
 49
10.0
 74
     0
 49
-2.0
 74
     0
 49
5.0
 74
     0
 49
-3.0
 74
     0
  0
LTYPE
  5
6B
100
AcDbSymbolTableRecord
100
AcDbLinetypeTableRecord
  2
_PUNKTIERT
 70
    64
  3

 72
    65
 73
     2
 40
0.25
 49
0.0
 74
     0
 49
-0.25
 74
     0
  0
LTYPE
  5
6C
100
AcDbSymbolTableRecord
100
AcDbLinetypeTableRecord
  2
_STRICHPUNKTIERT
 70
    64
  3

 72
    65
 73
     4
 40
8.0
 49
5.0
 74
     0
 49
-1.0
 74
     0
 49
1.0
 74
     0
 49
-1.0
 74
     0
  0
LTYPE
  5
6D
100
AcDbSymbolTableRecord
100
AcDbLinetypeTableRecord
  2
_STRICH-PUNKT-PUNKT
 70
    64
  3

 72
    65
 73
     6
 40
10.0
 49
5.0
 74
     0
 49
-1.0
 74
     0
 49
1.0
 74
     0
 49
-1.0
 74
     0
 49
1.0
 74
     0
 49
-1.0
 74
     0
  0
LTYPE
  5
6E
100
AcDbSymbolTableRecord
100
AcDbLinetypeTableRecord
  2
_STARTPFEIL
 70
    64
  3

 72
    65
 73
     0
 40
0.0
  0
LTYPE
  5
6F
100
AcDbSymbolTableRecord
100
AcDbLinetypeTableRecord
  2
_ENDPFEIL
 70
    64
  3

 72
    65
 73
     0
 40
0.0
  0
LTYPE
  5
70
100
AcDbSymbolTableRecord
100
AcDbLinetypeTableRecord
  2
_ENDPUNKT
 70
    64
  3

 72
    65
 73
     0
 40
0.0
  0
LTYPE
  5
71
100
AcDbSymbolTableRecord
100
AcDbLinetypeTableRecord
  2
_PFEIL
 70
    64
  3

 72
    65
 73
     0
 40
0.0
  0
LTYPE
  5
72
100
AcDbSymbolTableRecord
100
AcDbLinetypeTableRecord
  2
_STITCHLINE
 70
    64
  3

 72
    65
 73
     2
 40
6.0
 49
3.0
 74
     0
 49
-3.0
 74
     0
  0
LTYPE
  5
73
100
AcDbSymbolTableRecord
100
AcDbLinetypeTableRecord
  2
_MITTELLINIE_2
 70
    64
  3

 72
    65
 73
     4
 40
17.0
 49
10.0
 74
     0
 49
-2.0
 74
     0
 49
3.0
 74
     0
 49
-2.0
 74
     0
  0
LTYPE
  5
74
100
AcDbSymbolTableRecord
100
AcDbLinetypeTableRecord
  2
_VERDECKTE_LINIE
 70
    64
  3

 72
    65
 73
     2
 40
4.0
 49
2.0
 74
     0
 49
-2.0
 74
     0
  0
LTYPE
  5
75
100
AcDbSymbolTableRecord
100
AcDbLinetypeTableRecord
  2
_PHANTOMLINIE
 70
    64
  3

 72
    65
 73
     6
 40
21.0
 49
10.0
 74
     0
 49
-2.0
 74
     0
 49
3.0
 74
     0
 49
-1.0
 74
     0
 49
3.0
 74
     0
 49
-2.0
 74
     0
  0
LTYPE
  5
76
100
AcDbSymbolTableRecord
100
AcDbLinetypeTableRecord
  2
_BRUCHLINIE_1
 70
    64
  3

 72
    65
 73
     0
 40
0.0
  0
LTYPE
  5
77
100
AcDbSymbolTableRecord
100
AcDbLinetypeTableRecord
  2
_BRUCHLINIE_2
 70
    64
  3

 72
    65
 73
     0
 40
0.0
  0
LTYPE
  5
78
100
AcDbSymbolTableRecord
100
AcDbLinetypeTableRecord
  2
_DURCHGEHEND
 70
    64
  3

 72
    65
 73
     0
 40
0.0
  0
LTYPE
  5
79
100
AcDbSymbolTableRecord
100
AcDbLinetypeTableRecord
  2
_GESTRICHELT
 70
    64
  3

 72
    65
 73
     2
 40
10.0
 49
5.0
 74
     0
 49
-5.0
 74
     0
  0
LTYPE
  5
7A
100
AcDbSymbolTableRecord
100
AcDbLinetypeTableRecord
  2
_MITTELLINIE
 70
    64
  3

 72
    65
 73
     4
 40
20.0
 49
10.0
 74
     0
 49
-2.0
 74
     0
 49
5.0
 74
     0
 49
-3.0
 74
     0
  0
LTYPE
  5
7B
100
AcDbSymbolTableRecord
100
AcDbLinetypeTableRecord
  2
_PUNKTIERT
 70
    64
  3

 72
    65
 73
     2
 40
0.25
 49
0.0
 74
     0
 49
-0.25
 74
     0
  0
LTYPE
  5
7C
100
AcDbSymbolTableRecord
100
AcDbLinetypeTableRecord
  2
_STRICHPUNKTIERT
 70
    64
  3

 72
    65
 73
     4
 40
8.0
 49
5.0
 74
     0
 49
-1.0
 74
     0
 49
1.0
 74
     0
 49
-1.0
 74
     0
  0
LTYPE
  5
7D
100
AcDbSymbolTableRecord
100
AcDbLinetypeTableRecord
  2
_STRICH-PUNKT-PUNKT
 70
    64
  3

 72
    65
 73
     6
 40
10.0
 49
5.0
 74
     0
 49
-1.0
 74
     0
 49
1.0
 74
     0
 49
-1.0
 74
     0
 49
1.0
 74
     0
 49
-1.0
 74
     0
  0
LTYPE
  5
7E
100
AcDbSymbolTableRecord
100
AcDbLinetypeTableRecord
  2
_STARTPFEIL
 70
    64
  3

 72
    65
 73
     0
 40
0.0
  0
LTYPE
  5
7F
100
AcDbSymbolTableRecord
100
AcDbLinetypeTableRecord
  2
_ENDPFEIL
 70
    64
  3

 72
    65
 73
     0
 40
0.0
  0
LTYPE
  5
80
100
AcDbSymbolTableRecord
100
AcDbLinetypeTableRecord
  2
_ENDPUNKT
 70
    64
  3

 72
    65
 73
     0
 40
0.0
  0
LTYPE
  5
81
100
AcDbSymbolTableRecord
100
AcDbLinetypeTableRecord
  2
_PFEIL
 70
    64
  3

 72
    65
 73
     0
 40
0.0
  0
LTYPE
  5
82
100
AcDbSymbolTableRecord
100
AcDbLinetypeTableRecord
  2
_STITCHLINE
 70
    64
  3

 72
    65
 73
     2
 40
6.0
 49
3.0
 74
     0
 49
-3.0
 74
     0
  0
LTYPE
  5
83
100
AcDbSymbolTableRecord
100
AcDbLinetypeTableRecord
  2
_MITTELLINIE_2
 70
    64
  3

 72
    65
 73
     4
 40
17.0
 49
10.0
 74
     0
 49
-2.0
 74
     0
 49
3.0
 74
     0
 49
-2.0
 74
     0
  0
LTYPE
  5
84
100
AcDbSymbolTableRecord
100
AcDbLinetypeTableRecord
  2
_VERDECKTE_LINIE
 70
    64
  3

 72
    65
 73
     2
 40
4.0
 49
2.0
 74
     0
 49
-2.0
 74
     0
  0
LTYPE
  5
85
100
AcDbSymbolTableRecord
100
AcDbLinetypeTableRecord
  2
_PHANTOMLINIE
 70
    64
  3

 72
    65
 73
     6
 40
21.0
 49
10.0
 74
     0
 49
-2.0
 74
     0
 49
3.0
 74
     0
 49
-1.0
 74
     0
 49
3.0
 74
     0
 49
-2.0
 74
     0
  0
LTYPE
  5
86
100
AcDbSymbolTableRecord
100
AcDbLinetypeTableRecord
  2
_BRUCHLINIE_1
 70
    64
  3

 72
    65
 73
     0
 40
0.0
  0
LTYPE
  5
87
100
AcDbSymbolTableRecord
100
AcDbLinetypeTableRecord
  2
_BRUCHLINIE_2
 70
    64
  3

 72
    65
 73
     0
 40
0.0
  0
LTYPE
  5
88
100
AcDbSymbolTableRecord
100
AcDbLinetypeTableRecord
  2
_DURCHGEHEND
 70
    64
  3

 72
    65
 73
     0
 40
0.0
  0
LTYPE
  5
89
100
AcDbSymbolTableRecord
100
AcDbLinetypeTableRecord
  2
_GESTRICHELT
 70
    64
  3

 72
    65
 73
     2
 40
10.0
 49
5.0
 74
     0
 49
-5.0
 74
     0
  0
LTYPE
  5
8A
100
AcDbSymbolTableRecord
100
AcDbLinetypeTableRecord
  2
_MITTELLINIE
 70
    64
  3

 72
    65
 73
     4
 40
20.0
 49
10.0
 74
     0
 49
-2.0
 74
     0
 49
5.0
 74
     0
 49
-3.0
 74
     0
  0
LTYPE
  5
8B
100
AcDbSymbolTableRecord
100
AcDbLinetypeTableRecord
  2
_PUNKTIERT
 70
    64
  3

 72
    65
 73
     2
 40
0.25
 49
0.0
 74
     0
 49
-0.25
 74
     0
  0
LTYPE
  5
8C
100
AcDbSymbolTableRecord
100
AcDbLinetypeTableRecord
  2
_STRICHPUNKTIERT
 70
    64
  3

 72
    65
 73
     4
 40
8.0
 49
5.0
 74
     0
 49
-1.0
 74
     0
 49
1.0
 74
     0
 49
-1.0
 74
     0
  0
LTYPE
  5
8D
100
AcDbSymbolTableRecord
100
AcDbLinetypeTableRecord
  2
_STRICH-PUNKT-PUNKT
 70
    64
  3

 72
    65
 73
     6
 40
10.0
 49
5.0
 74
     0
 49
-1.0
 74
     0
 49
1.0
 74
     0
 49
-1.0
 74
     0
 49
1.0
 74
     0
 49
-1.0
 74
     0
  0
LTYPE
  5
8E
100
AcDbSymbolTableRecord
100
AcDbLinetypeTableRecord
  2
_STARTPFEIL
 70
    64
  3

 72
    65
 73
     0
 40
0.0
  0
LTYPE
  5
8F
100
AcDbSymbolTableRecord
100
AcDbLinetypeTableRecord
  2
_ENDPFEIL
 70
    64
  3

 72
    65
 73
     0
 40
0.0
  0
LTYPE
  5
90
100
AcDbSymbolTableRecord
100
AcDbLinetypeTableRecord
  2
_ENDPUNKT
 70
    64
  3

 72
    65
 73
     0
 40
0.0
  0
LTYPE
  5
91
100
AcDbSymbolTableRecord
100
AcDbLinetypeTableRecord
  2
_PFEIL
 70
    64
  3

 72
    65
 73
     0
 40
0.0
  0
LTYPE
  5
92
100
AcDbSymbolTableRecord
100
AcDbLinetypeTableRecord
  2
_STITCHLINE
 70
    64
  3

 72
    65
 73
     2
 40
6.0
 49
3.0
 74
     0
 49
-3.0
 74
     0
  0
LTYPE
  5
93
100
AcDbSymbolTableRecord
100
AcDbLinetypeTableRecord
  2
_MITTELLINIE_2
 70
    64
  3

 72
    65
 73
     4
 40
17.0
 49
10.0
 74
     0
 49
-2.0
 74
     0
 49
3.0
 74
     0
 49
-2.0
 74
     0
  0
LTYPE
  5
94
100
AcDbSymbolTableRecord
100
AcDbLinetypeTableRecord
  2
_VERDECKTE_LINIE
 70
    64
  3

 72
    65
 73
     2
 40
4.0
 49
2.0
 74
     0
 49
-2.0
 74
     0
  0
LTYPE
  5
95
100
AcDbSymbolTableRecord
100
AcDbLinetypeTableRecord
  2
_PHANTOMLINIE
 70
    64
  3

 72
    65
 73
     6
 40
21.0
 49
10.0
 74
     0
 49
-2.0
 74
     0
 49
3.0
 74
     0
 49
-1.0
 74
     0
 49
3.0
 74
     0
 49
-2.0
 74
     0
  0
LTYPE
  5
96
100
AcDbSymbolTableRecord
100
AcDbLinetypeTableRecord
  2
_BRUCHLINIE_1
 70
    64
  3

 72
    65
 73
     0
 40
0.0
  0
LTYPE
  5
97
100
AcDbSymbolTableRecord
100
AcDbLinetypeTableRecord
  2
_BRUCHLINIE_2
 70
    64
  3

 72
    65
 73
     0
 40
0.0
  0
LTYPE
  5
98
100
AcDbSymbolTableRecord
100
AcDbLinetypeTableRecord
  2
_DURCHGEHEND
 70
    64
  3

 72
    65
 73
     0
 40
0.0
  0
LTYPE
  5
99
100
AcDbSymbolTableRecord
100
AcDbLinetypeTableRecord
  2
_GESTRICHELT
 70
    64
  3

 72
    65
 73
     2
 40
10.0
 49
5.0
 74
     0
 49
-5.0
 74
     0
  0
LTYPE
  5
9A
100
AcDbSymbolTableRecord
100
AcDbLinetypeTableRecord
  2
_MITTELLINIE
 70
    64
  3

 72
    65
 73
     4
 40
20.0
 49
10.0
 74
     0
 49
-2.0
 74
     0
 49
5.0
 74
     0
 49
-3.0
 74
     0
  0
LTYPE
  5
9B
100
AcDbSymbolTableRecord
100
AcDbLinetypeTableRecord
  2
_PUNKTIERT
 70
    64
  3

 72
    65
 73
     2
 40
0.25
 49
0.0
 74
     0
 49
-0.25
 74
     0
  0
LTYPE
  5
9C
100
AcDbSymbolTableRecord
100
AcDbLinetypeTableRecord
  2
_STRICHPUNKTIERT
 70
    64
  3

 72
    65
 73
     4
 40
8.0
 49
5.0
 74
     0
 49
-1.0
 74
     0
 49
1.0
 74
     0
 49
-1.0
 74
     0
  0
LTYPE
  5
9D
100
AcDbSymbolTableRecord
100
AcDbLinetypeTableRecord
  2
_STRICH-PUNKT-PUNKT
 70
    64
  3

 72
    65
 73
     6
 40
10.0
 49
5.0
 74
     0
 49
-1.0
 74
     0
 49
1.0
 74
     0
 49
-1.0
 74
     0
 49
1.0
 74
     0
 49
-1.0
 74
     0
  0
LTYPE
  5
9E
100
AcDbSymbolTableRecord
100
AcDbLinetypeTableRecord
  2
_STARTPFEIL
 70
    64
  3

 72
    65
 73
     0
 40
0.0
  0
LTYPE
  5
9F
100
AcDbSymbolTableRecord
100
AcDbLinetypeTableRecord
  2
_ENDPFEIL
 70
    64
  3

 72
    65
 73
     0
 40
0.0
  0
LTYPE
  5
A0
100
AcDbSymbolTableRecord
100
AcDbLinetypeTableRecord
  2
_ENDPUNKT
 70
    64
  3

 72
    65
 73
     0
 40
0.0
  0
LTYPE
  5
A1
100
AcDbSymbolTableRecord
100
AcDbLinetypeTableRecord
  2
_PFEIL
 70
    64
  3

 72
    65
 73
     0
 40
0.0
  0
LTYPE
  5
A2
100
AcDbSymbolTableRecord
100
AcDbLinetypeTableRecord
  2
_STITCHLINE
 70
    64
  3

 72
    65
 73
     2
 40
6.0
 49
3.0
 74
     0
 49
-3.0
 74
     0
  0
LTYPE
  5
A3
100
AcDbSymbolTableRecord
100
AcDbLinetypeTableRecord
  2
_MITTELLINIE_2
 70
    64
  3

 72
    65
 73
     4
 40
17.0
 49
10.0
 74
     0
 49
-2.0
 74
     0
 49
3.0
 74
     0
 49
-2.0
 74
     0
  0
LTYPE
  5
A4
100
AcDbSymbolTableRecord
100
AcDbLinetypeTableRecord
  2
_VERDECKTE_LINIE
 70
    64
  3

 72
    65
 73
     2
 40
4.0
 49
2.0
 74
     0
 49
-2.0
 74
     0
  0
LTYPE
  5
A5
100
AcDbSymbolTableRecord
100
AcDbLinetypeTableRecord
  2
_PHANTOMLINIE
 70
    64
  3

 72
    65
 73
     6
 40
21.0
 49
10.0
 74
     0
 49
-2.0
 74
     0
 49
3.0
 74
     0
 49
-1.0
 74
     0
 49
3.0
 74
     0
 49
-2.0
 74
     0
  0
LTYPE
  5
A6
100
AcDbSymbolTableRecord
100
AcDbLinetypeTableRecord
  2
_BRUCHLINIE_1
 70
    64
  3

 72
    65
 73
     0
 40
0.0
  0
LTYPE
  5
A7
100
AcDbSymbolTableRecord
100
AcDbLinetypeTableRecord
  2
_BRUCHLINIE_2
 70
    64
  3

 72
    65
 73
     0
 40
0.0
  0
LTYPE
  5
A8
100
AcDbSymbolTableRecord
100
AcDbLinetypeTableRecord
  2
_DURCHGEHEND
 70
    64
  3

 72
    65
 73
     0
 40
0.0
  0
LTYPE
  5
A9
100
AcDbSymbolTableRecord
100
AcDbLinetypeTableRecord
  2
_GESTRICHELT
 70
    64
  3

 72
    65
 73
     2
 40
10.0
 49
5.0
 74
     0
 49
-5.0
 74
     0
  0
LTYPE
  5
AA
100
AcDbSymbolTableRecord
100
AcDbLinetypeTableRecord
  2
_MITTELLINIE
 70
    64
  3

 72
    65
 73
     4
 40
20.0
 49
10.0
 74
     0
 49
-2.0
 74
     0
 49
5.0
 74
     0
 49
-3.0
 74
     0
  0
LTYPE
  5
AB
100
AcDbSymbolTableRecord
100
AcDbLinetypeTableRecord
  2
_PUNKTIERT
 70
    64
  3

 72
    65
 73
     2
 40
0.25
 49
0.0
 74
     0
 49
-0.25
 74
     0
  0
LTYPE
  5
AC
100
AcDbSymbolTableRecord
100
AcDbLinetypeTableRecord
  2
_STRICHPUNKTIERT
 70
    64
  3

 72
    65
 73
     4
 40
8.0
 49
5.0
 74
     0
 49
-1.0
 74
     0
 49
1.0
 74
     0
 49
-1.0
 74
     0
  0
LTYPE
  5
AD
100
AcDbSymbolTableRecord
100
AcDbLinetypeTableRecord
  2
_STRICH-PUNKT-PUNKT
 70
    64
  3

 72
    65
 73
     6
 40
10.0
 49
5.0
 74
     0
 49
-1.0
 74
     0
 49
1.0
 74
     0
 49
-1.0
 74
     0
 49
1.0
 74
     0
 49
-1.0
 74
     0
  0
LTYPE
  5
AE
100
AcDbSymbolTableRecord
100
AcDbLinetypeTableRecord
  2
_STARTPFEIL
 70
    64
  3

 72
    65
 73
     0
 40
0.0
  0
LTYPE
  5
AF
100
AcDbSymbolTableRecord
100
AcDbLinetypeTableRecord
  2
_ENDPFEIL
 70
    64
  3

 72
    65
 73
     0
 40
0.0
  0
LTYPE
  5
B0
100
AcDbSymbolTableRecord
100
AcDbLinetypeTableRecord
  2
_ENDPUNKT
 70
    64
  3

 72
    65
 73
     0
 40
0.0
  0
LTYPE
  5
B1
100
AcDbSymbolTableRecord
100
AcDbLinetypeTableRecord
  2
_PFEIL
 70
    64
  3

 72
    65
 73
     0
 40
0.0
  0
LTYPE
  5
B2
100
AcDbSymbolTableRecord
100
AcDbLinetypeTableRecord
  2
_STITCHLINE
 70
    64
  3

 72
    65
 73
     2
 40
6.0
 49
3.0
 74
     0
 49
-3.0
 74
     0
  0
LTYPE
  5
B3
100
AcDbSymbolTableRecord
100
AcDbLinetypeTableRecord
  2
_MITTELLINIE_2
 70
    64
  3

 72
    65
 73
     4
 40
17.0
 49
10.0
 74
     0
 49
-2.0
 74
     0
 49
3.0
 74
     0
 49
-2.0
 74
     0
  0
LTYPE
  5
B4
100
AcDbSymbolTableRecord
100
AcDbLinetypeTableRecord
  2
_VERDECKTE_LINIE
 70
    64
  3

 72
    65
 73
     2
 40
4.0
 49
2.0
 74
     0
 49
-2.0
 74
     0
  0
LTYPE
  5
B5
100
AcDbSymbolTableRecord
100
AcDbLinetypeTableRecord
  2
_PHANTOMLINIE
 70
    64
  3

 72
    65
 73
     6
 40
21.0
 49
10.0
 74
     0
 49
-2.0
 74
     0
 49
3.0
 74
     0
 49
-1.0
 74
     0
 49
3.0
 74
     0
 49
-2.0
 74
     0
  0
LTYPE
  5
B6
100
AcDbSymbolTableRecord
100
AcDbLinetypeTableRecord
  2
_BRUCHLINIE_1
 70
    64
  3

 72
    65
 73
     0
 40
0.0
  0
LTYPE
  5
B7
100
AcDbSymbolTableRecord
100
AcDbLinetypeTableRecord
  2
_BRUCHLINIE_2
 70
    64
  3

 72
    65
 73
     0
 40
0.0
  0
LTYPE
  5
B8
100
AcDbSymbolTableRecord
100
AcDbLinetypeTableRecord
  2
4_2-0_7-0_7-0_7
 70
    64
  3

 72
    65
 73
     4
 40
6.35
 49
4.233334
 74
     0
 49
-0.705556
 74
     0
 49
0.705556
 74
     0
 49
-0.705556
 74
     0
  0
LTYPE
  5
B9
100
AcDbSymbolTableRecord
100
AcDbLinetypeTableRecord
  2
0_7-0_7
 70
    64
  3

 72
    65
 73
     2
 40
1.411111
 49
0.705556
 74
     0
 49
-0.705556
 74
     0
  0
LTYPE
  5
BA
100
AcDbSymbolTableRecord
100
AcDbLinetypeTableRecord
  2
_DURCHGEHEND
 70
    64
  3

 72
    65
 73
     0
 40
0.0
  0
LTYPE
  5
BB
100
AcDbSymbolTableRecord
100
AcDbLinetypeTableRecord
  2
_GESTRICHELT
 70
    64
  3

 72
    65
 73
     2
 40
10.0
 49
5.0
 74
     0
 49
-5.0
 74
     0
  0
LTYPE
  5
BC
100
AcDbSymbolTableRecord
100
AcDbLinetypeTableRecord
  2
_MITTELLINIE
 70
    64
  3

 72
    65
 73
     4
 40
20.0
 49
10.0
 74
     0
 49
-2.0
 74
     0
 49
5.0
 74
     0
 49
-3.0
 74
     0
  0
LTYPE
  5
BD
100
AcDbSymbolTableRecord
100
AcDbLinetypeTableRecord
  2
_PUNKTIERT
 70
    64
  3

 72
    65
 73
     2
 40
0.25
 49
0.0
 74
     0
 49
-0.25
 74
     0
  0
LTYPE
  5
BE
100
AcDbSymbolTableRecord
100
AcDbLinetypeTableRecord
  2
_STRICHPUNKTIERT
 70
    64
  3

 72
    65
 73
     4
 40
8.0
 49
5.0
 74
     0
 49
-1.0
 74
     0
 49
1.0
 74
     0
 49
-1.0
 74
     0
  0
LTYPE
  5
BF
100
AcDbSymbolTableRecord
100
AcDbLinetypeTableRecord
  2
_STRICH-PUNKT-PUNKT
 70
    64
  3

 72
    65
 73
     6
 40
10.0
 49
5.0
 74
     0
 49
-1.0
 74
     0
 49
1.0
 74
     0
 49
-1.0
 74
     0
 49
1.0
 74
     0
 49
-1.0
 74
     0
  0
LTYPE
  5
C0
100
AcDbSymbolTableRecord
100
AcDbLinetypeTableRecord
  2
_STARTPFEIL
 70
    64
  3

 72
    65
 73
     0
 40
0.0
  0
LTYPE
  5
C1
100
AcDbSymbolTableRecord
100
AcDbLinetypeTableRecord
  2
_ENDPFEIL
 70
    64
  3

 72
    65
 73
     0
 40
0.0
  0
LTYPE
  5
C2
100
AcDbSymbolTableRecord
100
AcDbLinetypeTableRecord
  2
_ENDPUNKT
 70
    64
  3

 72
    65
 73
     0
 40
0.0
  0
LTYPE
  5
C3
100
AcDbSymbolTableRecord
100
AcDbLinetypeTableRecord
  2
_PFEIL
 70
    64
  3

 72
    65
 73
     0
 40
0.0
  0
LTYPE
  5
C4
100
AcDbSymbolTableRecord
100
AcDbLinetypeTableRecord
  2
_STITCHLINE
 70
    64
  3

 72
    65
 73
     2
 40
6.0
 49
3.0
 74
     0
 49
-3.0
 74
     0
  0
LTYPE
  5
C5
100
AcDbSymbolTableRecord
100
AcDbLinetypeTableRecord
  2
_MITTELLINIE_2
 70
    64
  3

 72
    65
 73
     4
 40
17.0
 49
10.0
 74
     0
 49
-2.0
 74
     0
 49
3.0
 74
     0
 49
-2.0
 74
     0
  0
LTYPE
  5
C6
100
AcDbSymbolTableRecord
100
AcDbLinetypeTableRecord
  2
_VERDECKTE_LINIE
 70
    64
  3

 72
    65
 73
     2
 40
4.0
 49
2.0
 74
     0
 49
-2.0
 74
     0
  0
LTYPE
  5
C7
100
AcDbSymbolTableRecord
100
AcDbLinetypeTableRecord
  2
_PHANTOMLINIE
 70
    64
  3

 72
    65
 73
     6
 40
21.0
 49
10.0
 74
     0
 49
-2.0
 74
     0
 49
3.0
 74
     0
 49
-1.0
 74
     0
 49
3.0
 74
     0
 49
-2.0
 74
     0
  0
LTYPE
  5
C8
100
AcDbSymbolTableRecord
100
AcDbLinetypeTableRecord
  2
_BRUCHLINIE_1
 70
    64
  3

 72
    65
 73
     0
 40
0.0
  0
LTYPE
  5
C9
100
AcDbSymbolTableRecord
100
AcDbLinetypeTableRecord
  2
_BRUCHLINIE_2
 70
    64
  3

 72
    65
 73
     0
 40
0.0
  0
LTYPE
  5
CA
100
AcDbSymbolTableRecord
100
AcDbLinetypeTableRecord
  2
_DURCHGEHEND
 70
    64
  3

 72
    65
 73
     0
 40
0.0
  0
LTYPE
  5
CB
100
AcDbSymbolTableRecord
100
AcDbLinetypeTableRecord
  2
_GESTRICHELT
 70
    64
  3

 72
    65
 73
     2
 40
10.0
 49
5.0
 74
     0
 49
-5.0
 74
     0
  0
LTYPE
  5
CC
100
AcDbSymbolTableRecord
100
AcDbLinetypeTableRecord
  2
_MITTELLINIE
 70
    64
  3

 72
    65
 73
     4
 40
20.0
 49
10.0
 74
     0
 49
-2.0
 74
     0
 49
5.0
 74
     0
 49
-3.0
 74
     0
  0
LTYPE
  5
CD
100
AcDbSymbolTableRecord
100
AcDbLinetypeTableRecord
  2
_PUNKTIERT
 70
    64
  3

 72
    65
 73
     2
 40
0.25
 49
0.0
 74
     0
 49
-0.25
 74
     0
  0
LTYPE
  5
CE
100
AcDbSymbolTableRecord
100
AcDbLinetypeTableRecord
  2
_STRICHPUNKTIERT
 70
    64
  3

 72
    65
 73
     4
 40
8.0
 49
5.0
 74
     0
 49
-1.0
 74
     0
 49
1.0
 74
     0
 49
-1.0
 74
     0
  0
LTYPE
  5
CF
100
AcDbSymbolTableRecord
100
AcDbLinetypeTableRecord
  2
_STRICH-PUNKT-PUNKT
 70
    64
  3

 72
    65
 73
     6
 40
10.0
 49
5.0
 74
     0
 49
-1.0
 74
     0
 49
1.0
 74
     0
 49
-1.0
 74
     0
 49
1.0
 74
     0
 49
-1.0
 74
     0
  0
LTYPE
  5
D0
100
AcDbSymbolTableRecord
100
AcDbLinetypeTableRecord
  2
_STARTPFEIL
 70
    64
  3

 72
    65
 73
     0
 40
0.0
  0
LTYPE
  5
D1
100
AcDbSymbolTableRecord
100
AcDbLinetypeTableRecord
  2
_ENDPFEIL
 70
    64
  3

 72
    65
 73
     0
 40
0.0
  0
LTYPE
  5
D2
100
AcDbSymbolTableRecord
100
AcDbLinetypeTableRecord
  2
_ENDPUNKT
 70
    64
  3

 72
    65
 73
     0
 40
0.0
  0
LTYPE
  5
D3
100
AcDbSymbolTableRecord
100
AcDbLinetypeTableRecord
  2
_PFEIL
 70
    64
  3

 72
    65
 73
     0
 40
0.0
  0
LTYPE
  5
D4
100
AcDbSymbolTableRecord
100
AcDbLinetypeTableRecord
  2
_STITCHLINE
 70
    64
  3

 72
    65
 73
     2
 40
6.0
 49
3.0
 74
     0
 49
-3.0
 74
     0
  0
LTYPE
  5
D5
100
AcDbSymbolTableRecord
100
AcDbLinetypeTableRecord
  2
_MITTELLINIE_2
 70
    64
  3

 72
    65
 73
     4
 40
17.0
 49
10.0
 74
     0
 49
-2.0
 74
     0
 49
3.0
 74
     0
 49
-2.0
 74
     0
  0
LTYPE
  5
D6
100
AcDbSymbolTableRecord
100
AcDbLinetypeTableRecord
  2
_VERDECKTE_LINIE
 70
    64
  3

 72
    65
 73
     2
 40
4.0
 49
2.0
 74
     0
 49
-2.0
 74
     0
  0
LTYPE
  5
D7
100
AcDbSymbolTableRecord
100
AcDbLinetypeTableRecord
  2
_PHANTOMLINIE
 70
    64
  3

 72
    65
 73
     6
 40
21.0
 49
10.0
 74
     0
 49
-2.0
 74
     0
 49
3.0
 74
     0
 49
-1.0
 74
     0
 49
3.0
 74
     0
 49
-2.0
 74
     0
  0
LTYPE
  5
D8
100
AcDbSymbolTableRecord
100
AcDbLinetypeTableRecord
  2
_BRUCHLINIE_1
 70
    64
  3

 72
    65
 73
     0
 40
0.0
  0
LTYPE
  5
D9
100
AcDbSymbolTableRecord
100
AcDbLinetypeTableRecord
  2
_BRUCHLINIE_2
 70
    64
  3

 72
    65
 73
     0
 40
0.0
  0
LTYPE
  5
DA
100
AcDbSymbolTableRecord
100
AcDbLinetypeTableRecord
  2
_DURCHGEHEND
 70
    64
  3

 72
    65
 73
     0
 40
0.0
  0
LTYPE
  5
DB
100
AcDbSymbolTableRecord
100
AcDbLinetypeTableRecord
  2
_GESTRICHELT
 70
    64
  3

 72
    65
 73
     2
 40
10.0
 49
5.0
 74
     0
 49
-5.0
 74
     0
  0
LTYPE
  5
DC
100
AcDbSymbolTableRecord
100
AcDbLinetypeTableRecord
  2
_MITTELLINIE
 70
    64
  3

 72
    65
 73
     4
 40
20.0
 49
10.0
 74
     0
 49
-2.0
 74
     0
 49
5.0
 74
     0
 49
-3.0
 74
     0
  0
LTYPE
  5
DD
100
AcDbSymbolTableRecord
100
AcDbLinetypeTableRecord
  2
_PUNKTIERT
 70
    64
  3

 72
    65
 73
     2
 40
0.25
 49
0.0
 74
     0
 49
-0.25
 74
     0
  0
LTYPE
  5
DE
100
AcDbSymbolTableRecord
100
AcDbLinetypeTableRecord
  2
_STRICHPUNKTIERT
 70
    64
  3

 72
    65
 73
     4
 40
8.0
 49
5.0
 74
     0
 49
-1.0
 74
     0
 49
1.0
 74
     0
 49
-1.0
 74
     0
  0
LTYPE
  5
DF
100
AcDbSymbolTableRecord
100
AcDbLinetypeTableRecord
  2
_STRICH-PUNKT-PUNKT
 70
    64
  3

 72
    65
 73
     6
 40
10.0
 49
5.0
 74
     0
 49
-1.0
 74
     0
 49
1.0
 74
     0
 49
-1.0
 74
     0
 49
1.0
 74
     0
 49
-1.0
 74
     0
  0
LTYPE
  5
E0
100
AcDbSymbolTableRecord
100
AcDbLinetypeTableRecord
  2
_STARTPFEIL
 70
    64
  3

 72
    65
 73
     0
 40
0.0
  0
LTYPE
  5
E1
100
AcDbSymbolTableRecord
100
AcDbLinetypeTableRecord
  2
_ENDPFEIL
 70
    64
  3

 72
    65
 73
     0
 40
0.0
  0
LTYPE
  5
E2
100
AcDbSymbolTableRecord
100
AcDbLinetypeTableRecord
  2
_ENDPUNKT
 70
    64
  3

 72
    65
 73
     0
 40
0.0
  0
LTYPE
  5
E3
100
AcDbSymbolTableRecord
100
AcDbLinetypeTableRecord
  2
_PFEIL
 70
    64
  3

 72
    65
 73
     0
 40
0.0
  0
LTYPE
  5
E4
100
AcDbSymbolTableRecord
100
AcDbLinetypeTableRecord
  2
_STITCHLINE
 70
    64
  3

 72
    65
 73
     2
 40
6.0
 49
3.0
 74
     0
 49
-3.0
 74
     0
  0
LTYPE
  5
E5
100
AcDbSymbolTableRecord
100
AcDbLinetypeTableRecord
  2
_MITTELLINIE_2
 70
    64
  3

 72
    65
 73
     4
 40
17.0
 49
10.0
 74
     0
 49
-2.0
 74
     0
 49
3.0
 74
     0
 49
-2.0
 74
     0
  0
LTYPE
  5
E6
100
AcDbSymbolTableRecord
100
AcDbLinetypeTableRecord
  2
_VERDECKTE_LINIE
 70
    64
  3

 72
    65
 73
     2
 40
4.0
 49
2.0
 74
     0
 49
-2.0
 74
     0
  0
LTYPE
  5
E7
100
AcDbSymbolTableRecord
100
AcDbLinetypeTableRecord
  2
_PHANTOMLINIE
 70
    64
  3

 72
    65
 73
     6
 40
21.0
 49
10.0
 74
     0
 49
-2.0
 74
     0
 49
3.0
 74
     0
 49
-1.0
 74
     0
 49
3.0
 74
     0
 49
-2.0
 74
     0
  0
LTYPE
  5
E8
100
AcDbSymbolTableRecord
100
AcDbLinetypeTableRecord
  2
_BRUCHLINIE_1
 70
    64
  3

 72
    65
 73
     0
 40
0.0
  0
LTYPE
  5
E9
100
AcDbSymbolTableRecord
100
AcDbLinetypeTableRecord
  2
_BRUCHLINIE_2
 70
    64
  3

 72
    65
 73
     0
 40
0.0
  0
LTYPE
  5
EA
100
AcDbSymbolTableRecord
100
AcDbLinetypeTableRecord
  2
CONTINUOUS
 70
    64
  3

 72
    65
 73
     0
 40
0.0
  0
LTYPE
  5
EB
100
AcDbSymbolTableRecord
100
AcDbLinetypeTableRecord
  2
PHANTOM
 70
    64
  3

 72
    65
 73
     6
 40
12.7
 49
6.35
 74
     0
 49
-1.27
 74
     0
 49
1.27
 74
     0
 49
-1.27
 74
     0
 49
1.27
 74
     0
 49
-1.27
 74
     0
  0
LTYPE
  5
EC
100
AcDbSymbolTableRecord
100
AcDbLinetypeTableRecord
  2
DOT2
 70
    64
  3

 72
    65
 73
     2
 40
0.635
 49
0.0
 74
     0
 49
-0.635
 74
     0
  0
ENDTAB
  0
TABLE
  2
LAYER
  5
2
100
AcDbSymbolTable
 70
     7
  0
LAYER
  5
14
100
AcDbSymbolTableRecord
100
AcDbLayerTableRecord
  2
0
 70
     0
 62
     7
  6
Continuous
290
     1
370
    -3
390
1D
  0
LAYER
  5
ED
100
AcDbSymbolTableRecord
100
AcDbLayerTableRecord
  2
STANDARDEBENE
 70
     0
 62
     7
  6
Continuous
290
     1
370
    -3
390
1D
  0
LAYER
  5
EE
100
AcDbSymbolTableRecord
100
AcDbLayerTableRecord
  2
ARMATUR
 70
     0
 62
     7
  6
Continuous
290
     1
370
    -3
390
1D
  0
LAYER
  5
EF
100
AcDbSymbolTableRecord
100
AcDbLayerTableRecord
  2
ACHSEN
 70
     0
 62
     7
  6
Continuous
290
     1
370
    -3
390
1D
  0
LAYER
  5
F0
100
AcDbSymbolTableRecord
100
AcDbLayerTableRecord
  2
TEXT
 70
     0
 62
     7
  6
Continuous
290
     1
370
    -3
390
1D
  0
LAYER
  5
F1
100
AcDbSymbolTableRecord
100
AcDbLayerTableRecord
  2
BEMASSUNG
 70
     0
 62
     7
  6
Continuous
290
     1
370
    -3
390
1D
  0
LAYER
  5
F2
100
AcDbSymbolTableRecord
100
AcDbLayerTableRecord
  2
WAND
 70
     0
 62
     7
  6
Continuous
290
     1
370
    -3
390
1D
  0
ENDTAB
  0
TABLE
  2
STYLE
  5
3
100
AcDbSymbolTable
 70
     1
  0
STYLE
  5
17
100
AcDbSymbolTableRecord
100
AcDbTextStyleTableRecord
  2
Standard
 70
     0
 40
0.0
 41
1.0
 50
0.0
 71
     0
 42
0.0
  3
txt
  4

  0
ENDTAB
  0
TABLE
  2
VIEW
  5
5
100
AcDbSymbolTable
 70
     0
  0
ENDTAB
  0
TABLE
  2
UCS
  5
6
100
AcDbSymbolTable
 70
     1
  0
UCS
  5
24
100
AcDbSymbolTableRecord
100
AcDbUCSTableRecord
  2
ISODRAW_6_2
 70
     0
 10
0.0
 20
0.0
 30
0.0
 11
0.0
 21
1.0
 31
0.0
 12
0.0
 22
0.0
 32
1.0
 79
     0
146
0.0
  0
ENDTAB
  0
TABLE
  2
APPID
  5
8
100
AcDbSymbolTable
 70
     1
  0
APPID
  5
16
100
AcDbSymbolTableRecord
100
AcDbRegAppTableRecord
  2
ACAD
 70
     0
  0
ENDTAB
  0
TABLE
  2
DIMSTYLE
  5
9
100
AcDbSymbolTable
 70
     1
100
AcDbDimStyleTable
 71
     0
  0
DIMSTYLE
105
18
100
AcDbSymbolTableRecord
100
AcDbDimStyleTableRecord
  2
Standard
 70
     0
  3

  4

 40
1.0
 41
0.18
 42
0.0625
 43
0.38
 44
0.18
 45
0.0
 46
0.0
 47
0.0
 48
0.0
 71
     0
 72
     0
 73
     1
 74
     1
 75
     0
 76
     0
 77
     0
 78
     0
 79
     0
140
0.18
141
0.09
142
0.0
143
25.4
144
1.0
145
0.0
146
1.0
147
0.09
148
0.0
170
     0
171
     2
172
     0
173
     0
174
     0
175
     0
176
     0
177
     0
178
     0
179
     0
271
     4
272
     4
273
     2
274
     2
275
     0
276
     0
277
     2
278
    46
279
     0
280
     0
281
     0
282
     0
283
     1
284
     0
285
     0
286
     0
288
     0
289
     3
340
17
341
0
342
0
343
0
344
0
371
    -2
372
    -2
  0
ENDTAB
  0
TABLE
  2
BLOCK_RECORD
  5
1
100
AcDbSymbolTable
 70
     0
  0
BLOCK_RECORD
  5
A
100
AcDbSymbolTableRecord
100
AcDbBlockTableRecord
  2
*MODEL_SPACE
340
20
  0
BLOCK_RECORD
  5
B
100
AcDbSymbolTableRecord
100
AcDbBlockTableRecord
  2
*PAPER_SPACE
340
21
  0
ENDTAB
  0
ENDSEC
  0
SECTION
  2
BLOCKS
  0
BLOCK
  5
D
100
AcDbEntity
  8
0
390
0
100
AcDbBlockBegin
  2
*MODEL_SPACE
 70
     0
 10
0.0
 20
0.0
 30
0.0
  3
*MODEL_SPACE
  1

  0
ENDBLK
  5
E
100
AcDbEntity
  8
0
390
0
100
AcDbBlockEnd
  0
BLOCK
  5
F
100
AcDbEntity
 67
     1
  8
0
390
0
100
AcDbBlockBegin
  2
*PAPER_SPACE
 70
     0
 10
0.0
 20
0.0
 30
0.0
  3
*PAPER_SPACE
  1

  0
ENDBLK
  5
10
100
AcDbEntity
 67
     1
  8
0
390
0
100
AcDbBlockEnd
  0
ENDSEC
  0
SECTION
  2
ENTITIES
  0
ARC
  5
F3
100
AcDbEntity
  8
ARMATUR
390
0
  6
DURCHGEHEND
 62
     1
100
AcDbCircle
 10
145.382156
 20
104.583061
 30
0.0
 40
0.375
100
AcDbArc
 50
0.0
 51
26.565001
  0
ARC
  5
F4
100
AcDbEntity
  8
ARMATUR
390
0
  6
DURCHGEHEND
 62
     1
100
AcDbCircle
 10
130.132156
 20
104.583061
 30
0.0
 40
0.375
100
AcDbArc
 50
153.434998
 51
180.0
  0
LINE
  5
F5
100
AcDbEntity
  8
ARMATUR
390
0
  6
DURCHGEHEND
 62
     1
100
AcDbLine
 10
129.757156
 20
104.583061
 30
0.0
 11
129.757156
 21
104.171593
 31
0.0
  0
LINE
  5
F6
100
AcDbEntity
  8
ARMATUR
390
0
  6
DURCHGEHEND
 62
     1
100
AcDbLine
 10
145.757156
 20
104.171593
 30
0.0
 11
145.757156
 21
104.583061
 31
0.0
  0
LINE
  5
F7
100
AcDbEntity
  8
ARMATUR
390
0
  6
DURCHGEHEND
 62
     1
100
AcDbLine
 10
145.71756
 20
104.750771
 30
0.0
 11
145.360809
 21
105.464294
 31
0.0
  0
LINE
  5
F8
100
AcDbEntity
  8
ARMATUR
390
0
  6
DURCHGEHEND
 62
     1
100
AcDbLine
 10
130.153503
 20
105.464294
 30
0.0
 11
129.796738
 21
104.750771
 31
0.0
  0
ARC
  5
F9
100
AcDbEntity
  8
ARMATUR
390
0
  6
DURCHGEHEND
 62
     1
100
AcDbCircle
 10
145.025391
 20
105.296593
 30
0.0
 40
0.375
100
AcDbArc
 50
26.565001
 51
90.0
  0
ARC
  5
FA
100
AcDbEntity
  8
ARMATUR
390
0
  6
DURCHGEHEND
 62
     1
100
AcDbCircle
 10
130.488922
 20
105.296593
 30
0.0
 40
0.375
100
AcDbArc
 50
90.0
 51
153.434998
  0
ARC
  5
FB
100
AcDbEntity
  8
ARMATUR
390
0
  6
DURCHGEHEND
 62
     1
100
AcDbCircle
 10
144.757156
 20
104.555252
 30
0.0
 40
0.5
100
AcDbArc
 50
284.998993
 51
309.88501
  0
ARC
  5
FC
100
AcDbEntity
  8
ARMATUR
390
0
  6
DURCHGEHEND
 62
     1
100
AcDbCircle
 10
130.757156
 20
104.555252
 30
0.0
 40
0.5
100
AcDbArc
 50
230.115997
 51
255.001999
  0
LINE
  5
FD
100
AcDbEntity
  8
ARMATUR
390
0
  6
DURCHGEHEND
 62
     1
100
AcDbLine
 10
130.627747
 20
104.072289
 30
0.0
 11
132.149063
 21
103.664658
 31
0.0
  0
LINE
  5
FE
100
AcDbEntity
  8
ARMATUR
390
0
  6
DURCHGEHEND
 62
     1
100
AcDbLine
 10
143.36525
 20
103.664658
 30
0.0
 11
144.886566
 21
104.072289
 31
0.0
  0
LINE
  5
FF
100
AcDbEntity
  8
ARMATUR
390
0
  6
DURCHGEHEND
 62
     1
100
AcDbLine
 10
143.46965
 20
102.93808
 30
0.0
 11
142.994659
 21
103.065353
 31
0.0
  0
LINE
  5
100
100
AcDbEntity
  8
ARMATUR
390
0
  6
DURCHGEHEND
 62
     1
100
AcDbLine
 10
132.519653
 20
103.065353
 30
0.0
 11
132.044647
 21
102.93808
 31
0.0
  0
LINE
  5
101
100
AcDbEntity
  8
ARMATUR
390
0
  6
DURCHGEHEND
 62
     1
100
AcDbLine
 10
132.044647
 20
98.320831
 30
0.0
 11
132.519653
 21
98.046593
 31
0.0
  0
LINE
  5
102
100
AcDbEntity
  8
ARMATUR
390
0
  6
DURCHGEHEND
 62
     1
100
AcDbLine
 10
142.994659
 20
98.046593
 30
0.0
 11
143.46965
 21
98.320831
 31
0.0
  0
ARC
  5
103
100
AcDbEntity
  8
ARMATUR
390
0
  6
DURCHGEHEND
 62
     1
100
AcDbCircle
 10
132.019653
 20
103.181694
 30
0.0
 40
0.5
100
AcDbArc
 50
0.0
 51
75.0
  0
ARC
  5
104
100
AcDbEntity
  8
ARMATUR
390
0
  6
DURCHGEHEND
 62
     1
100
AcDbCircle
 10
143.494659
 20
103.181694
 30
0.0
 40
0.5
100
AcDbArc
 50
104.999001
 51
179.998993
  0
LINE
  5
105
100
AcDbEntity
  8
ARMATUR
390
0
  6
DURCHGEHEND
 62
     1
100
AcDbLine
 10
132.519653
 20
95.671593
 30
0.0
 11
132.644653
 21
95.546593
 31
0.0
  0
LINE
  5
106
100
AcDbEntity
  8
ARMATUR
390
0
  6
DURCHGEHEND
 62
     1
100
AcDbLine
 10
142.869659
 20
95.546593
 30
0.0
 11
142.994659
 21
95.671593
 31
0.0
  0
LINE
  5
107
100
AcDbEntity
  8
ARMATUR
390
0
  6
DURCHGEHEND
 62
     1
100
AcDbLine
 10
132.519653
 20
98.046593
 30
0.0
 11
132.519653
 21
95.671593
 31
0.0
  0
LINE
  5
108
100
AcDbEntity
  8
ARMATUR
390
0
  6
DURCHGEHEND
 62
     1
100
AcDbLine
 10
142.994659
 20
95.671593
 30
0.0
 11
142.994659
 21
98.046593
 31
0.0
  0
LINE
  5
109
100
AcDbEntity
  8
ARMATUR
390
0
  6
DURCHGEHEND
 62
     1
100
AcDbLine
 10
132.519653
 20
103.181694
 30
0.0
 11
132.519653
 21
103.065353
 31
0.0
  0
LINE
  5
10A
100
AcDbEntity
  8
ARMATUR
390
0
  6
DURCHGEHEND
 62
     1
100
AcDbLine
 10
142.994659
 20
103.065353
 30
0.0
 11
142.994659
 21
103.181694
 31
0.0
  0
LINE
  5
10B
100
AcDbEntity
  8
ARMATUR
390
0
  6
DURCHGEHEND
 62
     1
100
AcDbLine
 10
138.101532
 20
104.171593
 30
0.0
 11
145.757156
 21
104.171593
 31
0.0
  0
LINE
  5
10C
100
AcDbEntity
  8
ARMATUR
390
0
  6
DURCHGEHEND
 62
     1
100
AcDbLine
 10
129.757156
 20
104.171593
 30
0.0
 11
138.101532
 21
104.171593
 31
0.0
  0
LINE
  5
10D
100
AcDbEntity
  8
ARMATUR
390
0
  6
DURCHGEHEND
 62
     1
100
AcDbLine
 10
130.488922
 20
105.671593
 30
0.0
 11
145.025391
 21
105.671593
 31
0.0
  0
LINE
  5
10E
100
AcDbEntity
  8
ARMATUR
390
0
  6
DURCHGEHEND
 62
     1
100
AcDbLine
 10
132.519653
 20
103.065353
 30
0.0
 11
142.994659
 21
103.065353
 31
0.0
  0
POLYLINE
  5
10F
100
AcDbEntity
  8
ARMATUR
390
0
  6
DURCHGEHEND
 62
     1
100
AcDb3dPolyline
 66
     1
 10
0.0
 20
0.0
 30
0.0
 70
    12
 75
     5
  0
VERTEX
  5
110
100
AcDbEntity
  8
0
390
0
100
AcDbVertex
100
AcDb3dPolylineVertex
 10
139.592194
 20
102.861046
 30
0.0
 70
    48
  0
VERTEX
  5
111
100
AcDbEntity
  8
0
390
0
100
AcDbVertex
100
AcDb3dPolylineVertex
 10
139.592194
 20
102.861046
 30
0.0
 70
    40
  0
VERTEX
  5
112
100
AcDbEntity
  8
0
390
0
100
AcDbVertex
100
AcDb3dPolylineVertex
 10
139.132507
 20
102.894341
 30
0.0
 70
    40
  0
VERTEX
  5
113
100
AcDbEntity
  8
0
390
0
100
AcDbVertex
100
AcDb3dPolylineVertex
 10
139.592194
 20
102.861046
 30
0.0
 70
    48
  0
VERTEX
  5
114
100
AcDbEntity
  8
0
390
0
100
AcDbVertex
100
AcDb3dPolylineVertex
 10
139.132507
 20
102.894341
 30
0.0
 70
    48
  0
VERTEX
  5
115
100
AcDbEntity
  8
0
390
0
100
AcDbVertex
100
AcDb3dPolylineVertex
 10
139.132507
 20
102.894341
 30
0.0
 70
    48
  0
VERTEX
  5
116
100
AcDbEntity
  8
0
390
0
100
AcDbVertex
100
AcDb3dPolylineVertex
 10
137.531036
 20
102.936882
 30
0.0
 70
    40
  0
VERTEX
  5
117
100
AcDbEntity
  8
0
390
0
100
AcDbVertex
100
AcDb3dPolylineVertex
 10
139.132507
 20
102.894341
 30
0.0
 70
    48
  0
VERTEX
  5
118
100
AcDbEntity
  8
0
390
0
100
AcDbVertex
100
AcDb3dPolylineVertex
 10
137.531036
 20
102.936882
 30
0.0
 70
    48
  0
VERTEX
  5
119
100
AcDbEntity
  8
0
390
0
100
AcDbVertex
100
AcDb3dPolylineVertex
 10
137.531036
 20
102.936882
 30
0.0
 70
    48
  0
VERTEX
  5
11A
100
AcDbEntity
  8
0
390
0
100
AcDbVertex
100
AcDb3dPolylineVertex
 10
135.922119
 20
102.861046
 30
0.0
 70
    40
  0
VERTEX
  5
11B
100
AcDbEntity
  8
0
390
0
100
AcDbVertex
100
AcDb3dPolylineVertex
 10
137.531036
 20
102.936882
 30
0.0
 70
    48
  0
VERTEX
  5
11C
100
AcDbEntity
  8
0
390
0
100
AcDbVertex
100
AcDb3dPolylineVertex
 10
135.922119
 20
102.861046
 30
0.0
 70
    48
  0
VERTEX
  5
11D
100
AcDbEntity
  8
0
390
0
100
AcDbVertex
100
AcDb3dPolylineVertex
 10
135.922119
 20
102.861046
 30
0.0
 70
    48
  0
SEQEND
  5
11E
100
AcDbEntity
  8
0
390
0
  0
LINE
  5
11F
100
AcDbEntity
  8
ARMATUR
390
0
  6
DURCHGEHEND
 62
     1
100
AcDbLine
 10
135.015381
 20
102.861046
 30
0.0
 11
135.922119
 21
102.861046
 31
0.0
  0
POLYLINE
  5
120
100
AcDbEntity
  8
ARMATUR
390
0
  6
DURCHGEHEND
 62
     1
100
AcDb3dPolyline
 66
     1
 10
0.0
 20
0.0
 30
0.0
 70
    12
 75
     5
  0
VERTEX
  5
121
100
AcDbEntity
  8
0
390
0
100
AcDbVertex
100
AcDb3dPolylineVertex
 10
135.015381
 20
102.861046
 30
0.0
 70
    48
  0
VERTEX
  5
122
100
AcDbEntity
  8
0
390
0
100
AcDbVertex
100
AcDb3dPolylineVertex
 10
135.015381
 20
102.861046
 30
0.0
 70
    40
  0
VERTEX
  5
123
100
AcDbEntity
  8
0
390
0
100
AcDbVertex
100
AcDb3dPolylineVertex
 10
133.722275
 20
102.93808
 30
0.0
 70
    40
  0
VERTEX
  5
124
100
AcDbEntity
  8
0
390
0
100
AcDbVertex
100
AcDb3dPolylineVertex
 10
135.015381
 20
102.861046
 30
0.0
 70
    48
  0
VERTEX
  5
125
100
AcDbEntity
  8
0
390
0
100
AcDbVertex
100
AcDb3dPolylineVertex
 10
133.722275
 20
102.93808
 30
0.0
 70
    48
  0
VERTEX
  5
126
100
AcDbEntity
  8
0
390
0
100
AcDbVertex
100
AcDb3dPolylineVertex
 10
133.722275
 20
102.93808
 30
0.0
 70
    48
  0
VERTEX
  5
127
100
AcDbEntity
  8
0
390
0
100
AcDbVertex
100
AcDb3dPolylineVertex
 10
132.420242
 20
102.861046
 30
0.0
 70
    40
  0
VERTEX
  5
128
100
AcDbEntity
  8
0
390
0
100
AcDbVertex
100
AcDb3dPolylineVertex
 10
133.722275
 20
102.93808
 30
0.0
 70
    48
  0
VERTEX
  5
129
100
AcDbEntity
  8
0
390
0
100
AcDbVertex
100
AcDb3dPolylineVertex
 10
132.420242
 20
102.861046
 30
0.0
 70
    48
  0
VERTEX
  5
12A
100
AcDbEntity
  8
0
390
0
100
AcDbVertex
100
AcDb3dPolylineVertex
 10
132.420242
 20
102.861046
 30
0.0
 70
    48
  0
SEQEND
  5
12B
100
AcDbEntity
  8
0
390
0
  0
LINE
  5
12C
100
AcDbEntity
  8
ARMATUR
390
0
  6
DURCHGEHEND
 62
     1
100
AcDbLine
 10
132.044647
 20
102.861046
 30
0.0
 11
132.420242
 21
102.861046
 31
0.0
  0
LINE
  5
12D
100
AcDbEntity
  8
ARMATUR
390
0
  6
DURCHGEHEND
 62
     1
100
AcDbLine
 10
132.044647
 20
102.861046
 30
0.0
 11
132.044647
 21
102.930878
 31
0.0
  0
LINE
  5
12E
100
AcDbEntity
  8
ARMATUR
390
0
  6
DURCHGEHEND
 62
     1
100
AcDbLine
 10
143.46965
 20
102.930611
 30
0.0
 11
143.46965
 21
102.861046
 31
0.0
  0
LINE
  5
12F
100
AcDbEntity
  8
ARMATUR
390
0
  6
DURCHGEHEND
 62
     1
100
AcDbLine
 10
143.09407
 20
102.861046
 30
0.0
 11
143.46965
 21
102.861046
 31
0.0
  0
POLYLINE
  5
130
100
AcDbEntity
  8
ARMATUR
390
0
  6
DURCHGEHEND
 62
     1
100
AcDb3dPolyline
 66
     1
 10
0.0
 20
0.0
 30
0.0
 70
    12
 75
     5
  0
VERTEX
  5
131
100
AcDbEntity
  8
0
390
0
100
AcDbVertex
100
AcDb3dPolylineVertex
 10
143.09407
 20
102.861046
 30
0.0
 70
    48
  0
VERTEX
  5
132
100
AcDbEntity
  8
0
390
0
100
AcDbVertex
100
AcDb3dPolylineVertex
 10
143.09407
 20
102.861046
 30
0.0
 70
    40
  0
VERTEX
  5
133
100
AcDbEntity
  8
0
390
0
100
AcDbVertex
100
AcDb3dPolylineVertex
 10
141.800964
 20
102.93808
 30
0.0
 70
    40
  0
VERTEX
  5
134
100
AcDbEntity
  8
0
390
0
100
AcDbVertex
100
AcDb3dPolylineVertex
 10
143.09407
 20
102.861046
 30
0.0
 70
    48
  0
VERTEX
  5
135
100
AcDbEntity
  8
0
390
0
100
AcDbVertex
100
AcDb3dPolylineVertex
 10
141.800964
 20
102.93808
 30
0.0
 70
    48
  0
VERTEX
  5
136
100
AcDbEntity
  8
0
390
0
100
AcDbVertex
100
AcDb3dPolylineVertex
 10
141.800964
 20
102.93808
 30
0.0
 70
    48
  0
VERTEX
  5
137
100
AcDbEntity
  8
0
390
0
100
AcDbVertex
100
AcDb3dPolylineVertex
 10
140.498932
 20
102.861046
 30
0.0
 70
    40
  0
VERTEX
  5
138
100
AcDbEntity
  8
0
390
0
100
AcDbVertex
100
AcDb3dPolylineVertex
 10
141.800964
 20
102.93808
 30
0.0
 70
    48
  0
VERTEX
  5
139
100
AcDbEntity
  8
0
390
0
100
AcDbVertex
100
AcDb3dPolylineVertex
 10
140.498932
 20
102.861046
 30
0.0
 70
    48
  0
VERTEX
  5
13A
100
AcDbEntity
  8
0
390
0
100
AcDbVertex
100
AcDb3dPolylineVertex
 10
140.498932
 20
102.861046
 30
0.0
 70
    48
  0
SEQEND
  5
13B
100
AcDbEntity
  8
0
390
0
  0
LINE
  5
13C
100
AcDbEntity
  8
ARMATUR
390
0
  6
DURCHGEHEND
 62
     1
100
AcDbLine
 10
139.592194
 20
102.861046
 30
0.0
 11
140.498932
 21
102.861046
 31
0.0
  0
LINE
  5
13D
100
AcDbEntity
  8
ARMATUR
390
0
  6
DURCHGEHEND
 62
     1
100
AcDbLine
 10
132.519653
 20
98.046593
 30
0.0
 11
142.994659
 21
98.046593
 31
0.0
  0
POLYLINE
  5
13E
100
AcDbEntity
  8
ARMATUR
390
0
  6
DURCHGEHEND
 62
     1
100
AcDb3dPolyline
 66
     1
 10
0.0
 20
0.0
 30
0.0
 70
    12
 75
     5
  0
VERTEX
  5
13F
100
AcDbEntity
  8
0
390
0
100
AcDbVertex
100
AcDb3dPolylineVertex
 10
135.922119
 20
98.486816
 30
0.0
 70
    48
  0
VERTEX
  5
140
100
AcDbEntity
  8
0
390
0
100
AcDbVertex
100
AcDb3dPolylineVertex
 10
135.922119
 20
98.486816
 30
0.0
 70
    40
  0
VERTEX
  5
141
100
AcDbEntity
  8
0
390
0
100
AcDbVertex
100
AcDb3dPolylineVertex
 10
135.950714
 20
98.481804
 30
0.0
 70
    40
  0
VERTEX
  5
142
100
AcDbEntity
  8
0
390
0
100
AcDbVertex
100
AcDb3dPolylineVertex
 10
135.922119
 20
98.486816
 30
0.0
 70
    48
  0
VERTEX
  5
143
100
AcDbEntity
  8
0
390
0
100
AcDbVertex
100
AcDb3dPolylineVertex
 10
135.950714
 20
98.481804
 30
0.0
 70
    48
  0
VERTEX
  5
144
100
AcDbEntity
  8
0
390
0
100
AcDbVertex
100
AcDb3dPolylineVertex
 10
135.950714
 20
98.481804
 30
0.0
 70
    48
  0
VERTEX
  5
145
100
AcDbEntity
  8
0
390
0
100
AcDbVertex
100
AcDb3dPolylineVertex
 10
136.733765
 20
98.37352
 30
0.0
 70
    40
  0
VERTEX
  5
146
100
AcDbEntity
  8
0
390
0
100
AcDbVertex
100
AcDb3dPolylineVertex
 10
135.950714
 20
98.481804
 30
0.0
 70
    48
  0
VERTEX
  5
147
100
AcDbEntity
  8
0
390
0
100
AcDbVertex
100
AcDb3dPolylineVertex
 10
136.733765
 20
98.37352
 30
0.0
 70
    48
  0
VERTEX
  5
148
100
AcDbEntity
  8
0
390
0
100
AcDbVertex
100
AcDb3dPolylineVertex
 10
136.733765
 20
98.37352
 30
0.0
 70
    48
  0
VERTEX
  5
149
100
AcDbEntity
  8
0
390
0
100
AcDbVertex
100
AcDb3dPolylineVertex
 10
137.522568
 20
98.323608
 30
0.0
 70
    40
  0
VERTEX
  5
14A
100
AcDbEntity
  8
0
390
0
100
AcDbVertex
100
AcDb3dPolylineVertex
 10
136.733765
 20
98.37352
 30
0.0
 70
    48
  0
VERTEX
  5
14B
100
AcDbEntity
  8
0
390
0
100
AcDbVertex
100
AcDb3dPolylineVertex
 10
137.522568
 20
98.323608
 30
0.0
 70
    48
  0
VERTEX
  5
14C
100
AcDbEntity
  8
0
390
0
100
AcDbVertex
100
AcDb3dPolylineVertex
 10
137.522568
 20
98.323608
 30
0.0
 70
    48
  0
VERTEX
  5
14D
100
AcDbEntity
  8
0
390
0
100
AcDbVertex
100
AcDb3dPolylineVertex
 10
138.332062
 20
98.337738
 30
0.0
 70
    40
  0
VERTEX
  5
14E
100
AcDbEntity
  8
0
390
0
100
AcDbVertex
100
AcDb3dPolylineVertex
 10
137.522568
 20
98.323608
 30
0.0
 70
    48
  0
VERTEX
  5
14F
100
AcDbEntity
  8
0
390
0
100
AcDbVertex
100
AcDb3dPolylineVertex
 10
138.332062
 20
98.337738
 30
0.0
 70
    48
  0
VERTEX
  5
150
100
AcDbEntity
  8
0
390
0
100
AcDbVertex
100
AcDb3dPolylineVertex
 10
138.332062
 20
98.337738
 30
0.0
 70
    48
  0
VERTEX
  5
151
100
AcDbEntity
  8
0
390
0
100
AcDbVertex
100
AcDb3dPolylineVertex
 10
139.138
 20
98.415817
 30
0.0
 70
    40
  0
VERTEX
  5
152
100
AcDbEntity
  8
0
390
0
100
AcDbVertex
100
AcDb3dPolylineVertex
 10
138.332062
 20
98.337738
 30
0.0
 70
    48
  0
VERTEX
  5
153
100
AcDbEntity
  8
0
390
0
100
AcDbVertex
100
AcDb3dPolylineVertex
 10
139.138
 20
98.415817
 30
0.0
 70
    48
  0
VERTEX
  5
154
100
AcDbEntity
  8
0
390
0
100
AcDbVertex
100
AcDb3dPolylineVertex
 10
139.138
 20
98.415817
 30
0.0
 70
    48
  0
VERTEX
  5
155
100
AcDbEntity
  8
0
390
0
100
AcDbVertex
100
AcDb3dPolylineVertex
 10
139.592194
 20
98.486816
 30
0.0
 70
    40
  0
VERTEX
  5
156
100
AcDbEntity
  8
0
390
0
100
AcDbVertex
100
AcDb3dPolylineVertex
 10
139.138
 20
98.415817
 30
0.0
 70
    48
  0
VERTEX
  5
157
100
AcDbEntity
  8
0
390
0
100
AcDbVertex
100
AcDb3dPolylineVertex
 10
139.592194
 20
98.486816
 30
0.0
 70
    48
  0
VERTEX
  5
158
100
AcDbEntity
  8
0
390
0
100
AcDbVertex
100
AcDb3dPolylineVertex
 10
139.592194
 20
98.486816
 30
0.0
 70
    48
  0
SEQEND
  5
159
100
AcDbEntity
  8
0
390
0
  0
LINE
  5
15A
100
AcDbEntity
  8
ARMATUR
390
0
  6
DURCHGEHEND
 62
     1
100
AcDbLine
 10
140.498932
 20
98.486816
 30
0.0
 11
139.592194
 21
98.486816
 31
0.0
  0
POLYLINE
  5
15B
100
AcDbEntity
  8
ARMATUR
390
0
  6
DURCHGEHEND
 62
     1
100
AcDb3dPolyline
 66
     1
 10
0.0
 20
0.0
 30
0.0
 70
    12
 75
     5
  0
VERTEX
  5
15C
100
AcDbEntity
  8
0
390
0
100
AcDbVertex
100
AcDb3dPolylineVertex
 10
140.498932
 20
98.486816
 30
0.0
 70
    48
  0
VERTEX
  5
15D
100
AcDbEntity
  8
0
390
0
100
AcDbVertex
100
AcDb3dPolylineVertex
 10
140.498932
 20
98.486816
 30
0.0
 70
    40
  0
VERTEX
  5
15E
100
AcDbEntity
  8
0
390
0
100
AcDbVertex
100
AcDb3dPolylineVertex
 10
141.062149
 20
98.374893
 30
0.0
 70
    40
  0
VERTEX
  5
15F
100
AcDbEntity
  8
0
390
0
100
AcDbVertex
100
AcDb3dPolylineVertex
 10
140.498932
 20
98.486816
 30
0.0
 70
    48
  0
VERTEX
  5
160
100
AcDbEntity
  8
0
390
0
100
AcDbVertex
100
AcDb3dPolylineVertex
 10
141.062149
 20
98.374893
 30
0.0
 70
    48
  0
VERTEX
  5
161
100
AcDbEntity
  8
0
390
0
100
AcDbVertex
100
AcDb3dPolylineVertex
 10
141.062149
 20
98.374893
 30
0.0
 70
    48
  0
VERTEX
  5
162
100
AcDbEntity
  8
0
390
0
100
AcDbVertex
100
AcDb3dPolylineVertex
 10
141.632935
 20
98.323532
 30
0.0
 70
    40
  0
VERTEX
  5
163
100
AcDbEntity
  8
0
390
0
100
AcDbVertex
100
AcDb3dPolylineVertex
 10
141.062149
 20
98.374893
 30
0.0
 70
    48
  0
VERTEX
  5
164
100
AcDbEntity
  8
0
390
0
100
AcDbVertex
100
AcDb3dPolylineVertex
 10
141.632935
 20
98.323532
 30
0.0
 70
    48
  0
VERTEX
  5
165
100
AcDbEntity
  8
0
390
0
100
AcDbVertex
100
AcDb3dPolylineVertex
 10
141.632935
 20
98.323532
 30
0.0
 70
    48
  0
VERTEX
  5
166
100
AcDbEntity
  8
0
390
0
100
AcDbVertex
100
AcDb3dPolylineVertex
 10
142.215637
 20
98.338539
 30
0.0
 70
    40
  0
VERTEX
  5
167
100
AcDbEntity
  8
0
390
0
100
AcDbVertex
100
AcDb3dPolylineVertex
 10
141.632935
 20
98.323532
 30
0.0
 70
    48
  0
VERTEX
  5
168
100
AcDbEntity
  8
0
390
0
100
AcDbVertex
100
AcDb3dPolylineVertex
 10
142.215637
 20
98.338539
 30
0.0
 70
    48
  0
VERTEX
  5
169
100
AcDbEntity
  8
0
390
0
100
AcDbVertex
100
AcDb3dPolylineVertex
 10
142.215637
 20
98.338539
 30
0.0
 70
    48
  0
VERTEX
  5
16A
100
AcDbEntity
  8
0
390
0
100
AcDbVertex
100
AcDb3dPolylineVertex
 10
142.799469
 20
98.420982
 30
0.0
 70
    40
  0
VERTEX
  5
16B
100
AcDbEntity
  8
0
390
0
100
AcDbVertex
100
AcDb3dPolylineVertex
 10
142.215637
 20
98.338539
 30
0.0
 70
    48
  0
VERTEX
  5
16C
100
AcDbEntity
  8
0
390
0
100
AcDbVertex
100
AcDb3dPolylineVertex
 10
142.799469
 20
98.420982
 30
0.0
 70
    48
  0
VERTEX
  5
16D
100
AcDbEntity
  8
0
390
0
100
AcDbVertex
100
AcDb3dPolylineVertex
 10
142.799469
 20
98.420982
 30
0.0
 70
    48
  0
VERTEX
  5
16E
100
AcDbEntity
  8
0
390
0
100
AcDbVertex
100
AcDb3dPolylineVertex
 10
143.09407
 20
98.486816
 30
0.0
 70
    40
  0
VERTEX
  5
16F
100
AcDbEntity
  8
0
390
0
100
AcDbVertex
100
AcDb3dPolylineVertex
 10
142.799469
 20
98.420982
 30
0.0
 70
    48
  0
VERTEX
  5
170
100
AcDbEntity
  8
0
390
0
100
AcDbVertex
100
AcDb3dPolylineVertex
 10
143.09407
 20
98.486816
 30
0.0
 70
    48
  0
VERTEX
  5
171
100
AcDbEntity
  8
0
390
0
100
AcDbVertex
100
AcDb3dPolylineVertex
 10
143.09407
 20
98.486816
 30
0.0
 70
    48
  0
SEQEND
  5
172
100
AcDbEntity
  8
0
390
0
  0
LINE
  5
173
100
AcDbEntity
  8
ARMATUR
390
0
  6
DURCHGEHEND
 62
     1
100
AcDbLine
 10
143.46965
 20
98.486816
 30
0.0
 11
143.09407
 21
98.486816
 31
0.0
  0
LINE
  5
174
100
AcDbEntity
  8
ARMATUR
390
0
  6
DURCHGEHEND
 62
     1
100
AcDbLine
 10
143.46965
 20
98.486816
 30
0.0
 11
143.46965
 21
98.326744
 31
0.0
  0
LINE
  5
175
100
AcDbEntity
  8
ARMATUR
390
0
  6
DURCHGEHEND
 62
     1
100
AcDbLine
 10
132.044647
 20
98.327698
 30
0.0
 11
132.044647
 21
98.486816
 31
0.0
  0
LINE
  5
176
100
AcDbEntity
  8
ARMATUR
390
0
  6
DURCHGEHEND
 62
     1
100
AcDbLine
 10
132.420242
 20
98.486816
 30
0.0
 11
132.044647
 21
98.486816
 31
0.0
  0
POLYLINE
  5
177
100
AcDbEntity
  8
ARMATUR
390
0
  6
DURCHGEHEND
 62
     1
100
AcDb3dPolyline
 66
     1
 10
0.0
 20
0.0
 30
0.0
 70
    12
 75
     5
  0
VERTEX
  5
178
100
AcDbEntity
  8
0
390
0
100
AcDbVertex
100
AcDb3dPolylineVertex
 10
132.420242
 20
98.486816
 30
0.0
 70
    48
  0
VERTEX
  5
179
100
AcDbEntity
  8
0
390
0
100
AcDbVertex
100
AcDb3dPolylineVertex
 10
132.420242
 20
98.486816
 30
0.0
 70
    40
  0
VERTEX
  5
17A
100
AcDbEntity
  8
0
390
0
100
AcDbVertex
100
AcDb3dPolylineVertex
 10
132.983459
 20
98.374893
 30
0.0
 70
    40
  0
VERTEX
  5
17B
100
AcDbEntity
  8
0
390
0
100
AcDbVertex
100
AcDb3dPolylineVertex
 10
132.420242
 20
98.486816
 30
0.0
 70
    48
  0
VERTEX
  5
17C
100
AcDbEntity
  8
0
390
0
100
AcDbVertex
100
AcDb3dPolylineVertex
 10
132.983459
 20
98.374893
 30
0.0
 70
    48
  0
VERTEX
  5
17D
100
AcDbEntity
  8
0
390
0
100
AcDbVertex
100
AcDb3dPolylineVertex
 10
132.983459
 20
98.374893
 30
0.0
 70
    48
  0
VERTEX
  5
17E
100
AcDbEntity
  8
0
390
0
100
AcDbVertex
100
AcDb3dPolylineVertex
 10
133.55423
 20
98.323532
 30
0.0
 70
    40
  0
VERTEX
  5
17F
100
AcDbEntity
  8
0
390
0
100
AcDbVertex
100
AcDb3dPolylineVertex
 10
132.983459
 20
98.374893
 30
0.0
 70
    48
  0
VERTEX
  5
180
100
AcDbEntity
  8
0
390
0
100
AcDbVertex
100
AcDb3dPolylineVertex
 10
133.55423
 20
98.323532
 30
0.0
 70
    48
  0
VERTEX
  5
181
100
AcDbEntity
  8
0
390
0
100
AcDbVertex
100
AcDb3dPolylineVertex
 10
133.55423
 20
98.323532
 30
0.0
 70
    48
  0
VERTEX
  5
182
100
AcDbEntity
  8
0
390
0
100
AcDbVertex
100
AcDb3dPolylineVertex
 10
134.136948
 20
98.338539
 30
0.0
 70
    40
  0
VERTEX
  5
183
100
AcDbEntity
  8
0
390
0
100
AcDbVertex
100
AcDb3dPolylineVertex
 10
133.55423
 20
98.323532
 30
0.0
 70
    48
  0
VERTEX
  5
184
100
AcDbEntity
  8
0
390
0
100
AcDbVertex
100
AcDb3dPolylineVertex
 10
134.136948
 20
98.338539
 30
0.0
 70
    48
  0
VERTEX
  5
185
100
AcDbEntity
  8
0
390
0
100
AcDbVertex
100
AcDb3dPolylineVertex
 10
134.136948
 20
98.338539
 30
0.0
 70
    48
  0
VERTEX
  5
186
100
AcDbEntity
  8
0
390
0
100
AcDbVertex
100
AcDb3dPolylineVertex
 10
134.720779
 20
98.420982
 30
0.0
 70
    40
  0
VERTEX
  5
187
100
AcDbEntity
  8
0
390
0
100
AcDbVertex
100
AcDb3dPolylineVertex
 10
134.136948
 20
98.338539
 30
0.0
 70
    48
  0
VERTEX
  5
188
100
AcDbEntity
  8
0
390
0
100
AcDbVertex
100
AcDb3dPolylineVertex
 10
134.720779
 20
98.420982
 30
0.0
 70
    48
  0
VERTEX
  5
189
100
AcDbEntity
  8
0
390
0
100
AcDbVertex
100
AcDb3dPolylineVertex
 10
134.720779
 20
98.420982
 30
0.0
 70
    48
  0
VERTEX
  5
18A
100
AcDbEntity
  8
0
390
0
100
AcDbVertex
100
AcDb3dPolylineVertex
 10
135.015381
 20
98.486816
 30
0.0
 70
    40
  0
VERTEX
  5
18B
100
AcDbEntity
  8
0
390
0
100
AcDbVertex
100
AcDb3dPolylineVertex
 10
134.720779
 20
98.420982
 30
0.0
 70
    48
  0
VERTEX
  5
18C
100
AcDbEntity
  8
0
390
0
100
AcDbVertex
100
AcDb3dPolylineVertex
 10
135.015381
 20
98.486816
 30
0.0
 70
    48
  0
VERTEX
  5
18D
100
AcDbEntity
  8
0
390
0
100
AcDbVertex
100
AcDb3dPolylineVertex
 10
135.015381
 20
98.486816
 30
0.0
 70
    48
  0
SEQEND
  5
18E
100
AcDbEntity
  8
0
390
0
  0
LINE
  5
18F
100
AcDbEntity
  8
ARMATUR
390
0
  6
DURCHGEHEND
 62
     1
100
AcDbLine
 10
135.922119
 20
98.486816
 30
0.0
 11
135.015381
 21
98.486816
 31
0.0
  0
LINE
  5
190
100
AcDbEntity
  8
ARMATUR
390
0
  6
DURCHGEHEND
 62
     1
100
AcDbLine
 10
135.922119
 20
102.861046
 30
0.0
 11
135.922119
 21
98.486816
 31
0.0
  0
LINE
  5
191
100
AcDbEntity
  8
ARMATUR
390
0
  6
DURCHGEHEND
 62
     1
100
AcDbLine
 10
135.015381
 20
98.486816
 30
0.0
 11
135.015381
 21
102.861046
 31
0.0
  0
LINE
  5
192
100
AcDbEntity
  8
ARMATUR
390
0
  6
DURCHGEHEND
 62
     1
100
AcDbLine
 10
139.592194
 20
98.486816
 30
0.0
 11
139.592194
 21
102.861046
 31
0.0
  0
LINE
  5
193
100
AcDbEntity
  8
ARMATUR
390
0
  6
DURCHGEHEND
 62
     1
100
AcDbLine
 10
140.498932
 20
102.861046
 30
0.0
 11
140.498932
 21
98.486816
 31
0.0
  0
LINE
  5
194
100
AcDbEntity
  8
ARMATUR
390
0
  6
DURCHGEHEND
 62
     1
100
AcDbLine
 10
142.869659
 20
95.546593
 30
0.0
 11
132.644653
 21
95.546593
 31
0.0
  0
LINE
  5
195
100
AcDbEntity
  8
ARMATUR
390
0
  6
DURCHGEHEND
 62
     1
100
AcDbLine
 10
132.044647
 20
98.486816
 30
0.0
 11
132.044647
 21
102.861046
 31
0.0
  0
LINE
  5
196
100
AcDbEntity
  8
ARMATUR
390
0
  6
DURCHGEHEND
 62
     1
100
AcDbLine
 10
143.46965
 20
102.861046
 30
0.0
 11
143.46965
 21
98.486816
 31
0.0
  0
LINE
  5
197
100
AcDbEntity
  8
ARMATUR
390
0
  6
DURCHGEHEND
 62
     3
100
AcDbLine
 10
132.962357
 20
98.005615
 30
0.0
 11
132.962357
 21
95.524033
 31
0.0
  0
LINE
  5
198
100
AcDbEntity
  8
ARMATUR
390
0
  6
DURCHGEHEND
 62
     3
100
AcDbLine
 10
142.43692
 20
97.990433
 30
0.0
 11
142.43692
 21
95.50885
 31
0.0
  0
LINE
  5
199
100
AcDbEntity
  8
ARMATUR
390
0
  6
DURCHGEHEND
 62
     1
100
AcDbLine
 10
129.807159
 20
118.147163
 30
0.0
 11
129.807159
 21
117.822159
 31
0.0
  0
LINE
  5
19A
100
AcDbEntity
  8
ARMATUR
390
0
  6
DURCHGEHEND
 62
     1
100
AcDbLine
 10
145.557159
 20
117.822159
 30
0.0
 11
145.557159
 21
118.147163
 31
0.0
  0
LINE
  5
19B
100
AcDbEntity
  8
ARMATUR
390
0
  6
DURCHGEHEND
 62
     1
100
AcDbLine
 10
129.807159
 20
117.822159
 30
0.0
 11
131.851547
 21
117.078064
 31
0.0
  0
LINE
  5
19C
100
AcDbEntity
  8
ARMATUR
390
0
  6
DURCHGEHEND
 62
     1
100
AcDbLine
 10
143.512772
 20
117.078064
 30
0.0
 11
145.557159
 21
117.822159
 31
0.0
  0
ARC
  5
19D
100
AcDbEntity
  8
ARMATUR
390
0
  6
DURCHGEHEND
 62
     1
100
AcDbCircle
 10
143.769272
 20
116.373291
 30
0.0
 40
0.75
100
AcDbArc
 50
110.000999
 51
153.317001
  0
ARC
  5
19E
100
AcDbEntity
  8
ARMATUR
390
0
  6
DURCHGEHEND
 62
     1
100
AcDbCircle
 10
131.595032
 20
116.373291
 30
0.0
 40
0.750008
100
AcDbArc
 50
26.684
 51
70.0
  0
LINE
  5
19F
100
AcDbEntity
  8
ARMATUR
390
0
  6
DURCHGEHEND
 62
     1
100
AcDbLine
 10
132.494659
 20
109.897163
 30
0.0
 11
132.494659
 21
105.671593
 31
0.0
  0
LINE
  5
1A0
100
AcDbEntity
  8
ARMATUR
390
0
  6
DURCHGEHEND
 62
     1
100
AcDbLine
 10
132.494659
 20
115.236198
 30
0.0
 11
132.494659
 21
112.897163
 31
0.0
  0
LINE
  5
1A1
100
AcDbEntity
  8
ARMATUR
390
0
  6
DURCHGEHEND
 62
     1
100
AcDbLine
 10
142.869659
 20
112.897163
 30
0.0
 11
142.869659
 21
115.238258
 31
0.0
  0
LINE
  5
1A2
100
AcDbEntity
  8
ARMATUR
390
0
  6
DURCHGEHEND
 62
     1
100
AcDbLine
 10
142.869659
 20
105.671593
 30
0.0
 11
142.869659
 21
109.897163
 31
0.0
  0
LINE
  5
1A3
100
AcDbEntity
  8
ARMATUR
390
0
  6
DURCHGEHEND
 62
     1
100
AcDbLine
 10
137.682159
 20
118.147163
 30
0.0
 11
145.557159
 21
118.147163
 31
0.0
  0
LINE
  5
1A4
100
AcDbEntity
  8
ARMATUR
390
0
  6
DURCHGEHEND
 62
     1
100
AcDbLine
 10
129.807159
 20
118.147163
 30
0.0
 11
137.682159
 21
118.147163
 31
0.0
  0
POLYLINE
  5
1A5
100
AcDbEntity
  8
ARMATUR
390
0
  6
DURCHGEHEND
 62
     1
100
AcDb3dPolyline
 66
     1
 10
0.0
 20
0.0
 30
0.0
 70
    12
 75
     5
  0
VERTEX
  5
1A6
100
AcDbEntity
  8
0
390
0
100
AcDbVertex
100
AcDb3dPolylineVertex
 10
136.807159
 20
109.897163
 30
0.0
 70
    48
  0
VERTEX
  5
1A7
100
AcDbEntity
  8
0
390
0
100
AcDbVertex
100
AcDb3dPolylineVertex
 10
136.807159
 20
109.897163
 30
0.0
 70
    40
  0
VERTEX
  5
1A8
100
AcDbEntity
  8
0
390
0
100
AcDbVertex
100
AcDb3dPolylineVertex
 10
136.545181
 20
109.932091
 30
0.0
 70
    40
  0
VERTEX
  5
1A9
100
AcDbEntity
  8
0
390
0
100
AcDbVertex
100
AcDb3dPolylineVertex
 10
136.807159
 20
109.897163
 30
0.0
 70
    48
  0
VERTEX
  5
1AA
100
AcDbEntity
  8
0
390
0
100
AcDbVertex
100
AcDb3dPolylineVertex
 10
136.545181
 20
109.932091
 30
0.0
 70
    48
  0
VERTEX
  5
1AB
100
AcDbEntity
  8
0
390
0
100
AcDbVertex
100
AcDb3dPolylineVertex
 10
136.545181
 20
109.932091
 30
0.0
 70
    48
  0
VERTEX
  5
1AC
100
AcDbEntity
  8
0
390
0
100
AcDbVertex
100
AcDb3dPolylineVertex
 10
136.242523
 20
110.071823
 30
0.0
 70
    40
  0
VERTEX
  5
1AD
100
AcDbEntity
  8
0
390
0
100
AcDbVertex
100
AcDb3dPolylineVertex
 10
136.545181
 20
109.932091
 30
0.0
 70
    48
  0
VERTEX
  5
1AE
100
AcDbEntity
  8
0
390
0
100
AcDbVertex
100
AcDb3dPolylineVertex
 10
136.242523
 20
110.071823
 30
0.0
 70
    48
  0
VERTEX
  5
1AF
100
AcDbEntity
  8
0
390
0
100
AcDbVertex
100
AcDb3dPolylineVertex
 10
136.242523
 20
110.071823
 30
0.0
 70
    48
  0
VERTEX
  5
1B0
100
AcDbEntity
  8
0
390
0
100
AcDbVertex
100
AcDb3dPolylineVertex
 10
135.99617
 20
110.312111
 30
0.0
 70
    40
  0
VERTEX
  5
1B1
100
AcDbEntity
  8
0
390
0
100
AcDbVertex
100
AcDb3dPolylineVertex
 10
136.242523
 20
110.071823
 30
0.0
 70
    48
  0
VERTEX
  5
1B2
100
AcDbEntity
  8
0
390
0
100
AcDbVertex
100
AcDb3dPolylineVertex
 10
135.99617
 20
110.312111
 30
0.0
 70
    48
  0
VERTEX
  5
1B3
100
AcDbEntity
  8
0
390
0
100
AcDbVertex
100
AcDb3dPolylineVertex
 10
135.99617
 20
110.312111
 30
0.0
 70
    48
  0
VERTEX
  5
1B4
100
AcDbEntity
  8
0
390
0
100
AcDbVertex
100
AcDb3dPolylineVertex
 10
135.845108
 20
110.624283
 30
0.0
 70
    40
  0
VERTEX
  5
1B5
100
AcDbEntity
  8
0
390
0
100
AcDbVertex
100
AcDb3dPolylineVertex
 10
135.99617
 20
110.312111
 30
0.0
 70
    48
  0
VERTEX
  5
1B6
100
AcDbEntity
  8
0
390
0
100
AcDbVertex
100
AcDb3dPolylineVertex
 10
135.845108
 20
110.624283
 30
0.0
 70
    48
  0
VERTEX
  5
1B7
100
AcDbEntity
  8
0
390
0
100
AcDbVertex
100
AcDb3dPolylineVertex
 10
135.845108
 20
110.624283
 30
0.0
 70
    48
  0
VERTEX
  5
1B8
100
AcDbEntity
  8
0
390
0
100
AcDbVertex
100
AcDb3dPolylineVertex
 10
135.807159
 20
110.897163
 30
0.0
 70
    40
  0
VERTEX
  5
1B9
100
AcDbEntity
  8
0
390
0
100
AcDbVertex
100
AcDb3dPolylineVertex
 10
135.845108
 20
110.624283
 30
0.0
 70
    48
  0
VERTEX
  5
1BA
100
AcDbEntity
  8
0
390
0
100
AcDbVertex
100
AcDb3dPolylineVertex
 10
135.807159
 20
110.897163
 30
0.0
 70
    48
  0
VERTEX
  5
1BB
100
AcDbEntity
  8
0
390
0
100
AcDbVertex
100
AcDb3dPolylineVertex
 10
135.807159
 20
110.897163
 30
0.0
 70
    48
  0
SEQEND
  5
1BC
100
AcDbEntity
  8
0
390
0
  0
POLYLINE
  5
1BD
100
AcDbEntity
  8
ARMATUR
390
0
  6
DURCHGEHEND
 62
     1
100
AcDb3dPolyline
 66
     1
 10
0.0
 20
0.0
 30
0.0
 70
    12
 75
     5
  0
VERTEX
  5
1BE
100
AcDbEntity
  8
0
390
0
100
AcDbVertex
100
AcDb3dPolylineVertex
 10
139.557159
 20
110.897163
 30
0.0
 70
    48
  0
VERTEX
  5
1BF
100
AcDbEntity
  8
0
390
0
100
AcDbVertex
100
AcDb3dPolylineVertex
 10
139.557159
 20
110.897163
 30
0.0
 70
    40
  0
VERTEX
  5
1C0
100
AcDbEntity
  8
0
390
0
100
AcDbVertex
100
AcDb3dPolylineVertex
 10
139.555313
 20
110.836563
 30
0.0
 70
    40
  0
VERTEX
  5
1C1
100
AcDbEntity
  8
0
390
0
100
AcDbVertex
100
AcDb3dPolylineVertex
 10
139.557159
 20
110.897163
 30
0.0
 70
    48
  0
VERTEX
  5
1C2
100
AcDbEntity
  8
0
390
0
100
AcDbVertex
100
AcDb3dPolylineVertex
 10
139.555313
 20
110.836563
 30
0.0
 70
    48
  0
VERTEX
  5
1C3
100
AcDbEntity
  8
0
390
0
100
AcDbVertex
100
AcDb3dPolylineVertex
 10
139.555313
 20
110.836563
 30
0.0
 70
    48
  0
VERTEX
  5
1C4
100
AcDbEntity
  8
0
390
0
100
AcDbVertex
100
AcDb3dPolylineVertex
 10
139.487274
 20
110.529892
 30
0.0
 70
    40
  0
VERTEX
  5
1C5
100
AcDbEntity
  8
0
390
0
100
AcDbVertex
100
AcDb3dPolylineVertex
 10
139.555313
 20
110.836563
 30
0.0
 70
    48
  0
VERTEX
  5
1C6
100
AcDbEntity
  8
0
390
0
100
AcDbVertex
100
AcDb3dPolylineVertex
 10
139.487274
 20
110.529892
 30
0.0
 70
    48
  0
VERTEX
  5
1C7
100
AcDbEntity
  8
0
390
0
100
AcDbVertex
100
AcDb3dPolylineVertex
 10
139.487274
 20
110.529892
 30
0.0
 70
    48
  0
VERTEX
  5
1C8
100
AcDbEntity
  8
0
390
0
100
AcDbVertex
100
AcDb3dPolylineVertex
 10
139.328033
 20
110.260185
 30
0.0
 70
    40
  0
VERTEX
  5
1C9
100
AcDbEntity
  8
0
390
0
100
AcDbVertex
100
AcDb3dPolylineVertex
 10
139.487274
 20
110.529892
 30
0.0
 70
    48
  0
VERTEX
  5
1CA
100
AcDbEntity
  8
0
390
0
100
AcDbVertex
100
AcDb3dPolylineVertex
 10
139.328033
 20
110.260185
 30
0.0
 70
    48
  0
VERTEX
  5
1CB
100
AcDbEntity
  8
0
390
0
100
AcDbVertex
100
AcDb3dPolylineVertex
 10
139.328033
 20
110.260185
 30
0.0
 70
    48
  0
VERTEX
  5
1CC
100
AcDbEntity
  8
0
390
0
100
AcDbVertex
100
AcDb3dPolylineVertex
 10
139.08078
 20
110.045212
 30
0.0
 70
    40
  0
VERTEX
  5
1CD
100
AcDbEntity
  8
0
390
0
100
AcDbVertex
100
AcDb3dPolylineVertex
 10
139.328033
 20
110.260185
 30
0.0
 70
    48
  0
VERTEX
  5
1CE
100
AcDbEntity
  8
0
390
0
100
AcDbVertex
100
AcDb3dPolylineVertex
 10
139.08078
 20
110.045212
 30
0.0
 70
    48
  0
VERTEX
  5
1CF
100
AcDbEntity
  8
0
390
0
100
AcDbVertex
100
AcDb3dPolylineVertex
 10
139.08078
 20
110.045212
 30
0.0
 70
    48
  0
VERTEX
  5
1D0
100
AcDbEntity
  8
0
390
0
100
AcDbVertex
100
AcDb3dPolylineVertex
 10
138.761703
 20
109.918304
 30
0.0
 70
    40
  0
VERTEX
  5
1D1
100
AcDbEntity
  8
0
390
0
100
AcDbVertex
100
AcDb3dPolylineVertex
 10
139.08078
 20
110.045212
 30
0.0
 70
    48
  0
VERTEX
  5
1D2
100
AcDbEntity
  8
0
390
0
100
AcDbVertex
100
AcDb3dPolylineVertex
 10
138.761703
 20
109.918304
 30
0.0
 70
    48
  0
VERTEX
  5
1D3
100
AcDbEntity
  8
0
390
0
100
AcDbVertex
100
AcDb3dPolylineVertex
 10
138.761703
 20
109.918304
 30
0.0
 70
    48
  0
VERTEX
  5
1D4
100
AcDbEntity
  8
0
390
0
100
AcDbVertex
100
AcDb3dPolylineVertex
 10
138.557159
 20
109.897163
 30
0.0
 70
    40
  0
VERTEX
  5
1D5
100
AcDbEntity
  8
0
390
0
100
AcDbVertex
100
AcDb3dPolylineVertex
 10
138.761703
 20
109.918304
 30
0.0
 70
    48
  0
VERTEX
  5
1D6
100
AcDbEntity
  8
0
390
0
100
AcDbVertex
100
AcDb3dPolylineVertex
 10
138.557159
 20
109.897163
 30
0.0
 70
    48
  0
VERTEX
  5
1D7
100
AcDbEntity
  8
0
390
0
100
AcDbVertex
100
AcDb3dPolylineVertex
 10
138.557159
 20
109.897163
 30
0.0
 70
    48
  0
SEQEND
  5
1D8
100
AcDbEntity
  8
0
390
0
  0
LINE
  5
1D9
100
AcDbEntity
  8
ARMATUR
390
0
  6
DURCHGEHEND
 62
     1
100
AcDbLine
 10
139.557159
 20
111.897163
 30
0.0
 11
139.557159
 21
110.897163
 31
0.0
  0
POLYLINE
  5
1DA
100
AcDbEntity
  8
ARMATUR
390
0
  6
DURCHGEHEND
 62
     1
100
AcDb3dPolyline
 66
     1
 10
0.0
 20
0.0
 30
0.0
 70
    12
 75
     5
  0
VERTEX
  5
1DB
100
AcDbEntity
  8
0
390
0
100
AcDbVertex
100
AcDb3dPolylineVertex
 10
138.557159
 20
112.897163
 30
0.0
 70
    48
  0
VERTEX
  5
1DC
100
AcDbEntity
  8
0
390
0
100
AcDbVertex
100
AcDb3dPolylineVertex
 10
138.557159
 20
112.897163
 30
0.0
 70
    40
  0
VERTEX
  5
1DD
100
AcDbEntity
  8
0
390
0
100
AcDbVertex
100
AcDb3dPolylineVertex
 10
138.822739
 20
112.861252
 30
0.0
 70
    40
  0
VERTEX
  5
1DE
100
AcDbEntity
  8
0
390
0
100
AcDbVertex
100
AcDb3dPolylineVertex
 10
138.557159
 20
112.897163
 30
0.0
 70
    48
  0
VERTEX
  5
1DF
100
AcDbEntity
  8
0
390
0
100
AcDbVertex
100
AcDb3dPolylineVertex
 10
138.822739
 20
112.861252
 30
0.0
 70
    48
  0
VERTEX
  5
1E0
100
AcDbEntity
  8
0
390
0
100
AcDbVertex
100
AcDb3dPolylineVertex
 10
138.822739
 20
112.861252
 30
0.0
 70
    48
  0
VERTEX
  5
1E1
100
AcDbEntity
  8
0
390
0
100
AcDbVertex
100
AcDb3dPolylineVertex
 10
139.124954
 20
112.720337
 30
0.0
 70
    40
  0
VERTEX
  5
1E2
100
AcDbEntity
  8
0
390
0
100
AcDbVertex
100
AcDb3dPolylineVertex
 10
138.822739
 20
112.861252
 30
0.0
 70
    48
  0
VERTEX
  5
1E3
100
AcDbEntity
  8
0
390
0
100
AcDbVertex
100
AcDb3dPolylineVertex
 10
139.124954
 20
112.720337
 30
0.0
 70
    48
  0
VERTEX
  5
1E4
100
AcDbEntity
  8
0
390
0
100
AcDbVertex
100
AcDb3dPolylineVertex
 10
139.124954
 20
112.720337
 30
0.0
 70
    48
  0
VERTEX
  5
1E5
100
AcDbEntity
  8
0
390
0
100
AcDbVertex
100
AcDb3dPolylineVertex
 10
139.370453
 20
112.479019
 30
0.0
 70
    40
  0
VERTEX
  5
1E6
100
AcDbEntity
  8
0
390
0
100
AcDbVertex
100
AcDb3dPolylineVertex
 10
139.124954
 20
112.720337
 30
0.0
 70
    48
  0
VERTEX
  5
1E7
100
AcDbEntity
  8
0
390
0
100
AcDbVertex
100
AcDb3dPolylineVertex
 10
139.370453
 20
112.479019
 30
0.0
 70
    48
  0
VERTEX
  5
1E8
100
AcDbEntity
  8
0
390
0
100
AcDbVertex
100
AcDb3dPolylineVertex
 10
139.370453
 20
112.479019
 30
0.0
 70
    48
  0
VERTEX
  5
1E9
100
AcDbEntity
  8
0
390
0
100
AcDbVertex
100
AcDb3dPolylineVertex
 10
139.520248
 20
112.166321
 30
0.0
 70
    40
  0
VERTEX
  5
1EA
100
AcDbEntity
  8
0
390
0
100
AcDbVertex
100
AcDb3dPolylineVertex
 10
139.370453
 20
112.479019
 30
0.0
 70
    48
  0
VERTEX
  5
1EB
100
AcDbEntity
  8
0
390
0
100
AcDbVertex
100
AcDb3dPolylineVertex
 10
139.520248
 20
112.166321
 30
0.0
 70
    48
  0
VERTEX
  5
1EC
100
AcDbEntity
  8
0
390
0
100
AcDbVertex
100
AcDb3dPolylineVertex
 10
139.520248
 20
112.166321
 30
0.0
 70
    48
  0
VERTEX
  5
1ED
100
AcDbEntity
  8
0
390
0
100
AcDbVertex
100
AcDb3dPolylineVertex
 10
139.557159
 20
111.897163
 30
0.0
 70
    40
  0
VERTEX
  5
1EE
100
AcDbEntity
  8
0
390
0
100
AcDbVertex
100
AcDb3dPolylineVertex
 10
139.520248
 20
112.166321
 30
0.0
 70
    48
  0
VERTEX
  5
1EF
100
AcDbEntity
  8
0
390
0
100
AcDbVertex
100
AcDb3dPolylineVertex
 10
139.557159
 20
111.897163
 30
0.0
 70
    48
  0
VERTEX
  5
1F0
100
AcDbEntity
  8
0
390
0
100
AcDbVertex
100
AcDb3dPolylineVertex
 10
139.557159
 20
111.897163
 30
0.0
 70
    48
  0
SEQEND
  5
1F1
100
AcDbEntity
  8
0
390
0
  0
LINE
  5
1F2
100
AcDbEntity
  8
ARMATUR
390
0
  6
DURCHGEHEND
 62
     1
100
AcDbLine
 10
136.807159
 20
112.897163
 30
0.0
 11
138.557159
 21
112.897163
 31
0.0
  0
POLYLINE
  5
1F3
100
AcDbEntity
  8
ARMATUR
390
0
  6
DURCHGEHEND
 62
     1
100
AcDb3dPolyline
 66
     1
 10
0.0
 20
0.0
 30
0.0
 70
    12
 75
     5
  0
VERTEX
  5
1F4
100
AcDbEntity
  8
0
390
0
100
AcDbVertex
100
AcDb3dPolylineVertex
 10
135.807159
 20
111.897163
 30
0.0
 70
    48
  0
VERTEX
  5
1F5
100
AcDbEntity
  8
0
390
0
100
AcDbVertex
100
AcDb3dPolylineVertex
 10
135.807159
 20
111.897163
 30
0.0
 70
    40
  0
VERTEX
  5
1F6
100
AcDbEntity
  8
0
390
0
100
AcDbVertex
100
AcDb3dPolylineVertex
 10
135.808792
 20
111.954132
 30
0.0
 70
    40
  0
VERTEX
  5
1F7
100
AcDbEntity
  8
0
390
0
100
AcDbVertex
100
AcDb3dPolylineVertex
 10
135.807159
 20
111.897163
 30
0.0
 70
    48
  0
VERTEX
  5
1F8
100
AcDbEntity
  8
0
390
0
100
AcDbVertex
100
AcDb3dPolylineVertex
 10
135.808792
 20
111.954132
 30
0.0
 70
    48
  0
VERTEX
  5
1F9
100
AcDbEntity
  8
0
390
0
100
AcDbVertex
100
AcDb3dPolylineVertex
 10
135.808792
 20
111.954132
 30
0.0
 70
    48
  0
VERTEX
  5
1FA
100
AcDbEntity
  8
0
390
0
100
AcDbVertex
100
AcDb3dPolylineVertex
 10
135.875763
 20
112.261169
 30
0.0
 70
    40
  0
VERTEX
  5
1FB
100
AcDbEntity
  8
0
390
0
100
AcDbVertex
100
AcDb3dPolylineVertex
 10
135.808792
 20
111.954132
 30
0.0
 70
    48
  0
VERTEX
  5
1FC
100
AcDbEntity
  8
0
390
0
100
AcDbVertex
100
AcDb3dPolylineVertex
 10
135.875763
 20
112.261169
 30
0.0
 70
    48
  0
VERTEX
  5
1FD
100
AcDbEntity
  8
0
390
0
100
AcDbVertex
100
AcDb3dPolylineVertex
 10
135.875763
 20
112.261169
 30
0.0
 70
    48
  0
VERTEX
  5
1FE
100
AcDbEntity
  8
0
390
0
100
AcDbVertex
100
AcDb3dPolylineVertex
 10
136.033981
 20
112.531357
 30
0.0
 70
    40
  0
VERTEX
  5
1FF
100
AcDbEntity
  8
0
390
0
100
AcDbVertex
100
AcDb3dPolylineVertex
 10
135.875763
 20
112.261169
 30
0.0
 70
    48
  0
VERTEX
  5
200
100
AcDbEntity
  8
0
390
0
100
AcDbVertex
100
AcDb3dPolylineVertex
 10
136.033981
 20
112.531357
 30
0.0
 70
    48
  0
VERTEX
  5
201
100
AcDbEntity
  8
0
390
0
100
AcDbVertex
100
AcDb3dPolylineVertex
 10
136.033981
 20
112.531357
 30
0.0
 70
    48
  0
VERTEX
  5
202
100
AcDbEntity
  8
0
390
0
100
AcDbVertex
100
AcDb3dPolylineVertex
 10
136.280289
 20
112.747116
 30
0.0
 70
    40
  0
VERTEX
  5
203
100
AcDbEntity
  8
0
390
0
100
AcDbVertex
100
AcDb3dPolylineVertex
 10
136.033981
 20
112.531357
 30
0.0
 70
    48
  0
VERTEX
  5
204
100
AcDbEntity
  8
0
390
0
100
AcDbVertex
100
AcDb3dPolylineVertex
 10
136.280289
 20
112.747116
 30
0.0
 70
    48
  0
VERTEX
  5
205
100
AcDbEntity
  8
0
390
0
100
AcDbVertex
100
AcDb3dPolylineVertex
 10
136.280289
 20
112.747116
 30
0.0
 70
    48
  0
VERTEX
  5
206
100
AcDbEntity
  8
0
390
0
100
AcDbVertex
100
AcDb3dPolylineVertex
 10
136.59877
 20
112.875214
 30
0.0
 70
    40
  0
VERTEX
  5
207
100
AcDbEntity
  8
0
390
0
100
AcDbVertex
100
AcDb3dPolylineVertex
 10
136.280289
 20
112.747116
 30
0.0
 70
    48
  0
VERTEX
  5
208
100
AcDbEntity
  8
0
390
0
100
AcDbVertex
100
AcDb3dPolylineVertex
 10
136.59877
 20
112.875214
 30
0.0
 70
    48
  0
VERTEX
  5
209
100
AcDbEntity
  8
0
390
0
100
AcDbVertex
100
AcDb3dPolylineVertex
 10
136.59877
 20
112.875214
 30
0.0
 70
    48
  0
VERTEX
  5
20A
100
AcDbEntity
  8
0
390
0
100
AcDbVertex
100
AcDb3dPolylineVertex
 10
136.807159
 20
112.897163
 30
0.0
 70
    40
  0
VERTEX
  5
20B
100
AcDbEntity
  8
0
390
0
100
AcDbVertex
100
AcDb3dPolylineVertex
 10
136.59877
 20
112.875214
 30
0.0
 70
    48
  0
VERTEX
  5
20C
100
AcDbEntity
  8
0
390
0
100
AcDbVertex
100
AcDb3dPolylineVertex
 10
136.807159
 20
112.897163
 30
0.0
 70
    48
  0
VERTEX
  5
20D
100
AcDbEntity
  8
0
390
0
100
AcDbVertex
100
AcDb3dPolylineVertex
 10
136.807159
 20
112.897163
 30
0.0
 70
    48
  0
SEQEND
  5
20E
100
AcDbEntity
  8
0
390
0
  0
LINE
  5
20F
100
AcDbEntity
  8
ARMATUR
390
0
  6
DURCHGEHEND
 62
     1
100
AcDbLine
 10
135.807159
 20
110.897163
 30
0.0
 11
135.807159
 21
111.897163
 31
0.0
  0
LINE
  5
210
100
AcDbEntity
  8
ARMATUR
390
0
  6
DURCHGEHEND
 62
     1
100
AcDbLine
 10
132.568985
 20
109.897163
 30
0.0
 11
132.494659
 21
109.897163
 31
0.0
  0
POLYLINE
  5
211
100
AcDbEntity
  8
ARMATUR
390
0
  6
DURCHGEHEND
 62
     1
100
AcDb3dPolyline
 66
     1
 10
0.0
 20
0.0
 30
0.0
 70
    12
 75
     5
  0
VERTEX
  5
212
100
AcDbEntity
  8
0
390
0
100
AcDbVertex
100
AcDb3dPolylineVertex
 10
132.845367
 20
110.897163
 30
0.0
 70
    48
  0
VERTEX
  5
213
100
AcDbEntity
  8
0
390
0
100
AcDbVertex
100
AcDb3dPolylineVertex
 10
132.845367
 20
110.897163
 30
0.0
 70
    40
  0
VERTEX
  5
214
100
AcDbEntity
  8
0
390
0
100
AcDbVertex
100
AcDb3dPolylineVertex
 10
132.836166
 20
110.679764
 30
0.0
 70
    40
  0
VERTEX
  5
215
100
AcDbEntity
  8
0
390
0
100
AcDbVertex
100
AcDb3dPolylineVertex
 10
132.845367
 20
110.897163
 30
0.0
 70
    48
  0
VERTEX
  5
216
100
AcDbEntity
  8
0
390
0
100
AcDbVertex
100
AcDb3dPolylineVertex
 10
132.836166
 20
110.679764
 30
0.0
 70
    48
  0
VERTEX
  5
217
100
AcDbEntity
  8
0
390
0
100
AcDbVertex
100
AcDb3dPolylineVertex
 10
132.836166
 20
110.679764
 30
0.0
 70
    48
  0
VERTEX
  5
218
100
AcDbEntity
  8
0
390
0
100
AcDbVertex
100
AcDb3dPolylineVertex
 10
132.794113
 20
110.390213
 30
0.0
 70
    40
  0
VERTEX
  5
219
100
AcDbEntity
  8
0
390
0
100
AcDbVertex
100
AcDb3dPolylineVertex
 10
132.836166
 20
110.679764
 30
0.0
 70
    48
  0
VERTEX
  5
21A
100
AcDbEntity
  8
0
390
0
100
AcDbVertex
100
AcDb3dPolylineVertex
 10
132.794113
 20
110.390213
 30
0.0
 70
    48
  0
VERTEX
  5
21B
100
AcDbEntity
  8
0
390
0
100
AcDbVertex
100
AcDb3dPolylineVertex
 10
132.794113
 20
110.390213
 30
0.0
 70
    48
  0
VERTEX
  5
21C
100
AcDbEntity
  8
0
390
0
100
AcDbVertex
100
AcDb3dPolylineVertex
 10
132.726456
 20
110.144432
 30
0.0
 70
    40
  0
VERTEX
  5
21D
100
AcDbEntity
  8
0
390
0
100
AcDbVertex
100
AcDb3dPolylineVertex
 10
132.794113
 20
110.390213
 30
0.0
 70
    48
  0
VERTEX
  5
21E
100
AcDbEntity
  8
0
390
0
100
AcDbVertex
100
AcDb3dPolylineVertex
 10
132.726456
 20
110.144432
 30
0.0
 70
    48
  0
VERTEX
  5
21F
100
AcDbEntity
  8
0
390
0
100
AcDbVertex
100
AcDb3dPolylineVertex
 10
132.726456
 20
110.144432
 30
0.0
 70
    48
  0
VERTEX
  5
220
100
AcDbEntity
  8
0
390
0
100
AcDbVertex
100
AcDb3dPolylineVertex
 10
132.646637
 20
109.968727
 30
0.0
 70
    40
  0
VERTEX
  5
221
100
AcDbEntity
  8
0
390
0
100
AcDbVertex
100
AcDb3dPolylineVertex
 10
132.726456
 20
110.144432
 30
0.0
 70
    48
  0
VERTEX
  5
222
100
AcDbEntity
  8
0
390
0
100
AcDbVertex
100
AcDb3dPolylineVertex
 10
132.646637
 20
109.968727
 30
0.0
 70
    48
  0
VERTEX
  5
223
100
AcDbEntity
  8
0
390
0
100
AcDbVertex
100
AcDb3dPolylineVertex
 10
132.646637
 20
109.968727
 30
0.0
 70
    48
  0
VERTEX
  5
224
100
AcDbEntity
  8
0
390
0
100
AcDbVertex
100
AcDb3dPolylineVertex
 10
132.574539
 20
109.897675
 30
0.0
 70
    40
  0
VERTEX
  5
225
100
AcDbEntity
  8
0
390
0
100
AcDbVertex
100
AcDb3dPolylineVertex
 10
132.646637
 20
109.968727
 30
0.0
 70
    48
  0
VERTEX
  5
226
100
AcDbEntity
  8
0
390
0
100
AcDbVertex
100
AcDb3dPolylineVertex
 10
132.574539
 20
109.897675
 30
0.0
 70
    48
  0
VERTEX
  5
227
100
AcDbEntity
  8
0
390
0
100
AcDbVertex
100
AcDb3dPolylineVertex
 10
132.574539
 20
109.897675
 30
0.0
 70
    48
  0
VERTEX
  5
228
100
AcDbEntity
  8
0
390
0
100
AcDbVertex
100
AcDb3dPolylineVertex
 10
132.568985
 20
109.897163
 30
0.0
 70
    40
  0
VERTEX
  5
229
100
AcDbEntity
  8
0
390
0
100
AcDbVertex
100
AcDb3dPolylineVertex
 10
132.574539
 20
109.897675
 30
0.0
 70
    48
  0
VERTEX
  5
22A
100
AcDbEntity
  8
0
390
0
100
AcDbVertex
100
AcDb3dPolylineVertex
 10
132.568985
 20
109.897163
 30
0.0
 70
    48
  0
VERTEX
  5
22B
100
AcDbEntity
  8
0
390
0
100
AcDbVertex
100
AcDb3dPolylineVertex
 10
132.568985
 20
109.897163
 30
0.0
 70
    48
  0
SEQEND
  5
22C
100
AcDbEntity
  8
0
390
0
  0
LINE
  5
22D
100
AcDbEntity
  8
ARMATUR
390
0
  6
DURCHGEHEND
 62
     1
100
AcDbLine
 10
132.845367
 20
111.897163
 30
0.0
 11
132.845367
 21
110.897163
 31
0.0
  0
POLYLINE
  5
22E
100
AcDbEntity
  8
ARMATUR
390
0
  6
DURCHGEHEND
 62
     1
100
AcDb3dPolyline
 66
     1
 10
0.0
 20
0.0
 30
0.0
 70
    12
 75
     5
  0
VERTEX
  5
22F
100
AcDbEntity
  8
0
390
0
100
AcDbVertex
100
AcDb3dPolylineVertex
 10
132.568985
 20
112.897163
 30
0.0
 70
    48
  0
VERTEX
  5
230
100
AcDbEntity
  8
0
390
0
100
AcDbVertex
100
AcDb3dPolylineVertex
 10
132.568985
 20
112.897163
 30
0.0
 70
    40
  0
VERTEX
  5
231
100
AcDbEntity
  8
0
390
0
100
AcDbVertex
100
AcDb3dPolylineVertex
 10
132.587738
 20
112.891815
 30
0.0
 70
    40
  0
VERTEX
  5
232
100
AcDbEntity
  8
0
390
0
100
AcDbVertex
100
AcDb3dPolylineVertex
 10
132.568985
 20
112.897163
 30
0.0
 70
    48
  0
VERTEX
  5
233
100
AcDbEntity
  8
0
390
0
100
AcDbVertex
100
AcDb3dPolylineVertex
 10
132.587738
 20
112.891815
 30
0.0
 70
    48
  0
VERTEX
  5
234
100
AcDbEntity
  8
0
390
0
100
AcDbVertex
100
AcDb3dPolylineVertex
 10
132.587738
 20
112.891815
 30
0.0
 70
    48
  0
VERTEX
  5
235
100
AcDbEntity
  8
0
390
0
100
AcDbVertex
100
AcDb3dPolylineVertex
 10
132.659134
 20
112.804276
 30
0.0
 70
    40
  0
VERTEX
  5
236
100
AcDbEntity
  8
0
390
0
100
AcDbVertex
100
AcDb3dPolylineVertex
 10
132.587738
 20
112.891815
 30
0.0
 70
    48
  0
VERTEX
  5
237
100
AcDbEntity
  8
0
390
0
100
AcDbVertex
100
AcDb3dPolylineVertex
 10
132.659134
 20
112.804276
 30
0.0
 70
    48
  0
VERTEX
  5
238
100
AcDbEntity
  8
0
390
0
100
AcDbVertex
100
AcDb3dPolylineVertex
 10
132.659134
 20
112.804276
 30
0.0
 70
    48
  0
VERTEX
  5
239
100
AcDbEntity
  8
0
390
0
100
AcDbVertex
100
AcDb3dPolylineVertex
 10
132.739426
 20
112.611641
 30
0.0
 70
    40
  0
VERTEX
  5
23A
100
AcDbEntity
  8
0
390
0
100
AcDbVertex
100
AcDb3dPolylineVertex
 10
132.659134
 20
112.804276
 30
0.0
 70
    48
  0
VERTEX
  5
23B
100
AcDbEntity
  8
0
390
0
100
AcDbVertex
100
AcDb3dPolylineVertex
 10
132.739426
 20
112.611641
 30
0.0
 70
    48
  0
VERTEX
  5
23C
100
AcDbEntity
  8
0
390
0
100
AcDbVertex
100
AcDb3dPolylineVertex
 10
132.739426
 20
112.611641
 30
0.0
 70
    48
  0
VERTEX
  5
23D
100
AcDbEntity
  8
0
390
0
100
AcDbVertex
100
AcDb3dPolylineVertex
 10
132.808487
 20
112.329048
 30
0.0
 70
    40
  0
VERTEX
  5
23E
100
AcDbEntity
  8
0
390
0
100
AcDbVertex
100
AcDb3dPolylineVertex
 10
132.739426
 20
112.611641
 30
0.0
 70
    48
  0
VERTEX
  5
23F
100
AcDbEntity
  8
0
390
0
100
AcDbVertex
100
AcDb3dPolylineVertex
 10
132.808487
 20
112.329048
 30
0.0
 70
    48
  0
VERTEX
  5
240
100
AcDbEntity
  8
0
390
0
100
AcDbVertex
100
AcDb3dPolylineVertex
 10
132.808487
 20
112.329048
 30
0.0
 70
    48
  0
VERTEX
  5
241
100
AcDbEntity
  8
0
390
0
100
AcDbVertex
100
AcDb3dPolylineVertex
 10
132.843277
 20
112.000854
 30
0.0
 70
    40
  0
VERTEX
  5
242
100
AcDbEntity
  8
0
390
0
100
AcDbVertex
100
AcDb3dPolylineVertex
 10
132.808487
 20
112.329048
 30
0.0
 70
    48
  0
VERTEX
  5
243
100
AcDbEntity
  8
0
390
0
100
AcDbVertex
100
AcDb3dPolylineVertex
 10
132.843277
 20
112.000854
 30
0.0
 70
    48
  0
VERTEX
  5
244
100
AcDbEntity
  8
0
390
0
100
AcDbVertex
100
AcDb3dPolylineVertex
 10
132.843277
 20
112.000854
 30
0.0
 70
    48
  0
VERTEX
  5
245
100
AcDbEntity
  8
0
390
0
100
AcDbVertex
100
AcDb3dPolylineVertex
 10
132.845367
 20
111.897163
 30
0.0
 70
    40
  0
VERTEX
  5
246
100
AcDbEntity
  8
0
390
0
100
AcDbVertex
100
AcDb3dPolylineVertex
 10
132.843277
 20
112.000854
 30
0.0
 70
    48
  0
VERTEX
  5
247
100
AcDbEntity
  8
0
390
0
100
AcDbVertex
100
AcDb3dPolylineVertex
 10
132.845367
 20
111.897163
 30
0.0
 70
    48
  0
VERTEX
  5
248
100
AcDbEntity
  8
0
390
0
100
AcDbVertex
100
AcDb3dPolylineVertex
 10
132.845367
 20
111.897163
 30
0.0
 70
    48
  0
SEQEND
  5
249
100
AcDbEntity
  8
0
390
0
  0
LINE
  5
24A
100
AcDbEntity
  8
ARMATUR
390
0
  6
DURCHGEHEND
 62
     1
100
AcDbLine
 10
132.494659
 20
112.897163
 30
0.0
 11
132.568985
 21
112.897163
 31
0.0
  0
POLYLINE
  5
24B
100
AcDbEntity
  8
ARMATUR
390
0
  6
DURCHGEHEND
 62
     1
100
AcDb3dPolyline
 66
     1
 10
0.0
 20
0.0
 30
0.0
 70
    12
 75
     5
  0
VERTEX
  5
24C
100
AcDbEntity
  8
0
390
0
100
AcDbVertex
100
AcDb3dPolylineVertex
 10
142.795334
 20
109.897163
 30
0.0
 70
    48
  0
VERTEX
  5
24D
100
AcDbEntity
  8
0
390
0
100
AcDbVertex
100
AcDb3dPolylineVertex
 10
142.795334
 20
109.897163
 30
0.0
 70
    40
  0
VERTEX
  5
24E
100
AcDbEntity
  8
0
390
0
100
AcDbVertex
100
AcDb3dPolylineVertex
 10
142.776581
 20
109.902519
 30
0.0
 70
    40
  0
VERTEX
  5
24F
100
AcDbEntity
  8
0
390
0
100
AcDbVertex
100
AcDb3dPolylineVertex
 10
142.795334
 20
109.897163
 30
0.0
 70
    48
  0
VERTEX
  5
250
100
AcDbEntity
  8
0
390
0
100
AcDbVertex
100
AcDb3dPolylineVertex
 10
142.776581
 20
109.902519
 30
0.0
 70
    48
  0
VERTEX
  5
251
100
AcDbEntity
  8
0
390
0
100
AcDbVertex
100
AcDb3dPolylineVertex
 10
142.776581
 20
109.902519
 30
0.0
 70
    48
  0
VERTEX
  5
252
100
AcDbEntity
  8
0
390
0
100
AcDbVertex
100
AcDb3dPolylineVertex
 10
142.705185
 20
109.990051
 30
0.0
 70
    40
  0
VERTEX
  5
253
100
AcDbEntity
  8
0
390
0
100
AcDbVertex
100
AcDb3dPolylineVertex
 10
142.776581
 20
109.902519
 30
0.0
 70
    48
  0
VERTEX
  5
254
100
AcDbEntity
  8
0
390
0
100
AcDbVertex
100
AcDb3dPolylineVertex
 10
142.705185
 20
109.990051
 30
0.0
 70
    48
  0
VERTEX
  5
255
100
AcDbEntity
  8
0
390
0
100
AcDbVertex
100
AcDb3dPolylineVertex
 10
142.705185
 20
109.990051
 30
0.0
 70
    48
  0
VERTEX
  5
256
100
AcDbEntity
  8
0
390
0
100
AcDbVertex
100
AcDb3dPolylineVertex
 10
142.624893
 20
110.182693
 30
0.0
 70
    40
  0
VERTEX
  5
257
100
AcDbEntity
  8
0
390
0
100
AcDbVertex
100
AcDb3dPolylineVertex
 10
142.705185
 20
109.990051
 30
0.0
 70
    48
  0
VERTEX
  5
258
100
AcDbEntity
  8
0
390
0
100
AcDbVertex
100
AcDb3dPolylineVertex
 10
142.624893
 20
110.182693
 30
0.0
 70
    48
  0
VERTEX
  5
259
100
AcDbEntity
  8
0
390
0
100
AcDbVertex
100
AcDb3dPolylineVertex
 10
142.624893
 20
110.182693
 30
0.0
 70
    48
  0
VERTEX
  5
25A
100
AcDbEntity
  8
0
390
0
100
AcDbVertex
100
AcDb3dPolylineVertex
 10
142.555832
 20
110.465279
 30
0.0
 70
    40
  0
VERTEX
  5
25B
100
AcDbEntity
  8
0
390
0
100
AcDbVertex
100
AcDb3dPolylineVertex
 10
142.624893
 20
110.182693
 30
0.0
 70
    48
  0
VERTEX
  5
25C
100
AcDbEntity
  8
0
390
0
100
AcDbVertex
100
AcDb3dPolylineVertex
 10
142.555832
 20
110.465279
 30
0.0
 70
    48
  0
VERTEX
  5
25D
100
AcDbEntity
  8
0
390
0
100
AcDbVertex
100
AcDb3dPolylineVertex
 10
142.555832
 20
110.465279
 30
0.0
 70
    48
  0
VERTEX
  5
25E
100
AcDbEntity
  8
0
390
0
100
AcDbVertex
100
AcDb3dPolylineVertex
 10
142.521042
 20
110.793472
 30
0.0
 70
    40
  0
VERTEX
  5
25F
100
AcDbEntity
  8
0
390
0
100
AcDbVertex
100
AcDb3dPolylineVertex
 10
142.555832
 20
110.465279
 30
0.0
 70
    48
  0
VERTEX
  5
260
100
AcDbEntity
  8
0
390
0
100
AcDbVertex
100
AcDb3dPolylineVertex
 10
142.521042
 20
110.793472
 30
0.0
 70
    48
  0
VERTEX
  5
261
100
AcDbEntity
  8
0
390
0
100
AcDbVertex
100
AcDb3dPolylineVertex
 10
142.521042
 20
110.793472
 30
0.0
 70
    48
  0
VERTEX
  5
262
100
AcDbEntity
  8
0
390
0
100
AcDbVertex
100
AcDb3dPolylineVertex
 10
142.518951
 20
110.897163
 30
0.0
 70
    40
  0
VERTEX
  5
263
100
AcDbEntity
  8
0
390
0
100
AcDbVertex
100
AcDb3dPolylineVertex
 10
142.521042
 20
110.793472
 30
0.0
 70
    48
  0
VERTEX
  5
264
100
AcDbEntity
  8
0
390
0
100
AcDbVertex
100
AcDb3dPolylineVertex
 10
142.518951
 20
110.897163
 30
0.0
 70
    48
  0
VERTEX
  5
265
100
AcDbEntity
  8
0
390
0
100
AcDbVertex
100
AcDb3dPolylineVertex
 10
142.518951
 20
110.897163
 30
0.0
 70
    48
  0
SEQEND
  5
266
100
AcDbEntity
  8
0
390
0
  0
LINE
  5
267
100
AcDbEntity
  8
ARMATUR
390
0
  6
DURCHGEHEND
 62
     1
100
AcDbLine
 10
142.869659
 20
109.897163
 30
0.0
 11
142.795334
 21
109.897163
 31
0.0
  0
LINE
  5
268
100
AcDbEntity
  8
ARMATUR
390
0
  6
DURCHGEHEND
 62
     1
100
AcDbLine
 10
142.795334
 20
112.897163
 30
0.0
 11
142.869659
 21
112.897163
 31
0.0
  0
POLYLINE
  5
269
100
AcDbEntity
  8
ARMATUR
390
0
  6
DURCHGEHEND
 62
     1
100
AcDb3dPolyline
 66
     1
 10
0.0
 20
0.0
 30
0.0
 70
    12
 75
     5
  0
VERTEX
  5
26A
100
AcDbEntity
  8
0
390
0
100
AcDbVertex
100
AcDb3dPolylineVertex
 10
142.518951
 20
111.897163
 30
0.0
 70
    48
  0
VERTEX
  5
26B
100
AcDbEntity
  8
0
390
0
100
AcDbVertex
100
AcDb3dPolylineVertex
 10
142.518951
 20
111.897163
 30
0.0
 70
    40
  0
VERTEX
  5
26C
100
AcDbEntity
  8
0
390
0
100
AcDbVertex
100
AcDb3dPolylineVertex
 10
142.528152
 20
112.114563
 30
0.0
 70
    40
  0
VERTEX
  5
26D
100
AcDbEntity
  8
0
390
0
100
AcDbVertex
100
AcDb3dPolylineVertex
 10
142.518951
 20
111.897163
 30
0.0
 70
    48
  0
VERTEX
  5
26E
100
AcDbEntity
  8
0
390
0
100
AcDbVertex
100
AcDb3dPolylineVertex
 10
142.528152
 20
112.114563
 30
0.0
 70
    48
  0
VERTEX
  5
26F
100
AcDbEntity
  8
0
390
0
100
AcDbVertex
100
AcDb3dPolylineVertex
 10
142.528152
 20
112.114563
 30
0.0
 70
    48
  0
VERTEX
  5
270
100
AcDbEntity
  8
0
390
0
100
AcDbVertex
100
AcDb3dPolylineVertex
 10
142.570206
 20
112.404114
 30
0.0
 70
    40
  0
VERTEX
  5
271
100
AcDbEntity
  8
0
390
0
100
AcDbVertex
100
AcDb3dPolylineVertex
 10
142.528152
 20
112.114563
 30
0.0
 70
    48
  0
VERTEX
  5
272
100
AcDbEntity
  8
0
390
0
100
AcDbVertex
100
AcDb3dPolylineVertex
 10
142.570206
 20
112.404114
 30
0.0
 70
    48
  0
VERTEX
  5
273
100
AcDbEntity
  8
0
390
0
100
AcDbVertex
100
AcDb3dPolylineVertex
 10
142.570206
 20
112.404114
 30
0.0
 70
    48
  0
VERTEX
  5
274
100
AcDbEntity
  8
0
390
0
100
AcDbVertex
100
AcDb3dPolylineVertex
 10
142.637863
 20
112.649902
 30
0.0
 70
    40
  0
VERTEX
  5
275
100
AcDbEntity
  8
0
390
0
100
AcDbVertex
100
AcDb3dPolylineVertex
 10
142.570206
 20
112.404114
 30
0.0
 70
    48
  0
VERTEX
  5
276
100
AcDbEntity
  8
0
390
0
100
AcDbVertex
100
AcDb3dPolylineVertex
 10
142.637863
 20
112.649902
 30
0.0
 70
    48
  0
VERTEX
  5
277
100
AcDbEntity
  8
0
390
0
100
AcDbVertex
100
AcDb3dPolylineVertex
 10
142.637863
 20
112.649902
 30
0.0
 70
    48
  0
VERTEX
  5
278
100
AcDbEntity
  8
0
390
0
100
AcDbVertex
100
AcDb3dPolylineVertex
 10
142.717682
 20
112.825607
 30
0.0
 70
    40
  0
VERTEX
  5
279
100
AcDbEntity
  8
0
390
0
100
AcDbVertex
100
AcDb3dPolylineVertex
 10
142.637863
 20
112.649902
 30
0.0
 70
    48
  0
VERTEX
  5
27A
100
AcDbEntity
  8
0
390
0
100
AcDbVertex
100
AcDb3dPolylineVertex
 10
142.717682
 20
112.825607
 30
0.0
 70
    48
  0
VERTEX
  5
27B
100
AcDbEntity
  8
0
390
0
100
AcDbVertex
100
AcDb3dPolylineVertex
 10
142.717682
 20
112.825607
 30
0.0
 70
    48
  0
VERTEX
  5
27C
100
AcDbEntity
  8
0
390
0
100
AcDbVertex
100
AcDb3dPolylineVertex
 10
142.789764
 20
112.896652
 30
0.0
 70
    40
  0
VERTEX
  5
27D
100
AcDbEntity
  8
0
390
0
100
AcDbVertex
100
AcDb3dPolylineVertex
 10
142.717682
 20
112.825607
 30
0.0
 70
    48
  0
VERTEX
  5
27E
100
AcDbEntity
  8
0
390
0
100
AcDbVertex
100
AcDb3dPolylineVertex
 10
142.789764
 20
112.896652
 30
0.0
 70
    48
  0
VERTEX
  5
27F
100
AcDbEntity
  8
0
390
0
100
AcDbVertex
100
AcDb3dPolylineVertex
 10
142.789764
 20
112.896652
 30
0.0
 70
    48
  0
VERTEX
  5
280
100
AcDbEntity
  8
0
390
0
100
AcDbVertex
100
AcDb3dPolylineVertex
 10
142.795334
 20
112.897163
 30
0.0
 70
    40
  0
VERTEX
  5
281
100
AcDbEntity
  8
0
390
0
100
AcDbVertex
100
AcDb3dPolylineVertex
 10
142.789764
 20
112.896652
 30
0.0
 70
    48
  0
VERTEX
  5
282
100
AcDbEntity
  8
0
390
0
100
AcDbVertex
100
AcDb3dPolylineVertex
 10
142.795334
 20
112.897163
 30
0.0
 70
    48
  0
VERTEX
  5
283
100
AcDbEntity
  8
0
390
0
100
AcDbVertex
100
AcDb3dPolylineVertex
 10
142.795334
 20
112.897163
 30
0.0
 70
    48
  0
SEQEND
  5
284
100
AcDbEntity
  8
0
390
0
  0
LINE
  5
285
100
AcDbEntity
  8
ARMATUR
390
0
  6
DURCHGEHEND
 62
     1
100
AcDbLine
 10
142.518951
 20
110.897163
 30
0.0
 11
142.518951
 21
111.897163
 31
0.0
  0
LINE
  5
286
100
AcDbEntity
  8
ARMATUR
390
0
  6
DURCHGEHEND
 62
     1
100
AcDbLine
 10
138.557159
 20
109.897163
 30
0.0
 11
136.807159
 21
109.897163
 31
0.0
  0
LINE
  5
287
100
AcDbEntity
  8
ARMATUR
390
0
  6
DURCHGEHEND
 62
     1
100
AcDbLine
 10
129.942001
 20
116.683411
 30
0.0
 11
145.442001
 21
116.683411
 31
0.0
  0
LINE
  5
288
100
AcDbEntity
  8
ARMATUR
390
0
  6
DURCHGEHEND
 62
     3
100
AcDbLine
 10
132.962357
 20
108.156792
 30
0.0
 11
132.962357
 21
105.675209
 31
0.0
  0
LINE
  5
289
100
AcDbEntity
  8
ARMATUR
390
0
  6
DURCHGEHEND
 62
     3
100
AcDbLine
 10
142.43692
 20
108.141609
 30
0.0
 11
142.43692
 21
105.660027
 31
0.0
  0
LINE
  5
28A
100
AcDbEntity
  8
ARMATUR
390
0
  6
DURCHGEHEND
 62
     1
100
AcDbLine
 10
132.494705
 20
108.156792
 30
0.0
 11
142.869659
 21
108.156792
 31
0.0
  0
LINE
  5
28B
100
AcDbEntity
  8
ARMATUR
390
0
  6
DURCHGEHEND
 62
     1
100
AcDbLine
 10
129.942001
 20
116.683411
 30
0.0
 11
129.942001
 21
115.238258
 31
0.0
  0
LINE
  5
28C
100
AcDbEntity
  8
ARMATUR
390
0
  6
DURCHGEHEND
 62
     1
100
AcDbLine
 10
129.942001
 20
115.238258
 30
0.0
 11
145.441986
 21
115.238258
 31
0.0
  0
LINE
  5
28D
100
AcDbEntity
  8
ARMATUR
390
0
  6
DURCHGEHEND
 62
     1
100
AcDbLine
 10
145.442001
 20
116.683411
 30
0.0
 11
145.442001
 21
115.238266
 31
0.0
  0
CIRCLE
  5
28E
100
AcDbEntity
  8
ARMATUR
390
0
  6
DURCHGEHEND
 62
     1
100
AcDbCircle
 10
137.757156
 20
51.83498
 30
0.0
 40
8.0
  0
POLYLINE
  5
28F
100
AcDbEntity
  8
ARMATUR
390
0
  6
DURCHGEHEND
 62
     1
100
AcDb3dPolyline
 66
     1
 10
0.0
 20
0.0
 30
0.0
 70
    12
 75
     5
  0
VERTEX
  5
290
100
AcDbEntity
  8
0
390
0
100
AcDbVertex
100
AcDb3dPolylineVertex
 10
133.944656
 20
51.33498
 30
0.0
 70
    48
  0
VERTEX
  5
291
100
AcDbEntity
  8
0
390
0
100
AcDbVertex
100
AcDb3dPolylineVertex
 10
133.944656
 20
51.33498
 30
0.0
 70
    40
  0
VERTEX
  5
292
100
AcDbEntity
  8
0
390
0
100
AcDbVertex
100
AcDb3dPolylineVertex
 10
133.928223
 20
51.335247
 30
0.0
 70
    40
  0
VERTEX
  5
293
100
AcDbEntity
  8
0
390
0
100
AcDbVertex
100
AcDb3dPolylineVertex
 10
133.91188
 20
51.336048
 30
0.0
 70
    40
  0
VERTEX
  5
294
100
AcDbEntity
  8
0
390
0
100
AcDbVertex
100
AcDb3dPolylineVertex
 10
133.89563
 20
51.337379
 30
0.0
 70
    40
  0
VERTEX
  5
295
100
AcDbEntity
  8
0
390
0
100
AcDbVertex
100
AcDb3dPolylineVertex
 10
133.879456
 20
51.339241
 30
0.0
 70
    40
  0
VERTEX
  5
296
100
AcDbEntity
  8
0
390
0
100
AcDbVertex
100
AcDb3dPolylineVertex
 10
133.863388
 20
51.341625
 30
0.0
 70
    40
  0
VERTEX
  5
297
100
AcDbEntity
  8
0
390
0
100
AcDbVertex
100
AcDb3dPolylineVertex
 10
133.847397
 20
51.344532
 30
0.0
 70
    40
  0
VERTEX
  5
298
100
AcDbEntity
  8
0
390
0
100
AcDbVertex
100
AcDb3dPolylineVertex
 10
133.911697
 20
51.33498
 30
0.0
 70
    48
  0
VERTEX
  5
299
100
AcDbEntity
  8
0
390
0
100
AcDbVertex
100
AcDb3dPolylineVertex
 10
133.879288
 20
51.3382
 30
0.0
 70
    48
  0
VERTEX
  5
29A
100
AcDbEntity
  8
0
390
0
100
AcDbVertex
100
AcDb3dPolylineVertex
 10
133.847397
 20
51.344532
 30
0.0
 70
    48
  0
VERTEX
  5
29B
100
AcDbEntity
  8
0
390
0
100
AcDbVertex
100
AcDb3dPolylineVertex
 10
133.831482
 20
51.347961
 30
0.0
 70
    40
  0
VERTEX
  5
29C
100
AcDbEntity
  8
0
390
0
100
AcDbVertex
100
AcDb3dPolylineVertex
 10
133.815628
 20
51.351921
 30
0.0
 70
    40
  0
VERTEX
  5
29D
100
AcDbEntity
  8
0
390
0
100
AcDbVertex
100
AcDb3dPolylineVertex
 10
133.799881
 20
51.356407
 30
0.0
 70
    40
  0
VERTEX
  5
29E
100
AcDbEntity
  8
0
390
0
100
AcDbVertex
100
AcDb3dPolylineVertex
 10
133.784256
 20
51.361408
 30
0.0
 70
    40
  0
VERTEX
  5
29F
100
AcDbEntity
  8
0
390
0
100
AcDbVertex
100
AcDb3dPolylineVertex
 10
133.768814
 20
51.36692
 30
0.0
 70
    40
  0
VERTEX
  5
2A0
100
AcDbEntity
  8
0
390
0
100
AcDbVertex
100
AcDb3dPolylineVertex
 10
133.753586
 20
51.372929
 30
0.0
 70
    40
  0
VERTEX
  5
2A1
100
AcDbEntity
  8
0
390
0
100
AcDbVertex
100
AcDb3dPolylineVertex
 10
133.815506
 20
51.350849
 30
0.0
 70
    48
  0
VERTEX
  5
2A2
100
AcDbEntity
  8
0
390
0
100
AcDbVertex
100
AcDb3dPolylineVertex
 10
133.783829
 20
51.360416
 30
0.0
 70
    48
  0
VERTEX
  5
2A3
100
AcDbEntity
  8
0
390
0
100
AcDbVertex
100
AcDb3dPolylineVertex
 10
133.753586
 20
51.372929
 30
0.0
 70
    48
  0
VERTEX
  5
2A4
100
AcDbEntity
  8
0
390
0
100
AcDbVertex
100
AcDb3dPolylineVertex
 10
133.738586
 20
51.379417
 30
0.0
 70
    40
  0
VERTEX
  5
2A5
100
AcDbEntity
  8
0
390
0
100
AcDbVertex
100
AcDb3dPolylineVertex
 10
133.723846
 20
51.386372
 30
0.0
 70
    40
  0
VERTEX
  5
2A6
100
AcDbEntity
  8
0
390
0
100
AcDbVertex
100
AcDb3dPolylineVertex
 10
133.709366
 20
51.393791
 30
0.0
 70
    40
  0
VERTEX
  5
2A7
100
AcDbEntity
  8
0
390
0
100
AcDbVertex
100
AcDb3dPolylineVertex
 10
133.695145
 20
51.401676
 30
0.0
 70
    40
  0
VERTEX
  5
2A8
100
AcDbEntity
  8
0
390
0
100
AcDbVertex
100
AcDb3dPolylineVertex
 10
133.681168
 20
51.410027
 30
0.0
 70
    40
  0
VERTEX
  5
2A9
100
AcDbEntity
  8
0
390
0
100
AcDbVertex
100
AcDb3dPolylineVertex
 10
133.667465
 20
51.418842
 30
0.0
 70
    40
  0
VERTEX
  5
2AA
100
AcDbEntity
  8
0
390
0
100
AcDbVertex
100
AcDb3dPolylineVertex
 10
133.723343
 20
51.385441
 30
0.0
 70
    48
  0
VERTEX
  5
2AB
100
AcDbEntity
  8
0
390
0
100
AcDbVertex
100
AcDb3dPolylineVertex
 10
133.694626
 20
51.400745
 30
0.0
 70
    48
  0
VERTEX
  5
2AC
100
AcDbEntity
  8
0
390
0
100
AcDbVertex
100
AcDb3dPolylineVertex
 10
133.667465
 20
51.418842
 30
0.0
 70
    48
  0
VERTEX
  5
2AD
100
AcDbEntity
  8
0
390
0
100
AcDbVertex
100
AcDb3dPolylineVertex
 10
133.654007
 20
51.428135
 30
0.0
 70
    40
  0
VERTEX
  5
2AE
100
AcDbEntity
  8
0
390
0
100
AcDbVertex
100
AcDb3dPolylineVertex
 10
133.640823
 20
51.437893
 30
0.0
 70
    40
  0
VERTEX
  5
2AF
100
AcDbEntity
  8
0
390
0
100
AcDbVertex
100
AcDb3dPolylineVertex
 10
133.627945
 20
51.448093
 30
0.0
 70
    40
  0
VERTEX
  5
2B0
100
AcDbEntity
  8
0
390
0
100
AcDbVertex
100
AcDb3dPolylineVertex
 10
133.615402
 20
51.458706
 30
0.0
 70
    40
  0
VERTEX
  5
2B1
100
AcDbEntity
  8
0
390
0
100
AcDbVertex
100
AcDb3dPolylineVertex
 10
133.603241
 20
51.4697
 30
0.0
 70
    40
  0
VERTEX
  5
2B2
100
AcDbEntity
  8
0
390
0
100
AcDbVertex
100
AcDb3dPolylineVertex
 10
133.591476
 20
51.481052
 30
0.0
 70
    40
  0
VERTEX
  5
2B3
100
AcDbEntity
  8
0
390
0
100
AcDbVertex
100
AcDb3dPolylineVertex
 10
133.640305
 20
51.436939
 30
0.0
 70
    48
  0
VERTEX
  5
2B4
100
AcDbEntity
  8
0
390
0
100
AcDbVertex
100
AcDb3dPolylineVertex
 10
133.614578
 20
51.458012
 30
0.0
 70
    48
  0
VERTEX
  5
2B5
100
AcDbEntity
  8
0
390
0
100
AcDbVertex
100
AcDb3dPolylineVertex
 10
133.591476
 20
51.481052
 30
0.0
 70
    48
  0
VERTEX
  5
2B6
100
AcDbEntity
  8
0
390
0
100
AcDbVertex
100
AcDb3dPolylineVertex
 10
133.569138
 20
51.504875
 30
0.0
 70
    40
  0
VERTEX
  5
2B7
100
AcDbEntity
  8
0
390
0
100
AcDbVertex
100
AcDb3dPolylineVertex
 10
133.54837
 20
51.53017
 30
0.0
 70
    40
  0
VERTEX
  5
2B8
100
AcDbEntity
  8
0
390
0
100
AcDbVertex
100
AcDb3dPolylineVertex
 10
133.529266
 20
51.556786
 30
0.0
 70
    40
  0
VERTEX
  5
2B9
100
AcDbEntity
  8
0
390
0
100
AcDbVertex
100
AcDb3dPolylineVertex
 10
133.511932
 20
51.584579
 30
0.0
 70
    40
  0
VERTEX
  5
2BA
100
AcDbEntity
  8
0
390
0
100
AcDbVertex
100
AcDb3dPolylineVertex
 10
133.496445
 20
51.613403
 30
0.0
 70
    40
  0
VERTEX
  5
2BB
100
AcDbEntity
  8
0
390
0
100
AcDbVertex
100
AcDb3dPolylineVertex
 10
133.482925
 20
51.643116
 30
0.0
 70
    40
  0
VERTEX
  5
2BC
100
AcDbEntity
  8
0
390
0
100
AcDbVertex
100
AcDb3dPolylineVertex
 10
133.545303
 20
51.527134
 30
0.0
 70
    48
  0
VERTEX
  5
2BD
100
AcDbEntity
  8
0
390
0
100
AcDbVertex
100
AcDb3dPolylineVertex
 10
133.50795
 20
51.582905
 30
0.0
 70
    48
  0
VERTEX
  5
2BE
100
AcDbEntity
  8
0
390
0
100
AcDbVertex
100
AcDb3dPolylineVertex
 10
133.482925
 20
51.643116
 30
0.0
 70
    48
  0
VERTEX
  5
2BF
100
AcDbEntity
  8
0
390
0
100
AcDbVertex
100
AcDb3dPolylineVertex
 10
133.471405
 20
51.673676
 30
0.0
 70
    40
  0
VERTEX
  5
2C0
100
AcDbEntity
  8
0
390
0
100
AcDbVertex
100
AcDb3dPolylineVertex
 10
133.461899
 20
51.705009
 30
0.0
 70
    40
  0
VERTEX
  5
2C1
100
AcDbEntity
  8
0
390
0
100
AcDbVertex
100
AcDb3dPolylineVertex
 10
133.454437
 20
51.736946
 30
0.0
 70
    40
  0
VERTEX
  5
2C2
100
AcDbEntity
  8
0
390
0
100
AcDbVertex
100
AcDb3dPolylineVertex
 10
133.449051
 20
51.769306
 30
0.0
 70
    40
  0
VERTEX
  5
2C3
100
AcDbEntity
  8
0
390
0
100
AcDbVertex
100
AcDb3dPolylineVertex
 10
133.44577
 20
51.801914
 30
0.0
 70
    40
  0
VERTEX
  5
2C4
100
AcDbEntity
  8
0
390
0
100
AcDbVertex
100
AcDb3dPolylineVertex
 10
133.444656
 20
51.834599
 30
0.0
 70
    40
  0
VERTEX
  5
2C5
100
AcDbEntity
  8
0
390
0
100
AcDbVertex
100
AcDb3dPolylineVertex
 10
133.457901
 20
51.703342
 30
0.0
 70
    48
  0
VERTEX
  5
2C6
100
AcDbEntity
  8
0
390
0
100
AcDbVertex
100
AcDb3dPolylineVertex
 10
133.444717
 20
51.769276
 30
0.0
 70
    48
  0
VERTEX
  5
2C7
100
AcDbEntity
  8
0
390
0
100
AcDbVertex
100
AcDb3dPolylineVertex
 10
133.444656
 20
51.834599
 30
0.0
 70
    48
  0
VERTEX
  5
2C8
100
AcDbEntity
  8
0
390
0
100
AcDbVertex
100
AcDb3dPolylineVertex
 10
133.444931
 20
51.850967
 30
0.0
 70
    40
  0
VERTEX
  5
2C9
100
AcDbEntity
  8
0
390
0
100
AcDbVertex
100
AcDb3dPolylineVertex
 10
133.445724
 20
51.867378
 30
0.0
 70
    40
  0
VERTEX
  5
2CA
100
AcDbEntity
  8
0
390
0
100
AcDbVertex
100
AcDb3dPolylineVertex
 10
133.447067
 20
51.883785
 30
0.0
 70
    40
  0
VERTEX
  5
2CB
100
AcDbEntity
  8
0
390
0
100
AcDbVertex
100
AcDb3dPolylineVertex
 10
133.448944
 20
51.90015
 30
0.0
 70
    40
  0
VERTEX
  5
2CC
100
AcDbEntity
  8
0
390
0
100
AcDbVertex
100
AcDb3dPolylineVertex
 10
133.45134
 20
51.916428
 30
0.0
 70
    40
  0
VERTEX
  5
2CD
100
AcDbEntity
  8
0
390
0
100
AcDbVertex
100
AcDb3dPolylineVertex
 10
133.454269
 20
51.932575
 30
0.0
 70
    40
  0
VERTEX
  5
2CE
100
AcDbEntity
  8
0
390
0
100
AcDbVertex
100
AcDb3dPolylineVertex
 10
133.444656
 20
51.867268
 30
0.0
 70
    48
  0
VERTEX
  5
2CF
100
AcDbEntity
  8
0
390
0
100
AcDbVertex
100
AcDb3dPolylineVertex
 10
133.447891
 20
51.90044
 30
0.0
 70
    48
  0
VERTEX
  5
2D0
100
AcDbEntity
  8
0
390
0
100
AcDbVertex
100
AcDb3dPolylineVertex
 10
133.454269
 20
51.932575
 30
0.0
 70
    48
  0
VERTEX
  5
2D1
100
AcDbEntity
  8
0
390
0
100
AcDbVertex
100
AcDb3dPolylineVertex
 10
133.457733
 20
51.948566
 30
0.0
 70
    40
  0
VERTEX
  5
2D2
100
AcDbEntity
  8
0
390
0
100
AcDbVertex
100
AcDb3dPolylineVertex
 10
133.4617
 20
51.964401
 30
0.0
 70
    40
  0
VERTEX
  5
2D3
100
AcDbEntity
  8
0
390
0
100
AcDbVertex
100
AcDb3dPolylineVertex
 10
133.466171
 20
51.980083
 30
0.0
 70
    40
  0
VERTEX
  5
2D4
100
AcDbEntity
  8
0
390
0
100
AcDbVertex
100
AcDb3dPolylineVertex
 10
133.471161
 20
51.995613
 30
0.0
 70
    40
  0
VERTEX
  5
2D5
100
AcDbEntity
  8
0
390
0
100
AcDbVertex
100
AcDb3dPolylineVertex
 10
133.476669
 20
52.01099
 30
0.0
 70
    40
  0
VERTEX
  5
2D6
100
AcDbEntity
  8
0
390
0
100
AcDbVertex
100
AcDb3dPolylineVertex
 10
133.482681
 20
52.026218
 30
0.0
 70
    40
  0
VERTEX
  5
2D7
100
AcDbEntity
  8
0
390
0
100
AcDbVertex
100
AcDb3dPolylineVertex
 10
133.460678
 20
51.96471
 30
0.0
 70
    48
  0
VERTEX
  5
2D8
100
AcDbEntity
  8
0
390
0
100
AcDbVertex
100
AcDb3dPolylineVertex
 10
133.470139
 20
51.995914
 30
0.0
 70
    48
  0
VERTEX
  5
2D9
100
AcDbEntity
  8
0
390
0
100
AcDbVertex
100
AcDb3dPolylineVertex
 10
133.482681
 20
52.026218
 30
0.0
 70
    48
  0
VERTEX
  5
2DA
100
AcDbEntity
  8
0
390
0
100
AcDbVertex
100
AcDb3dPolylineVertex
 10
133.489212
 20
52.041283
 30
0.0
 70
    40
  0
VERTEX
  5
2DB
100
AcDbEntity
  8
0
390
0
100
AcDbVertex
100
AcDb3dPolylineVertex
 10
133.496246
 20
52.056145
 30
0.0
 70
    40
  0
VERTEX
  5
2DC
100
AcDbEntity
  8
0
390
0
100
AcDbVertex
100
AcDb3dPolylineVertex
 10
133.503769
 20
52.070778
 30
0.0
 70
    40
  0
VERTEX
  5
2DD
100
AcDbEntity
  8
0
390
0
100
AcDbVertex
100
AcDb3dPolylineVertex
 10
133.511749
 20
52.085144
 30
0.0
 70
    40
  0
VERTEX
  5
2DE
100
AcDbEntity
  8
0
390
0
100
AcDbVertex
100
AcDb3dPolylineVertex
 10
133.520187
 20
52.099205
 30
0.0
 70
    40
  0
VERTEX
  5
2DF
100
AcDbEntity
  8
0
390
0
100
AcDbVertex
100
AcDb3dPolylineVertex
 10
133.529037
 20
52.112934
 30
0.0
 70
    40
  0
VERTEX
  5
2E0
100
AcDbEntity
  8
0
390
0
100
AcDbVertex
100
AcDb3dPolylineVertex
 10
133.495224
 20
52.056522
 30
0.0
 70
    48
  0
VERTEX
  5
2E1
100
AcDbEntity
  8
0
390
0
100
AcDbVertex
100
AcDb3dPolylineVertex
 10
133.51091
 20
52.085835
 30
0.0
 70
    48
  0
VERTEX
  5
2E2
100
AcDbEntity
  8
0
390
0
100
AcDbVertex
100
AcDb3dPolylineVertex
 10
133.529037
 20
52.112934
 30
0.0
 70
    48
  0
VERTEX
  5
2E3
100
AcDbEntity
  8
0
390
0
100
AcDbVertex
100
AcDb3dPolylineVertex
 10
133.538315
 20
52.126331
 30
0.0
 70
    40
  0
VERTEX
  5
2E4
100
AcDbEntity
  8
0
390
0
100
AcDbVertex
100
AcDb3dPolylineVertex
 10
133.548019
 20
52.139416
 30
0.0
 70
    40
  0
VERTEX
  5
2E5
100
AcDbEntity
  8
0
390
0
100
AcDbVertex
100
AcDb3dPolylineVertex
 10
133.558167
 20
52.152191
 30
0.0
 70
    40
  0
VERTEX
  5
2E6
100
AcDbEntity
  8
0
390
0
100
AcDbVertex
100
AcDb3dPolylineVertex
 10
133.568741
 20
52.16465
 30
0.0
 70
    40
  0
VERTEX
  5
2E7
100
AcDbEntity
  8
0
390
0
100
AcDbVertex
100
AcDb3dPolylineVertex
 10
133.579742
 20
52.176792
 30
0.0
 70
    40
  0
VERTEX
  5
2E8
100
AcDbEntity
  8
0
390
0
100
AcDbVertex
100
AcDb3dPolylineVertex
 10
133.591202
 20
52.188618
 30
0.0
 70
    40
  0
VERTEX
  5
2E9
100
AcDbEntity
  8
0
390
0
100
AcDbVertex
100
AcDb3dPolylineVertex
 10
133.547165
 20
52.140034
 30
0.0
 70
    48
  0
VERTEX
  5
2EA
100
AcDbEntity
  8
0
390
0
100
AcDbVertex
100
AcDb3dPolylineVertex
 10
133.567856
 20
52.165287
 30
0.0
 70
    48
  0
VERTEX
  5
2EB
100
AcDbEntity
  8
0
390
0
100
AcDbVertex
100
AcDb3dPolylineVertex
 10
133.591202
 20
52.188618
 30
0.0
 70
    48
  0
VERTEX
  5
2EC
100
AcDbEntity
  8
0
390
0
100
AcDbVertex
100
AcDb3dPolylineVertex
 10
133.603043
 20
52.200066
 30
0.0
 70
    40
  0
VERTEX
  5
2ED
100
AcDbEntity
  8
0
390
0
100
AcDbVertex
100
AcDb3dPolylineVertex
 10
133.615189
 20
52.211075
 30
0.0
 70
    40
  0
VERTEX
  5
2EE
100
AcDbEntity
  8
0
390
0
100
AcDbVertex
100
AcDb3dPolylineVertex
 10
133.62767
 20
52.221642
 30
0.0
 70
    40
  0
VERTEX
  5
2EF
100
AcDbEntity
  8
0
390
0
100
AcDbVertex
100
AcDb3dPolylineVertex
 10
133.640442
 20
52.231773
 30
0.0
 70
    40
  0
VERTEX
  5
2F0
100
AcDbEntity
  8
0
390
0
100
AcDbVertex
100
AcDb3dPolylineVertex
 10
133.653534
 20
52.241467
 30
0.0
 70
    40
  0
VERTEX
  5
2F1
100
AcDbEntity
  8
0
390
0
100
AcDbVertex
100
AcDb3dPolylineVertex
 10
133.666916
 20
52.250721
 30
0.0
 70
    40
  0
VERTEX
  5
2F2
100
AcDbEntity
  8
0
390
0
100
AcDbVertex
100
AcDb3dPolylineVertex
 10
133.614548
 20
52.211948
 30
0.0
 70
    48
  0
VERTEX
  5
2F3
100
AcDbEntity
  8
0
390
0
100
AcDbVertex
100
AcDb3dPolylineVertex
 10
133.639847
 20
52.232655
 30
0.0
 70
    48
  0
VERTEX
  5
2F4
100
AcDbEntity
  8
0
390
0
100
AcDbVertex
100
AcDb3dPolylineVertex
 10
133.666916
 20
52.250721
 30
0.0
 70
    48
  0
VERTEX
  5
2F5
100
AcDbEntity
  8
0
390
0
100
AcDbVertex
100
AcDb3dPolylineVertex
 10
133.680618
 20
52.25956
 30
0.0
 70
    40
  0
VERTEX
  5
2F6
100
AcDbEntity
  8
0
390
0
100
AcDbVertex
100
AcDb3dPolylineVertex
 10
133.694656
 20
52.267967
 30
0.0
 70
    40
  0
VERTEX
  5
2F7
100
AcDbEntity
  8
0
390
0
100
AcDbVertex
100
AcDb3dPolylineVertex
 10
133.708969
 20
52.275925
 30
0.0
 70
    40
  0
VERTEX
  5
2F8
100
AcDbEntity
  8
0
390
0
100
AcDbVertex
100
AcDb3dPolylineVertex
 10
133.723557
 20
52.283421
 30
0.0
 70
    40
  0
VERTEX
  5
2F9
100
AcDbEntity
  8
0
390
0
100
AcDbVertex
100
AcDb3dPolylineVertex
 10
133.738388
 20
52.290436
 30
0.0
 70
    40
  0
VERTEX
  5
2FA
100
AcDbEntity
  8
0
390
0
100
AcDbVertex
100
AcDb3dPolylineVertex
 10
133.753433
 20
52.296955
 30
0.0
 70
    40
  0
VERTEX
  5
2FB
100
AcDbEntity
  8
0
390
0
100
AcDbVertex
100
AcDb3dPolylineVertex
 10
133.693985
 20
52.268818
 30
0.0
 70
    48
  0
VERTEX
  5
2FC
100
AcDbEntity
  8
0
390
0
100
AcDbVertex
100
AcDb3dPolylineVertex
 10
133.72316
 20
52.284428
 30
0.0
 70
    48
  0
VERTEX
  5
2FD
100
AcDbEntity
  8
0
390
0
100
AcDbVertex
100
AcDb3dPolylineVertex
 10
133.753433
 20
52.296955
 30
0.0
 70
    48
  0
VERTEX
  5
2FE
100
AcDbEntity
  8
0
390
0
100
AcDbVertex
100
AcDb3dPolylineVertex
 10
133.768631
 20
52.302959
 30
0.0
 70
    40
  0
VERTEX
  5
2FF
100
AcDbEntity
  8
0
390
0
100
AcDbVertex
100
AcDb3dPolylineVertex
 10
133.783966
 20
52.308449
 30
0.0
 70
    40
  0
VERTEX
  5
300
100
AcDbEntity
  8
0
390
0
100
AcDbVertex
100
AcDb3dPolylineVertex
 10
133.799438
 20
52.313423
 30
0.0
 70
    40
  0
VERTEX
  5
301
100
AcDbEntity
  8
0
390
0
100
AcDbVertex
100
AcDb3dPolylineVertex
 10
133.815063
 20
52.317886
 30
0.0
 70
    40
  0
VERTEX
  5
302
100
AcDbEntity
  8
0
390
0
100
AcDbVertex
100
AcDb3dPolylineVertex
 10
133.830841
 20
52.321842
 30
0.0
 70
    40
  0
VERTEX
  5
303
100
AcDbEntity
  8
0
390
0
100
AcDbVertex
100
AcDb3dPolylineVertex
 10
133.846756
 20
52.325291
 30
0.0
 70
    40
  0
VERTEX
  5
304
100
AcDbEntity
  8
0
390
0
100
AcDbVertex
100
AcDb3dPolylineVertex
 10
133.783676
 20
52.309483
 30
0.0
 70
    48
  0
VERTEX
  5
305
100
AcDbEntity
  8
0
390
0
100
AcDbVertex
100
AcDb3dPolylineVertex
 10
133.814774
 20
52.318897
 30
0.0
 70
    48
  0
VERTEX
  5
306
100
AcDbEntity
  8
0
390
0
100
AcDbVertex
100
AcDb3dPolylineVertex
 10
133.846756
 20
52.325291
 30
0.0
 70
    48
  0
VERTEX
  5
307
100
AcDbEntity
  8
0
390
0
100
AcDbVertex
100
AcDb3dPolylineVertex
 10
133.862808
 20
52.328228
 30
0.0
 70
    40
  0
VERTEX
  5
308
100
AcDbEntity
  8
0
390
0
100
AcDbVertex
100
AcDb3dPolylineVertex
 10
133.879013
 20
52.330643
 30
0.0
 70
    40
  0
VERTEX
  5
309
100
AcDbEntity
  8
0
390
0
100
AcDbVertex
100
AcDb3dPolylineVertex
 10
133.895325
 20
52.332535
 30
0.0
 70
    40
  0
VERTEX
  5
30A
100
AcDbEntity
  8
0
390
0
100
AcDbVertex
100
AcDb3dPolylineVertex
 10
133.911728
 20
52.333889
 30
0.0
 70
    40
  0
VERTEX
  5
30B
100
AcDbEntity
  8
0
390
0
100
AcDbVertex
100
AcDb3dPolylineVertex
 10
133.928177
 20
52.334705
 30
0.0
 70
    40
  0
VERTEX
  5
30C
100
AcDbEntity
  8
0
390
0
100
AcDbVertex
100
AcDb3dPolylineVertex
 10
133.944656
 20
52.33498
 30
0.0
 70
    40
  0
VERTEX
  5
30D
100
AcDbEntity
  8
0
390
0
100
AcDbVertex
100
AcDb3dPolylineVertex
 10
133.878708
 20
52.331684
 30
0.0
 70
    48
  0
VERTEX
  5
30E
100
AcDbEntity
  8
0
390
0
100
AcDbVertex
100
AcDb3dPolylineVertex
 10
133.911697
 20
52.33498
 30
0.0
 70
    48
  0
VERTEX
  5
30F
100
AcDbEntity
  8
0
390
0
100
AcDbVertex
100
AcDb3dPolylineVertex
 10
133.944656
 20
52.33498
 30
0.0
 70
    48
  0
SEQEND
  5
310
100
AcDbEntity
  8
0
390
0
  0
LINE
  5
311
100
AcDbEntity
  8
ARMATUR
390
0
  6
DURCHGEHEND
 62
     1
100
AcDbLine
 10
141.569656
 20
51.33498
 30
0.0
 11
133.944656
 21
51.33498
 31
0.0
  0
POLYLINE
  5
312
100
AcDbEntity
  8
ARMATUR
390
0
  6
DURCHGEHEND
 62
     1
100
AcDb3dPolyline
 66
     1
 10
0.0
 20
0.0
 30
0.0
 70
    12
 75
     5
  0
VERTEX
  5
313
100
AcDbEntity
  8
0
390
0
100
AcDbVertex
100
AcDb3dPolylineVertex
 10
141.569656
 20
52.33498
 30
0.0
 70
    48
  0
VERTEX
  5
314
100
AcDbEntity
  8
0
390
0
100
AcDbVertex
100
AcDb3dPolylineVertex
 10
141.569656
 20
52.33498
 30
0.0
 70
    40
  0
VERTEX
  5
315
100
AcDbEntity
  8
0
390
0
100
AcDbVertex
100
AcDb3dPolylineVertex
 10
141.58609
 20
52.334713
 30
0.0
 70
    40
  0
VERTEX
  5
316
100
AcDbEntity
  8
0
390
0
100
AcDbVertex
100
AcDb3dPolylineVertex
 10
141.602432
 20
52.333908
 30
0.0
 70
    40
  0
VERTEX
  5
317
100
AcDbEntity
  8
0
390
0
100
AcDbVertex
100
AcDb3dPolylineVertex
 10
141.618683
 20
52.332573
 30
0.0
 70
    40
  0
VERTEX
  5
318
100
AcDbEntity
  8
0
390
0
100
AcDbVertex
100
AcDb3dPolylineVertex
 10
141.634857
 20
52.330711
 30
0.0
 70
    40
  0
VERTEX
  5
319
100
AcDbEntity
  8
0
390
0
100
AcDbVertex
100
AcDb3dPolylineVertex
 10
141.650925
 20
52.328327
 30
0.0
 70
    40
  0
VERTEX
  5
31A
100
AcDbEntity
  8
0
390
0
100
AcDbVertex
100
AcDb3dPolylineVertex
 10
141.666916
 20
52.325428
 30
0.0
 70
    40
  0
VERTEX
  5
31B
100
AcDbEntity
  8
0
390
0
100
AcDbVertex
100
AcDb3dPolylineVertex
 10
141.602615
 20
52.33498
 30
0.0
 70
    48
  0
VERTEX
  5
31C
100
AcDbEntity
  8
0
390
0
100
AcDbVertex
100
AcDb3dPolylineVertex
 10
141.635025
 20
52.331745
 30
0.0
 70
    48
  0
VERTEX
  5
31D
100
AcDbEntity
  8
0
390
0
100
AcDbVertex
100
AcDb3dPolylineVertex
 10
141.666916
 20
52.325428
 30
0.0
 70
    48
  0
VERTEX
  5
31E
100
AcDbEntity
  8
0
390
0
100
AcDbVertex
100
AcDb3dPolylineVertex
 10
141.682846
 20
52.321995
 30
0.0
 70
    40
  0
VERTEX
  5
31F
100
AcDbEntity
  8
0
390
0
100
AcDbVertex
100
AcDb3dPolylineVertex
 10
141.6987
 20
52.318027
 30
0.0
 70
    40
  0
VERTEX
  5
320
100
AcDbEntity
  8
0
390
0
100
AcDbVertex
100
AcDb3dPolylineVertex
 10
141.714462
 20
52.313538
 30
0.0
 70
    40
  0
VERTEX
  5
321
100
AcDbEntity
  8
0
390
0
100
AcDbVertex
100
AcDb3dPolylineVertex
 10
141.730072
 20
52.308537
 30
0.0
 70
    40
  0
VERTEX
  5
322
100
AcDbEntity
  8
0
390
0
100
AcDbVertex
100
AcDb3dPolylineVertex
 10
141.745514
 20
52.303024
 30
0.0
 70
    40
  0
VERTEX
  5
323
100
AcDbEntity
  8
0
390
0
100
AcDbVertex
100
AcDb3dPolylineVertex
 10
141.760757
 20
52.297016
 30
0.0
 70
    40
  0
VERTEX
  5
324
100
AcDbEntity
  8
0
390
0
100
AcDbVertex
100
AcDb3dPolylineVertex
 10
141.698807
 20
52.319096
 30
0.0
 70
    48
  0
VERTEX
  5
325
100
AcDbEntity
  8
0
390
0
100
AcDbVertex
100
AcDb3dPolylineVertex
 10
141.730515
 20
52.309528
 30
0.0
 70
    48
  0
VERTEX
  5
326
100
AcDbEntity
  8
0
390
0
100
AcDbVertex
100
AcDb3dPolylineVertex
 10
141.760757
 20
52.297016
 30
0.0
 70
    48
  0
VERTEX
  5
327
100
AcDbEntity
  8
0
390
0
100
AcDbVertex
100
AcDb3dPolylineVertex
 10
141.775757
 20
52.290527
 30
0.0
 70
    40
  0
VERTEX
  5
328
100
AcDbEntity
  8
0
390
0
100
AcDbVertex
100
AcDb3dPolylineVertex
 10
141.790482
 20
52.283573
 30
0.0
 70
    40
  0
VERTEX
  5
329
100
AcDbEntity
  8
0
390
0
100
AcDbVertex
100
AcDb3dPolylineVertex
 10
141.804962
 20
52.276154
 30
0.0
 70
    40
  0
VERTEX
  5
32A
100
AcDbEntity
  8
0
390
0
100
AcDbVertex
100
AcDb3dPolylineVertex
 10
141.819183
 20
52.268269
 30
0.0
 70
    40
  0
VERTEX
  5
32B
100
AcDbEntity
  8
0
390
0
100
AcDbVertex
100
AcDb3dPolylineVertex
 10
141.833145
 20
52.259918
 30
0.0
 70
    40
  0
VERTEX
  5
32C
100
AcDbEntity
  8
0
390
0
100
AcDbVertex
100
AcDb3dPolylineVertex
 10
141.846848
 20
52.251102
 30
0.0
 70
    40
  0
VERTEX
  5
32D
100
AcDbEntity
  8
0
390
0
100
AcDbVertex
100
AcDb3dPolylineVertex
 10
141.791
 20
52.284504
 30
0.0
 70
    48
  0
VERTEX
  5
32E
100
AcDbEntity
  8
0
390
0
100
AcDbVertex
100
AcDb3dPolylineVertex
 10
141.819687
 20
52.269199
 30
0.0
 70
    48
  0
VERTEX
  5
32F
100
AcDbEntity
  8
0
390
0
100
AcDbVertex
100
AcDb3dPolylineVertex
 10
141.846848
 20
52.251102
 30
0.0
 70
    48
  0
VERTEX
  5
330
100
AcDbEntity
  8
0
390
0
100
AcDbVertex
100
AcDb3dPolylineVertex
 10
141.860306
 20
52.24181
 30
0.0
 70
    40
  0
VERTEX
  5
331
100
AcDbEntity
  8
0
390
0
100
AcDbVertex
100
AcDb3dPolylineVertex
 10
141.873489
 20
52.232052
 30
0.0
 70
    40
  0
VERTEX
  5
332
100
AcDbEntity
  8
0
390
0
100
AcDbVertex
100
AcDb3dPolylineVertex
 10
141.886383
 20
52.221851
 30
0.0
 70
    40
  0
VERTEX
  5
333
100
AcDbEntity
  8
0
390
0
100
AcDbVertex
100
AcDb3dPolylineVertex
 10
141.898926
 20
52.211239
 30
0.0
 70
    40
  0
VERTEX
  5
334
100
AcDbEntity
  8
0
390
0
100
AcDbVertex
100
AcDb3dPolylineVertex
 10
141.911102
 20
52.200245
 30
0.0
 70
    40
  0
VERTEX
  5
335
100
AcDbEntity
  8
0
390
0
100
AcDbVertex
100
AcDb3dPolylineVertex
 10
141.922867
 20
52.188892
 30
0.0
 70
    40
  0
VERTEX
  5
336
100
AcDbEntity
  8
0
390
0
100
AcDbVertex
100
AcDb3dPolylineVertex
 10
141.874008
 20
52.233006
 30
0.0
 70
    48
  0
VERTEX
  5
337
100
AcDbEntity
  8
0
390
0
100
AcDbVertex
100
AcDb3dPolylineVertex
 10
141.899765
 20
52.211933
 30
0.0
 70
    48
  0
VERTEX
  5
338
100
AcDbEntity
  8
0
390
0
100
AcDbVertex
100
AcDb3dPolylineVertex
 10
141.922867
 20
52.188892
 30
0.0
 70
    48
  0
VERTEX
  5
339
100
AcDbEntity
  8
0
390
0
100
AcDbVertex
100
AcDb3dPolylineVertex
 10
141.945206
 20
52.16507
 30
0.0
 70
    40
  0
VERTEX
  5
33A
100
AcDbEntity
  8
0
390
0
100
AcDbVertex
100
AcDb3dPolylineVertex
 10
141.965958
 20
52.139774
 30
0.0
 70
    40
  0
VERTEX
  5
33B
100
AcDbEntity
  8
0
390
0
100
AcDbVertex
100
AcDb3dPolylineVertex
 10
141.985062
 20
52.113159
 30
0.0
 70
    40
  0
VERTEX
  5
33C
100
AcDbEntity
  8
0
390
0
100
AcDbVertex
100
AcDb3dPolylineVertex
 10
142.002396
 20
52.085361
 30
0.0
 70
    40
  0
VERTEX
  5
33D
100
AcDbEntity
  8
0
390
0
100
AcDbVertex
100
AcDb3dPolylineVertex
 10
142.017868
 20
52.05653
 30
0.0
 70
    40
  0
VERTEX
  5
33E
100
AcDbEntity
  8
0
390
0
100
AcDbVertex
100
AcDb3dPolylineVertex
 10
142.031387
 20
52.026814
 30
0.0
 70
    40
  0
VERTEX
  5
33F
100
AcDbEntity
  8
0
390
0
100
AcDbVertex
100
AcDb3dPolylineVertex
 10
141.96904
 20
52.142811
 30
0.0
 70
    48
  0
VERTEX
  5
340
100
AcDbEntity
  8
0
390
0
100
AcDbVertex
100
AcDb3dPolylineVertex
 10
142.006363
 20
52.08704
 30
0.0
 70
    48
  0
VERTEX
  5
341
100
AcDbEntity
  8
0
390
0
100
AcDbVertex
100
AcDb3dPolylineVertex
 10
142.031387
 20
52.026814
 30
0.0
 70
    48
  0
VERTEX
  5
342
100
AcDbEntity
  8
0
390
0
100
AcDbVertex
100
AcDb3dPolylineVertex
 10
142.042908
 20
51.996254
 30
0.0
 70
    40
  0
VERTEX
  5
343
100
AcDbEntity
  8
0
390
0
100
AcDbVertex
100
AcDb3dPolylineVertex
 10
142.052429
 20
51.964924
 30
0.0
 70
    40
  0
VERTEX
  5
344
100
AcDbEntity
  8
0
390
0
100
AcDbVertex
100
AcDb3dPolylineVertex
 10
142.059891
 20
51.932991
 30
0.0
 70
    40
  0
VERTEX
  5
345
100
AcDbEntity
  8
0
390
0
100
AcDbVertex
100
AcDb3dPolylineVertex
 10
142.065277
 20
51.900635
 30
0.0
 70
    40
  0
VERTEX
  5
346
100
AcDbEntity
  8
0
390
0
100
AcDbVertex
100
AcDb3dPolylineVertex
 10
142.068542
 20
51.868027
 30
0.0
 70
    40
  0
VERTEX
  5
347
100
AcDbEntity
  8
0
390
0
100
AcDbVertex
100
AcDb3dPolylineVertex
 10
142.069656
 20
51.835346
 30
0.0
 70
    40
  0
VERTEX
  5
348
100
AcDbEntity
  8
0
390
0
100
AcDbVertex
100
AcDb3dPolylineVertex
 10
142.056412
 20
51.966587
 30
0.0
 70
    48
  0
VERTEX
  5
349
100
AcDbEntity
  8
0
390
0
100
AcDbVertex
100
AcDb3dPolylineVertex
 10
142.069626
 20
51.900669
 30
0.0
 70
    48
  0
VERTEX
  5
34A
100
AcDbEntity
  8
0
390
0
100
AcDbVertex
100
AcDb3dPolylineVertex
 10
142.069656
 20
51.835346
 30
0.0
 70
    48
  0
VERTEX
  5
34B
100
AcDbEntity
  8
0
390
0
100
AcDbVertex
100
AcDb3dPolylineVertex
 10
142.069397
 20
51.818977
 30
0.0
 70
    40
  0
VERTEX
  5
34C
100
AcDbEntity
  8
0
390
0
100
AcDbVertex
100
AcDb3dPolylineVertex
 10
142.068604
 20
51.802563
 30
0.0
 70
    40
  0
VERTEX
  5
34D
100
AcDbEntity
  8
0
390
0
100
AcDbVertex
100
AcDb3dPolylineVertex
 10
142.067261
 20
51.786152
 30
0.0
 70
    40
  0
VERTEX
  5
34E
100
AcDbEntity
  8
0
390
0
100
AcDbVertex
100
AcDb3dPolylineVertex
 10
142.065384
 20
51.769787
 30
0.0
 70
    40
  0
VERTEX
  5
34F
100
AcDbEntity
  8
0
390
0
100
AcDbVertex
100
AcDb3dPolylineVertex
 10
142.062988
 20
51.75351
 30
0.0
 70
    40
  0
VERTEX
  5
350
100
AcDbEntity
  8
0
390
0
100
AcDbVertex
100
AcDb3dPolylineVertex
 10
142.060043
 20
51.73737
 30
0.0
 70
    40
  0
VERTEX
  5
351
100
AcDbEntity
  8
0
390
0
100
AcDbVertex
100
AcDb3dPolylineVertex
 10
142.069687
 20
51.802677
 30
0.0
 70
    48
  0
VERTEX
  5
352
100
AcDbEntity
  8
0
390
0
100
AcDbVertex
100
AcDb3dPolylineVertex
 10
142.066452
 20
51.769489
 30
0.0
 70
    48
  0
VERTEX
  5
353
100
AcDbEntity
  8
0
390
0
100
AcDbVertex
100
AcDb3dPolylineVertex
 10
142.060043
 20
51.73737
 30
0.0
 70
    48
  0
VERTEX
  5
354
100
AcDbEntity
  8
0
390
0
100
AcDbVertex
100
AcDb3dPolylineVertex
 10
142.056595
 20
51.721386
 30
0.0
 70
    40
  0
VERTEX
  5
355
100
AcDbEntity
  8
0
390
0
100
AcDbVertex
100
AcDb3dPolylineVertex
 10
142.052628
 20
51.705551
 30
0.0
 70
    40
  0
VERTEX
  5
356
100
AcDbEntity
  8
0
390
0
100
AcDbVertex
100
AcDb3dPolylineVertex
 10
142.048157
 20
51.689865
 30
0.0
 70
    40
  0
VERTEX
  5
357
100
AcDbEntity
  8
0
390
0
100
AcDbVertex
100
AcDb3dPolylineVertex
 10
142.043152
 20
51.674335
 30
0.0
 70
    40
  0
VERTEX
  5
358
100
AcDbEntity
  8
0
390
0
100
AcDbVertex
100
AcDb3dPolylineVertex
 10
142.037643
 20
51.658955
 30
0.0
 70
    40
  0
VERTEX
  5
359
100
AcDbEntity
  8
0
390
0
100
AcDbVertex
100
AcDb3dPolylineVertex
 10
142.031631
 20
51.643726
 30
0.0
 70
    40
  0
VERTEX
  5
35A
100
AcDbEntity
  8
0
390
0
100
AcDbVertex
100
AcDb3dPolylineVertex
 10
142.053665
 20
51.70525
 30
0.0
 70
    48
  0
VERTEX
  5
35B
100
AcDbEntity
  8
0
390
0
100
AcDbVertex
100
AcDb3dPolylineVertex
 10
142.044174
 20
51.67403
 30
0.0
 70
    48
  0
VERTEX
  5
35C
100
AcDbEntity
  8
0
390
0
100
AcDbVertex
100
AcDb3dPolylineVertex
 10
142.031631
 20
51.643726
 30
0.0
 70
    48
  0
VERTEX
  5
35D
100
AcDbEntity
  8
0
390
0
100
AcDbVertex
100
AcDb3dPolylineVertex
 10
142.025101
 20
51.628662
 30
0.0
 70
    40
  0
VERTEX
  5
35E
100
AcDbEntity
  8
0
390
0
100
AcDbVertex
100
AcDb3dPolylineVertex
 10
142.018066
 20
51.6138
 30
0.0
 70
    40
  0
VERTEX
  5
35F
100
AcDbEntity
  8
0
390
0
100
AcDbVertex
100
AcDb3dPolylineVertex
 10
142.010544
 20
51.599167
 30
0.0
 70
    40
  0
VERTEX
  5
360
100
AcDbEntity
  8
0
390
0
100
AcDbVertex
100
AcDb3dPolylineVertex
 10
142.002563
 20
51.584801
 30
0.0
 70
    40
  0
VERTEX
  5
361
100
AcDbEntity
  8
0
390
0
100
AcDbVertex
100
AcDb3dPolylineVertex
 10
141.994125
 20
51.57074
 30
0.0
 70
    40
  0
VERTEX
  5
362
100
AcDbEntity
  8
0
390
0
100
AcDbVertex
100
AcDb3dPolylineVertex
 10
141.985275
 20
51.557011
 30
0.0
 70
    40
  0
VERTEX
  5
363
100
AcDbEntity
  8
0
390
0
100
AcDbVertex
100
AcDb3dPolylineVertex
 10
142.019089
 20
51.613422
 30
0.0
 70
    48
  0
VERTEX
  5
364
100
AcDbEntity
  8
0
390
0
100
AcDbVertex
100
AcDb3dPolylineVertex
 10
142.003403
 20
51.58411
 30
0.0
 70
    48
  0
VERTEX
  5
365
100
AcDbEntity
  8
0
390
0
100
AcDbVertex
100
AcDb3dPolylineVertex
 10
141.985275
 20
51.557011
 30
0.0
 70
    48
  0
VERTEX
  5
366
100
AcDbEntity
  8
0
390
0
100
AcDbVertex
100
AcDb3dPolylineVertex
 10
141.975998
 20
51.543613
 30
0.0
 70
    40
  0
VERTEX
  5
367
100
AcDbEntity
  8
0
390
0
100
AcDbVertex
100
AcDb3dPolylineVertex
 10
141.966293
 20
51.530529
 30
0.0
 70
    40
  0
VERTEX
  5
368
100
AcDbEntity
  8
0
390
0
100
AcDbVertex
100
AcDb3dPolylineVertex
 10
141.956146
 20
51.517754
 30
0.0
 70
    40
  0
VERTEX
  5
369
100
AcDbEntity
  8
0
390
0
100
AcDbVertex
100
AcDb3dPolylineVertex
 10
141.945572
 20
51.505295
 30
0.0
 70
    40
  0
VERTEX
  5
36A
100
AcDbEntity
  8
0
390
0
100
AcDbVertex
100
AcDb3dPolylineVertex
 10
141.93457
 20
51.493153
 30
0.0
 70
    40
  0
VERTEX
  5
36B
100
AcDbEntity
  8
0
390
0
100
AcDbVertex
100
AcDb3dPolylineVertex
 10
141.923111
 20
51.481327
 30
0.0
 70
    40
  0
VERTEX
  5
36C
100
AcDbEntity
  8
0
390
0
100
AcDbVertex
100
AcDb3dPolylineVertex
 10
141.967148
 20
51.529911
 30
0.0
 70
    48
  0
VERTEX
  5
36D
100
AcDbEntity
  8
0
390
0
100
AcDbVertex
100
AcDb3dPolylineVertex
 10
141.946457
 20
51.504658
 30
0.0
 70
    48
  0
VERTEX
  5
36E
100
AcDbEntity
  8
0
390
0
100
AcDbVertex
100
AcDb3dPolylineVertex
 10
141.923111
 20
51.481327
 30
0.0
 70
    48
  0
VERTEX
  5
36F
100
AcDbEntity
  8
0
390
0
100
AcDbVertex
100
AcDb3dPolylineVertex
 10
141.911285
 20
51.469879
 30
0.0
 70
    40
  0
VERTEX
  5
370
100
AcDbEntity
  8
0
390
0
100
AcDbVertex
100
AcDb3dPolylineVertex
 10
141.899139
 20
51.45887
 30
0.0
 70
    40
  0
VERTEX
  5
371
100
AcDbEntity
  8
0
390
0
100
AcDbVertex
100
AcDb3dPolylineVertex
 10
141.886658
 20
51.448299
 30
0.0
 70
    40
  0
VERTEX
  5
372
100
AcDbEntity
  8
0
390
0
100
AcDbVertex
100
AcDb3dPolylineVertex
 10
141.873886
 20
51.438164
 30
0.0
 70
    40
  0
VERTEX
  5
373
100
AcDbEntity
  8
0
390
0
100
AcDbVertex
100
AcDb3dPolylineVertex
 10
141.860809
 20
51.428467
 30
0.0
 70
    40
  0
VERTEX
  5
374
100
AcDbEntity
  8
0
390
0
100
AcDbVertex
100
AcDb3dPolylineVertex
 10
141.847427
 20
51.419209
 30
0.0
 70
    40
  0
VERTEX
  5
375
100
AcDbEntity
  8
0
390
0
100
AcDbVertex
100
AcDb3dPolylineVertex
 10
141.899796
 20
51.457996
 30
0.0
 70
    48
  0
VERTEX
  5
376
100
AcDbEntity
  8
0
390
0
100
AcDbVertex
100
AcDb3dPolylineVertex
 10
141.874466
 20
51.43729
 30
0.0
 70
    48
  0
VERTEX
  5
377
100
AcDbEntity
  8
0
390
0
100
AcDbVertex
100
AcDb3dPolylineVertex
 10
141.847427
 20
51.419209
 30
0.0
 70
    48
  0
VERTEX
  5
378
100
AcDbEntity
  8
0
390
0
100
AcDbVertex
100
AcDb3dPolylineVertex
 10
141.833725
 20
51.410378
 30
0.0
 70
    40
  0
VERTEX
  5
379
100
AcDbEntity
  8
0
390
0
100
AcDbVertex
100
AcDb3dPolylineVertex
 10
141.819687
 20
51.401974
 30
0.0
 70
    40
  0
VERTEX
  5
37A
100
AcDbEntity
  8
0
390
0
100
AcDbVertex
100
AcDb3dPolylineVertex
 10
141.805359
 20
51.394016
 30
0.0
 70
    40
  0
VERTEX
  5
37B
100
AcDbEntity
  8
0
390
0
100
AcDbVertex
100
AcDb3dPolylineVertex
 10
141.790771
 20
51.38652
 30
0.0
 70
    40
  0
VERTEX
  5
37C
100
AcDbEntity
  8
0
390
0
100
AcDbVertex
100
AcDb3dPolylineVertex
 10
141.77594
 20
51.379509
 30
0.0
 70
    40
  0
VERTEX
  5
37D
100
AcDbEntity
  8
0
390
0
100
AcDbVertex
100
AcDb3dPolylineVertex
 10
141.76091
 20
51.37299
 30
0.0
 70
    40
  0
VERTEX
  5
37E
100
AcDbEntity
  8
0
390
0
100
AcDbVertex
100
AcDb3dPolylineVertex
 10
141.820358
 20
51.401127
 30
0.0
 70
    48
  0
VERTEX
  5
37F
100
AcDbEntity
  8
0
390
0
100
AcDbVertex
100
AcDb3dPolylineVertex
 10
141.791153
 20
51.385517
 30
0.0
 70
    48
  0
VERTEX
  5
380
100
AcDbEntity
  8
0
390
0
100
AcDbVertex
100
AcDb3dPolylineVertex
 10
141.76091
 20
51.37299
 30
0.0
 70
    48
  0
VERTEX
  5
381
100
AcDbEntity
  8
0
390
0
100
AcDbVertex
100
AcDb3dPolylineVertex
 10
141.745712
 20
51.366985
 30
0.0
 70
    40
  0
VERTEX
  5
382
100
AcDbEntity
  8
0
390
0
100
AcDbVertex
100
AcDb3dPolylineVertex
 10
141.730377
 20
51.361492
 30
0.0
 70
    40
  0
VERTEX
  5
383
100
AcDbEntity
  8
0
390
0
100
AcDbVertex
100
AcDb3dPolylineVertex
 10
141.71489
 20
51.356518
 30
0.0
 70
    40
  0
VERTEX
  5
384
100
AcDbEntity
  8
0
390
0
100
AcDbVertex
100
AcDb3dPolylineVertex
 10
141.699265
 20
51.352051
 30
0.0
 70
    40
  0
VERTEX
  5
385
100
AcDbEntity
  8
0
390
0
100
AcDbVertex
100
AcDb3dPolylineVertex
 10
141.683487
 20
51.348099
 30
0.0
 70
    40
  0
VERTEX
  5
386
100
AcDbEntity
  8
0
390
0
100
AcDbVertex
100
AcDb3dPolylineVertex
 10
141.667587
 20
51.344654
 30
0.0
 70
    40
  0
VERTEX
  5
387
100
AcDbEntity
  8
0
390
0
100
AcDbVertex
100
AcDb3dPolylineVertex
 10
141.730667
 20
51.360462
 30
0.0
 70
    48
  0
VERTEX
  5
388
100
AcDbEntity
  8
0
390
0
100
AcDbVertex
100
AcDb3dPolylineVertex
 10
141.699539
 20
51.351032
 30
0.0
 70
    48
  0
VERTEX
  5
389
100
AcDbEntity
  8
0
390
0
100
AcDbVertex
100
AcDb3dPolylineVertex
 10
141.667587
 20
51.344654
 30
0.0
 70
    48
  0
VERTEX
  5
38A
100
AcDbEntity
  8
0
390
0
100
AcDbVertex
100
AcDb3dPolylineVertex
 10
141.65152
 20
51.341724
 30
0.0
 70
    40
  0
VERTEX
  5
38B
100
AcDbEntity
  8
0
390
0
100
AcDbVertex
100
AcDb3dPolylineVertex
 10
141.635315
 20
51.33931
 30
0.0
 70
    40
  0
VERTEX
  5
38C
100
AcDbEntity
  8
0
390
0
100
AcDbVertex
100
AcDb3dPolylineVertex
 10
141.618988
 20
51.337425
 30
0.0
 70
    40
  0
VERTEX
  5
38D
100
AcDbEntity
  8
0
390
0
100
AcDbVertex
100
AcDb3dPolylineVertex
 10
141.602585
 20
51.336071
 30
0.0
 70
    40
  0
VERTEX
  5
38E
100
AcDbEntity
  8
0
390
0
100
AcDbVertex
100
AcDb3dPolylineVertex
 10
141.586136
 20
51.335255
 30
0.0
 70
    40
  0
VERTEX
  5
38F
100
AcDbEntity
  8
0
390
0
100
AcDbVertex
100
AcDb3dPolylineVertex
 10
141.569656
 20
51.33498
 30
0.0
 70
    40
  0
VERTEX
  5
390
100
AcDbEntity
  8
0
390
0
100
AcDbVertex
100
AcDb3dPolylineVertex
 10
141.635605
 20
51.338276
 30
0.0
 70
    48
  0
VERTEX
  5
391
100
AcDbEntity
  8
0
390
0
100
AcDbVertex
100
AcDb3dPolylineVertex
 10
141.602615
 20
51.33498
 30
0.0
 70
    48
  0
VERTEX
  5
392
100
AcDbEntity
  8
0
390
0
100
AcDbVertex
100
AcDb3dPolylineVertex
 10
141.569656
 20
51.33498
 30
0.0
 70
    48
  0
SEQEND
  5
393
100
AcDbEntity
  8
0
390
0
  0
LINE
  5
394
100
AcDbEntity
  8
ARMATUR
390
0
  6
DURCHGEHEND
 62
     1
100
AcDbLine
 10
133.944656
 20
52.33498
 30
0.0
 11
141.569656
 21
52.33498
 31
0.0
  0
POLYLINE
  5
395
100
AcDbEntity
  8
ARMATUR
390
0
  6
DURCHGEHEND
 62
     1
100
AcDb3dPolyline
 66
     1
 10
0.0
 20
0.0
 30
0.0
 70
    12
 75
     5
  0
VERTEX
  5
396
100
AcDbEntity
  8
0
390
0
100
AcDbVertex
100
AcDb3dPolylineVertex
 10
141.144302
 20
54.08498
 30
0.0
 70
    48
  0
VERTEX
  5
397
100
AcDbEntity
  8
0
390
0
100
AcDbVertex
100
AcDb3dPolylineVertex
 10
141.144302
 20
54.08498
 30
0.0
 70
    40
  0
VERTEX
  5
398
100
AcDbEntity
  8
0
390
0
100
AcDbVertex
100
AcDb3dPolylineVertex
 10
141.160751
 20
54.084709
 30
0.0
 70
    40
  0
VERTEX
  5
399
100
AcDbEntity
  8
0
390
0
100
AcDbVertex
100
AcDb3dPolylineVertex
 10
141.177109
 20
54.083908
 30
0.0
 70
    40
  0
VERTEX
  5
39A
100
AcDbEntity
  8
0
390
0
100
AcDbVertex
100
AcDb3dPolylineVertex
 10
141.193375
 20
54.082569
 30
0.0
 70
    40
  0
VERTEX
  5
39B
100
AcDbEntity
  8
0
390
0
100
AcDbVertex
100
AcDb3dPolylineVertex
 10
141.209564
 20
54.080704
 30
0.0
 70
    40
  0
VERTEX
  5
39C
100
AcDbEntity
  8
0
390
0
100
AcDbVertex
100
AcDb3dPolylineVertex
 10
141.225647
 20
54.078312
 30
0.0
 70
    40
  0
VERTEX
  5
39D
100
AcDbEntity
  8
0
390
0
100
AcDbVertex
100
AcDb3dPolylineVertex
 10
141.241653
 20
54.075397
 30
0.0
 70
    40
  0
VERTEX
  5
39E
100
AcDbEntity
  8
0
390
0
100
AcDbVertex
100
AcDb3dPolylineVertex
 10
141.177292
 20
54.08498
 30
0.0
 70
    48
  0
VERTEX
  5
39F
100
AcDbEntity
  8
0
390
0
100
AcDbVertex
100
AcDb3dPolylineVertex
 10
141.209732
 20
54.081745
 30
0.0
 70
    48
  0
VERTEX
  5
3A0
100
AcDbEntity
  8
0
390
0
100
AcDbVertex
100
AcDb3dPolylineVertex
 10
141.241653
 20
54.075397
 30
0.0
 70
    48
  0
VERTEX
  5
3A1
100
AcDbEntity
  8
0
390
0
100
AcDbVertex
100
AcDb3dPolylineVertex
 10
141.257599
 20
54.071953
 30
0.0
 70
    40
  0
VERTEX
  5
3A2
100
AcDbEntity
  8
0
390
0
100
AcDbVertex
100
AcDb3dPolylineVertex
 10
141.273483
 20
54.067978
 30
0.0
 70
    40
  0
VERTEX
  5
3A3
100
AcDbEntity
  8
0
390
0
100
AcDbVertex
100
AcDb3dPolylineVertex
 10
141.289261
 20
54.063477
 30
0.0
 70
    40
  0
VERTEX
  5
3A4
100
AcDbEntity
  8
0
390
0
100
AcDbVertex
100
AcDb3dPolylineVertex
 10
141.304916
 20
54.05846
 30
0.0
 70
    40
  0
VERTEX
  5
3A5
100
AcDbEntity
  8
0
390
0
100
AcDbVertex
100
AcDb3dPolylineVertex
 10
141.320389
 20
54.052933
 30
0.0
 70
    40
  0
VERTEX
  5
3A6
100
AcDbEntity
  8
0
390
0
100
AcDbVertex
100
AcDb3dPolylineVertex
 10
141.335648
 20
54.046909
 30
0.0
 70
    40
  0
VERTEX
  5
3A7
100
AcDbEntity
  8
0
390
0
100
AcDbVertex
100
AcDb3dPolylineVertex
 10
141.273605
 20
54.06905
 30
0.0
 70
    48
  0
VERTEX
  5
3A8
100
AcDbEntity
  8
0
390
0
100
AcDbVertex
100
AcDb3dPolylineVertex
 10
141.305344
 20
54.059452
 30
0.0
 70
    48
  0
VERTEX
  5
3A9
100
AcDbEntity
  8
0
390
0
100
AcDbVertex
100
AcDb3dPolylineVertex
 10
141.335648
 20
54.046909
 30
0.0
 70
    48
  0
VERTEX
  5
3AA
100
AcDbEntity
  8
0
390
0
100
AcDbVertex
100
AcDb3dPolylineVertex
 10
141.350662
 20
54.040401
 30
0.0
 70
    40
  0
VERTEX
  5
3AB
100
AcDbEntity
  8
0
390
0
100
AcDbVertex
100
AcDb3dPolylineVertex
 10
141.365417
 20
54.033428
 30
0.0
 70
    40
  0
VERTEX
  5
3AC
100
AcDbEntity
  8
0
390
0
100
AcDbVertex
100
AcDb3dPolylineVertex
 10
141.379913
 20
54.025982
 30
0.0
 70
    40
  0
VERTEX
  5
3AD
100
AcDbEntity
  8
0
390
0
100
AcDbVertex
100
AcDb3dPolylineVertex
 10
141.39415
 20
54.01807
 30
0.0
 70
    40
  0
VERTEX
  5
3AE
100
AcDbEntity
  8
0
390
0
100
AcDbVertex
100
AcDb3dPolylineVertex
 10
141.408142
 20
54.009689
 30
0.0
 70
    40
  0
VERTEX
  5
3AF
100
AcDbEntity
  8
0
390
0
100
AcDbVertex
100
AcDb3dPolylineVertex
 10
141.42186
 20
54.000843
 30
0.0
 70
    40
  0
VERTEX
  5
3B0
100
AcDbEntity
  8
0
390
0
100
AcDbVertex
100
AcDb3dPolylineVertex
 10
141.365921
 20
54.034367
 30
0.0
 70
    48
  0
VERTEX
  5
3B1
100
AcDbEntity
  8
0
390
0
100
AcDbVertex
100
AcDb3dPolylineVertex
 10
141.394669
 20
54.019001
 30
0.0
 70
    48
  0
VERTEX
  5
3B2
100
AcDbEntity
  8
0
390
0
100
AcDbVertex
100
AcDb3dPolylineVertex
 10
141.42186
 20
54.000843
 30
0.0
 70
    48
  0
VERTEX
  5
3B3
100
AcDbEntity
  8
0
390
0
100
AcDbVertex
100
AcDb3dPolylineVertex
 10
141.435333
 20
53.99152
 30
0.0
 70
    40
  0
VERTEX
  5
3B4
100
AcDbEntity
  8
0
390
0
100
AcDbVertex
100
AcDb3dPolylineVertex
 10
141.448532
 20
53.981728
 30
0.0
 70
    40
  0
VERTEX
  5
3B5
100
AcDbEntity
  8
0
390
0
100
AcDbVertex
100
AcDb3dPolylineVertex
 10
141.461426
 20
53.971493
 30
0.0
 70
    40
  0
VERTEX
  5
3B6
100
AcDbEntity
  8
0
390
0
100
AcDbVertex
100
AcDb3dPolylineVertex
 10
141.473984
 20
53.960846
 30
0.0
 70
    40
  0
VERTEX
  5
3B7
100
AcDbEntity
  8
0
390
0
100
AcDbVertex
100
AcDb3dPolylineVertex
 10
141.486176
 20
53.949818
 30
0.0
 70
    40
  0
VERTEX
  5
3B8
100
AcDbEntity
  8
0
390
0
100
AcDbVertex
100
AcDb3dPolylineVertex
 10
141.49794
 20
53.938435
 30
0.0
 70
    40
  0
VERTEX
  5
3B9
100
AcDbEntity
  8
0
390
0
100
AcDbVertex
100
AcDb3dPolylineVertex
 10
141.449051
 20
53.982685
 30
0.0
 70
    48
  0
VERTEX
  5
3BA
100
AcDbEntity
  8
0
390
0
100
AcDbVertex
100
AcDb3dPolylineVertex
 10
141.474838
 20
53.961536
 30
0.0
 70
    48
  0
VERTEX
  5
3BB
100
AcDbEntity
  8
0
390
0
100
AcDbVertex
100
AcDb3dPolylineVertex
 10
141.49794
 20
53.938435
 30
0.0
 70
    48
  0
VERTEX
  5
3BC
100
AcDbEntity
  8
0
390
0
100
AcDbVertex
100
AcDb3dPolylineVertex
 10
141.520279
 20
53.914547
 30
0.0
 70
    40
  0
VERTEX
  5
3BD
100
AcDbEntity
  8
0
390
0
100
AcDbVertex
100
AcDb3dPolylineVertex
 10
141.541031
 20
53.889194
 30
0.0
 70
    40
  0
VERTEX
  5
3BE
100
AcDbEntity
  8
0
390
0
100
AcDbVertex
100
AcDb3dPolylineVertex
 10
141.56012
 20
53.862514
 30
0.0
 70
    40
  0
VERTEX
  5
3BF
100
AcDbEntity
  8
0
390
0
100
AcDbVertex
100
AcDb3dPolylineVertex
 10
141.577438
 20
53.83466
 30
0.0
 70
    40
  0
VERTEX
  5
3C0
100
AcDbEntity
  8
0
390
0
100
AcDbVertex
100
AcDb3dPolylineVertex
 10
141.59288
 20
53.805782
 30
0.0
 70
    40
  0
VERTEX
  5
3C1
100
AcDbEntity
  8
0
390
0
100
AcDbVertex
100
AcDb3dPolylineVertex
 10
141.606369
 20
53.77602
 30
0.0
 70
    40
  0
VERTEX
  5
3C2
100
AcDbEntity
  8
0
390
0
100
AcDbVertex
100
AcDb3dPolylineVertex
 10
141.544113
 20
53.892231
 30
0.0
 70
    48
  0
VERTEX
  5
3C3
100
AcDbEntity
  8
0
390
0
100
AcDbVertex
100
AcDb3dPolylineVertex
 10
141.581436
 20
53.836323
 30
0.0
 70
    48
  0
VERTEX
  5
3C4
100
AcDbEntity
  8
0
390
0
100
AcDbVertex
100
AcDb3dPolylineVertex
 10
141.606369
 20
53.77602
 30
0.0
 70
    48
  0
VERTEX
  5
3C5
100
AcDbEntity
  8
0
390
0
100
AcDbVertex
100
AcDb3dPolylineVertex
 10
141.617844
 20
53.74543
 30
0.0
 70
    40
  0
VERTEX
  5
3C6
100
AcDbEntity
  8
0
390
0
100
AcDbVertex
100
AcDb3dPolylineVertex
 10
141.627304
 20
53.714077
 30
0.0
 70
    40
  0
VERTEX
  5
3C7
100
AcDbEntity
  8
0
390
0
100
AcDbVertex
100
AcDb3dPolylineVertex
 10
141.634705
 20
53.682133
 30
0.0
 70
    40
  0
VERTEX
  5
3C8
100
AcDbEntity
  8
0
390
0
100
AcDbVertex
100
AcDb3dPolylineVertex
 10
141.64003
 20
53.649773
 30
0.0
 70
    40
  0
VERTEX
  5
3C9
100
AcDbEntity
  8
0
390
0
100
AcDbVertex
100
AcDb3dPolylineVertex
 10
141.64325
 20
53.617168
 30
0.0
 70
    40
  0
VERTEX
  5
3CA
100
AcDbEntity
  8
0
390
0
100
AcDbVertex
100
AcDb3dPolylineVertex
 10
141.644302
 20
53.584492
 30
0.0
 70
    40
  0
VERTEX
  5
3CB
100
AcDbEntity
  8
0
390
0
100
AcDbVertex
100
AcDb3dPolylineVertex
 10
141.631302
 20
53.715717
 30
0.0
 70
    48
  0
VERTEX
  5
3CC
100
AcDbEntity
  8
0
390
0
100
AcDbVertex
100
AcDb3dPolylineVertex
 10
141.644363
 20
53.649799
 30
0.0
 70
    48
  0
VERTEX
  5
3CD
100
AcDbEntity
  8
0
390
0
100
AcDbVertex
100
AcDb3dPolylineVertex
 10
141.644302
 20
53.584492
 30
0.0
 70
    48
  0
VERTEX
  5
3CE
100
AcDbEntity
  8
0
390
0
100
AcDbVertex
100
AcDb3dPolylineVertex
 10
141.644012
 20
53.56813
 30
0.0
 70
    40
  0
VERTEX
  5
3CF
100
AcDbEntity
  8
0
390
0
100
AcDbVertex
100
AcDb3dPolylineVertex
 10
141.643188
 20
53.551735
 30
0.0
 70
    40
  0
VERTEX
  5
3D0
100
AcDbEntity
  8
0
390
0
100
AcDbVertex
100
AcDb3dPolylineVertex
 10
141.641815
 20
53.535339
 30
0.0
 70
    40
  0
VERTEX
  5
3D1
100
AcDbEntity
  8
0
390
0
100
AcDbVertex
100
AcDb3dPolylineVertex
 10
141.639923
 20
53.518997
 30
0.0
 70
    40
  0
VERTEX
  5
3D2
100
AcDbEntity
  8
0
390
0
100
AcDbVertex
100
AcDb3dPolylineVertex
 10
141.637497
 20
53.50275
 30
0.0
 70
    40
  0
VERTEX
  5
3D3
100
AcDbEntity
  8
0
390
0
100
AcDbVertex
100
AcDb3dPolylineVertex
 10
141.634537
 20
53.486637
 30
0.0
 70
    40
  0
VERTEX
  5
3D4
100
AcDbEntity
  8
0
390
0
100
AcDbVertex
100
AcDb3dPolylineVertex
 10
141.644272
 20
53.551838
 30
0.0
 70
    48
  0
VERTEX
  5
3D5
100
AcDbEntity
  8
0
390
0
100
AcDbVertex
100
AcDb3dPolylineVertex
 10
141.640976
 20
53.518696
 30
0.0
 70
    48
  0
VERTEX
  5
3D6
100
AcDbEntity
  8
0
390
0
100
AcDbVertex
100
AcDb3dPolylineVertex
 10
141.634537
 20
53.486637
 30
0.0
 70
    48
  0
VERTEX
  5
3D7
100
AcDbEntity
  8
0
390
0
100
AcDbVertex
100
AcDb3dPolylineVertex
 10
141.631058
 20
53.470684
 30
0.0
 70
    40
  0
VERTEX
  5
3D8
100
AcDbEntity
  8
0
390
0
100
AcDbVertex
100
AcDb3dPolylineVertex
 10
141.627075
 20
53.454884
 30
0.0
 70
    40
  0
VERTEX
  5
3D9
100
AcDbEntity
  8
0
390
0
100
AcDbVertex
100
AcDb3dPolylineVertex
 10
141.622589
 20
53.439232
 30
0.0
 70
    40
  0
VERTEX
  5
3DA
100
AcDbEntity
  8
0
390
0
100
AcDbVertex
100
AcDb3dPolylineVertex
 10
141.617584
 20
53.423733
 30
0.0
 70
    40
  0
VERTEX
  5
3DB
100
AcDbEntity
  8
0
390
0
100
AcDbVertex
100
AcDb3dPolylineVertex
 10
141.612076
 20
53.408379
 30
0.0
 70
    40
  0
VERTEX
  5
3DC
100
AcDbEntity
  8
0
390
0
100
AcDbVertex
100
AcDb3dPolylineVertex
 10
141.606064
 20
53.393177
 30
0.0
 70
    40
  0
VERTEX
  5
3DD
100
AcDbEntity
  8
0
390
0
100
AcDbVertex
100
AcDb3dPolylineVertex
 10
141.628098
 20
53.454578
 30
0.0
 70
    48
  0
VERTEX
  5
3DE
100
AcDbEntity
  8
0
390
0
100
AcDbVertex
100
AcDb3dPolylineVertex
 10
141.618607
 20
53.423435
 30
0.0
 70
    48
  0
VERTEX
  5
3DF
100
AcDbEntity
  8
0
390
0
100
AcDbVertex
100
AcDb3dPolylineVertex
 10
141.606064
 20
53.393177
 30
0.0
 70
    48
  0
VERTEX
  5
3E0
100
AcDbEntity
  8
0
390
0
100
AcDbVertex
100
AcDb3dPolylineVertex
 10
141.599518
 20
53.378143
 30
0.0
 70
    40
  0
VERTEX
  5
3E1
100
AcDbEntity
  8
0
390
0
100
AcDbVertex
100
AcDb3dPolylineVertex
 10
141.592484
 20
53.363316
 30
0.0
 70
    40
  0
VERTEX
  5
3E2
100
AcDbEntity
  8
0
390
0
100
AcDbVertex
100
AcDb3dPolylineVertex
 10
141.584961
 20
53.348724
 30
0.0
 70
    40
  0
VERTEX
  5
3E3
100
AcDbEntity
  8
0
390
0
100
AcDbVertex
100
AcDb3dPolylineVertex
 10
141.576981
 20
53.334404
 30
0.0
 70
    40
  0
VERTEX
  5
3E4
100
AcDbEntity
  8
0
390
0
100
AcDbVertex
100
AcDb3dPolylineVertex
 10
141.568558
 20
53.320385
 30
0.0
 70
    40
  0
VERTEX
  5
3E5
100
AcDbEntity
  8
0
390
0
100
AcDbVertex
100
AcDb3dPolylineVertex
 10
141.559708
 20
53.30669
 30
0.0
 70
    40
  0
VERTEX
  5
3E6
100
AcDbEntity
  8
0
390
0
100
AcDbVertex
100
AcDb3dPolylineVertex
 10
141.593491
 20
53.362919
 30
0.0
 70
    48
  0
VERTEX
  5
3E7
100
AcDbEntity
  8
0
390
0
100
AcDbVertex
100
AcDb3dPolylineVertex
 10
141.577805
 20
53.333729
 30
0.0
 70
    48
  0
VERTEX
  5
3E8
100
AcDbEntity
  8
0
390
0
100
AcDbVertex
100
AcDb3dPolylineVertex
 10
141.559708
 20
53.30669
 30
0.0
 70
    48
  0
VERTEX
  5
3E9
100
AcDbEntity
  8
0
390
0
100
AcDbVertex
100
AcDb3dPolylineVertex
 10
141.55043
 20
53.293324
 30
0.0
 70
    40
  0
VERTEX
  5
3EA
100
AcDbEntity
  8
0
390
0
100
AcDbVertex
100
AcDb3dPolylineVertex
 10
141.540726
 20
53.28027
 30
0.0
 70
    40
  0
VERTEX
  5
3EB
100
AcDbEntity
  8
0
390
0
100
AcDbVertex
100
AcDb3dPolylineVertex
 10
141.530594
 20
53.267521
 30
0.0
 70
    40
  0
VERTEX
  5
3EC
100
AcDbEntity
  8
0
390
0
100
AcDbVertex
100
AcDb3dPolylineVertex
 10
141.520035
 20
53.255089
 30
0.0
 70
    40
  0
VERTEX
  5
3ED
100
AcDbEntity
  8
0
390
0
100
AcDbVertex
100
AcDb3dPolylineVertex
 10
141.509018
 20
53.242966
 30
0.0
 70
    40
  0
VERTEX
  5
3EE
100
AcDbEntity
  8
0
390
0
100
AcDbVertex
100
AcDb3dPolylineVertex
 10
141.497574
 20
53.231159
 30
0.0
 70
    40
  0
VERTEX
  5
3EF
100
AcDbEntity
  8
0
390
0
100
AcDbVertex
100
AcDb3dPolylineVertex
 10
141.54158
 20
53.279652
 30
0.0
 70
    48
  0
VERTEX
  5
3F0
100
AcDbEntity
  8
0
390
0
100
AcDbVertex
100
AcDb3dPolylineVertex
 10
141.52092
 20
53.254459
 30
0.0
 70
    48
  0
VERTEX
  5
3F1
100
AcDbEntity
  8
0
390
0
100
AcDbVertex
100
AcDb3dPolylineVertex
 10
141.497574
 20
53.231159
 30
0.0
 70
    48
  0
VERTEX
  5
3F2
100
AcDbEntity
  8
0
390
0
100
AcDbVertex
100
AcDb3dPolylineVertex
 10
141.485764
 20
53.21973
 30
0.0
 70
    40
  0
VERTEX
  5
3F3
100
AcDbEntity
  8
0
390
0
100
AcDbVertex
100
AcDb3dPolylineVertex
 10
141.473618
 20
53.208744
 30
0.0
 70
    40
  0
VERTEX
  5
3F4
100
AcDbEntity
  8
0
390
0
100
AcDbVertex
100
AcDb3dPolylineVertex
 10
141.461182
 20
53.1982
 30
0.0
 70
    40
  0
VERTEX
  5
3F5
100
AcDbEntity
  8
0
390
0
100
AcDbVertex
100
AcDb3dPolylineVertex
 10
141.44841
 20
53.188091
 30
0.0
 70
    40
  0
VERTEX
  5
3F6
100
AcDbEntity
  8
0
390
0
100
AcDbVertex
100
AcDb3dPolylineVertex
 10
141.435349
 20
53.178417
 30
0.0
 70
    40
  0
VERTEX
  5
3F7
100
AcDbEntity
  8
0
390
0
100
AcDbVertex
100
AcDb3dPolylineVertex
 10
141.421982
 20
53.169178
 30
0.0
 70
    40
  0
VERTEX
  5
3F8
100
AcDbEntity
  8
0
390
0
100
AcDbVertex
100
AcDb3dPolylineVertex
 10
141.474258
 20
53.207859
 30
0.0
 70
    48
  0
VERTEX
  5
3F9
100
AcDbEntity
  8
0
390
0
100
AcDbVertex
100
AcDb3dPolylineVertex
 10
141.44902
 20
53.187229
 30
0.0
 70
    48
  0
VERTEX
  5
3FA
100
AcDbEntity
  8
0
390
0
100
AcDbVertex
100
AcDb3dPolylineVertex
 10
141.421982
 20
53.169178
 30
0.0
 70
    48
  0
VERTEX
  5
3FB
100
AcDbEntity
  8
0
390
0
100
AcDbVertex
100
AcDb3dPolylineVertex
 10
141.408295
 20
53.160358
 30
0.0
 70
    40
  0
VERTEX
  5
3FC
100
AcDbEntity
  8
0
390
0
100
AcDbVertex
100
AcDb3dPolylineVertex
 10
141.394287
 20
53.151966
 30
0.0
 70
    40
  0
VERTEX
  5
3FD
100
AcDbEntity
  8
0
390
0
100
AcDbVertex
100
AcDb3dPolylineVertex
 10
141.379974
 20
53.144012
 30
0.0
 70
    40
  0
VERTEX
  5
3FE
100
AcDbEntity
  8
0
390
0
100
AcDbVertex
100
AcDb3dPolylineVertex
 10
141.365387
 20
53.136524
 30
0.0
 70
    40
  0
VERTEX
  5
3FF
100
AcDbEntity
  8
0
390
0
100
AcDbVertex
100
AcDb3dPolylineVertex
 10
141.350571
 20
53.129517
 30
0.0
 70
    40
  0
VERTEX
  5
400
100
AcDbEntity
  8
0
390
0
100
AcDbVertex
100
AcDb3dPolylineVertex
 10
141.335556
 20
53.123005
 30
0.0
 70
    40
  0
VERTEX
  5
401
100
AcDbEntity
  8
0
390
0
100
AcDbVertex
100
AcDb3dPolylineVertex
 10
141.394974
 20
53.151127
 30
0.0
 70
    48
  0
VERTEX
  5
402
100
AcDbEntity
  8
0
390
0
100
AcDbVertex
100
AcDb3dPolylineVertex
 10
141.365768
 20
53.135517
 30
0.0
 70
    48
  0
VERTEX
  5
403
100
AcDbEntity
  8
0
390
0
100
AcDbVertex
100
AcDb3dPolylineVertex
 10
141.335556
 20
53.123005
 30
0.0
 70
    48
  0
VERTEX
  5
404
100
AcDbEntity
  8
0
390
0
100
AcDbVertex
100
AcDb3dPolylineVertex
 10
141.320374
 20
53.117004
 30
0.0
 70
    40
  0
VERTEX
  5
405
100
AcDbEntity
  8
0
390
0
100
AcDbVertex
100
AcDb3dPolylineVertex
 10
141.305054
 20
53.111515
 30
0.0
 70
    40
  0
VERTEX
  5
406
100
AcDbEntity
  8
0
390
0
100
AcDbVertex
100
AcDb3dPolylineVertex
 10
141.289581
 20
53.106537
 30
0.0
 70
    40
  0
VERTEX
  5
407
100
AcDbEntity
  8
0
390
0
100
AcDbVertex
100
AcDb3dPolylineVertex
 10
141.273956
 20
53.102066
 30
0.0
 70
    40
  0
VERTEX
  5
408
100
AcDbEntity
  8
0
390
0
100
AcDbVertex
100
AcDb3dPolylineVertex
 10
141.258179
 20
53.098106
 30
0.0
 70
    40
  0
VERTEX
  5
409
100
AcDbEntity
  8
0
390
0
100
AcDbVertex
100
AcDb3dPolylineVertex
 10
141.242264
 20
53.094654
 30
0.0
 70
    40
  0
VERTEX
  5
40A
100
AcDbEntity
  8
0
390
0
100
AcDbVertex
100
AcDb3dPolylineVertex
 10
141.305344
 20
53.110493
 30
0.0
 70
    48
  0
VERTEX
  5
40B
100
AcDbEntity
  8
0
390
0
100
AcDbVertex
100
AcDb3dPolylineVertex
 10
141.274246
 20
53.101048
 30
0.0
 70
    48
  0
VERTEX
  5
40C
100
AcDbEntity
  8
0
390
0
100
AcDbVertex
100
AcDb3dPolylineVertex
 10
141.242264
 20
53.094654
 30
0.0
 70
    48
  0
VERTEX
  5
40D
100
AcDbEntity
  8
0
390
0
100
AcDbVertex
100
AcDb3dPolylineVertex
 10
141.226196
 20
53.091724
 30
0.0
 70
    40
  0
VERTEX
  5
40E
100
AcDbEntity
  8
0
390
0
100
AcDbVertex
100
AcDb3dPolylineVertex
 10
141.209976
 20
53.08931
 30
0.0
 70
    40
  0
VERTEX
  5
40F
100
AcDbEntity
  8
0
390
0
100
AcDbVertex
100
AcDb3dPolylineVertex
 10
141.193665
 20
53.087425
 30
0.0
 70
    40
  0
VERTEX
  5
410
100
AcDbEntity
  8
0
390
0
100
AcDbVertex
100
AcDb3dPolylineVertex
 10
141.177261
 20
53.086071
 30
0.0
 70
    40
  0
VERTEX
  5
411
100
AcDbEntity
  8
0
390
0
100
AcDbVertex
100
AcDb3dPolylineVertex
 10
141.160797
 20
53.085255
 30
0.0
 70
    40
  0
VERTEX
  5
412
100
AcDbEntity
  8
0
390
0
100
AcDbVertex
100
AcDb3dPolylineVertex
 10
141.144302
 20
53.08498
 30
0.0
 70
    40
  0
VERTEX
  5
413
100
AcDbEntity
  8
0
390
0
100
AcDbVertex
100
AcDb3dPolylineVertex
 10
141.210281
 20
53.088276
 30
0.0
 70
    48
  0
VERTEX
  5
414
100
AcDbEntity
  8
0
390
0
100
AcDbVertex
100
AcDb3dPolylineVertex
 10
141.177292
 20
53.08498
 30
0.0
 70
    48
  0
VERTEX
  5
415
100
AcDbEntity
  8
0
390
0
100
AcDbVertex
100
AcDb3dPolylineVertex
 10
141.144302
 20
53.08498
 30
0.0
 70
    48
  0
SEQEND
  5
416
100
AcDbEntity
  8
0
390
0
  0
LINE
  5
417
100
AcDbEntity
  8
ARMATUR
390
0
  6
DURCHGEHEND
 62
     1
100
AcDbLine
 10
134.370041
 20
54.08498
 30
0.0
 11
141.144302
 21
54.08498
 31
0.0
  0
POLYLINE
  5
418
100
AcDbEntity
  8
ARMATUR
390
0
  6
DURCHGEHEND
 62
     1
100
AcDb3dPolyline
 66
     1
 10
0.0
 20
0.0
 30
0.0
 70
    12
 75
     5
  0
VERTEX
  5
419
100
AcDbEntity
  8
0
390
0
100
AcDbVertex
100
AcDb3dPolylineVertex
 10
134.370041
 20
53.08498
 30
0.0
 70
    48
  0
VERTEX
  5
41A
100
AcDbEntity
  8
0
390
0
100
AcDbVertex
100
AcDb3dPolylineVertex
 10
134.370041
 20
53.08498
 30
0.0
 70
    40
  0
VERTEX
  5
41B
100
AcDbEntity
  8
0
390
0
100
AcDbVertex
100
AcDb3dPolylineVertex
 10
134.353592
 20
53.085247
 30
0.0
 70
    40
  0
VERTEX
  5
41C
100
AcDbEntity
  8
0
390
0
100
AcDbVertex
100
AcDb3dPolylineVertex
 10
134.337234
 20
53.086052
 30
0.0
 70
    40
  0
VERTEX
  5
41D
100
AcDbEntity
  8
0
390
0
100
AcDbVertex
100
AcDb3dPolylineVertex
 10
134.320969
 20
53.087387
 30
0.0
 70
    40
  0
VERTEX
  5
41E
100
AcDbEntity
  8
0
390
0
100
AcDbVertex
100
AcDb3dPolylineVertex
 10
134.304794
 20
53.089249
 30
0.0
 70
    40
  0
VERTEX
  5
41F
100
AcDbEntity
  8
0
390
0
100
AcDbVertex
100
AcDb3dPolylineVertex
 10
134.288712
 20
53.091633
 30
0.0
 70
    40
  0
VERTEX
  5
420
100
AcDbEntity
  8
0
390
0
100
AcDbVertex
100
AcDb3dPolylineVertex
 10
134.27272
 20
53.094532
 30
0.0
 70
    40
  0
VERTEX
  5
421
100
AcDbEntity
  8
0
390
0
100
AcDbVertex
100
AcDb3dPolylineVertex
 10
134.337051
 20
53.08498
 30
0.0
 70
    48
  0
VERTEX
  5
422
100
AcDbEntity
  8
0
390
0
100
AcDbVertex
100
AcDb3dPolylineVertex
 10
134.304611
 20
53.088215
 30
0.0
 70
    48
  0
VERTEX
  5
423
100
AcDbEntity
  8
0
390
0
100
AcDbVertex
100
AcDb3dPolylineVertex
 10
134.27272
 20
53.094532
 30
0.0
 70
    48
  0
VERTEX
  5
424
100
AcDbEntity
  8
0
390
0
100
AcDbVertex
100
AcDb3dPolylineVertex
 10
134.256805
 20
53.097961
 30
0.0
 70
    40
  0
VERTEX
  5
425
100
AcDbEntity
  8
0
390
0
100
AcDbVertex
100
AcDb3dPolylineVertex
 10
134.240952
 20
53.101925
 30
0.0
 70
    40
  0
VERTEX
  5
426
100
AcDbEntity
  8
0
390
0
100
AcDbVertex
100
AcDb3dPolylineVertex
 10
134.225204
 20
53.106415
 30
0.0
 70
    40
  0
VERTEX
  5
427
100
AcDbEntity
  8
0
390
0
100
AcDbVertex
100
AcDb3dPolylineVertex
 10
134.209579
 20
53.11142
 30
0.0
 70
    40
  0
VERTEX
  5
428
100
AcDbEntity
  8
0
390
0
100
AcDbVertex
100
AcDb3dPolylineVertex
 10
134.194138
 20
53.116932
 30
0.0
 70
    40
  0
VERTEX
  5
429
100
AcDbEntity
  8
0
390
0
100
AcDbVertex
100
AcDb3dPolylineVertex
 10
134.178909
 20
53.122944
 30
0.0
 70
    40
  0
VERTEX
  5
42A
100
AcDbEntity
  8
0
390
0
100
AcDbVertex
100
AcDb3dPolylineVertex
 10
134.240829
 20
53.100849
 30
0.0
 70
    48
  0
VERTEX
  5
42B
100
AcDbEntity
  8
0
390
0
100
AcDbVertex
100
AcDb3dPolylineVertex
 10
134.209152
 20
53.110432
 30
0.0
 70
    48
  0
VERTEX
  5
42C
100
AcDbEntity
  8
0
390
0
100
AcDbVertex
100
AcDb3dPolylineVertex
 10
134.178909
 20
53.122944
 30
0.0
 70
    48
  0
VERTEX
  5
42D
100
AcDbEntity
  8
0
390
0
100
AcDbVertex
100
AcDb3dPolylineVertex
 10
134.163925
 20
53.129425
 30
0.0
 70
    40
  0
VERTEX
  5
42E
100
AcDbEntity
  8
0
390
0
100
AcDbVertex
100
AcDb3dPolylineVertex
 10
134.1492
 20
53.136375
 30
0.0
 70
    40
  0
VERTEX
  5
42F
100
AcDbEntity
  8
0
390
0
100
AcDbVertex
100
AcDb3dPolylineVertex
 10
134.134735
 20
53.143791
 30
0.0
 70
    40
  0
VERTEX
  5
430
100
AcDbEntity
  8
0
390
0
100
AcDbVertex
100
AcDb3dPolylineVertex
 10
134.120529
 20
53.151669
 30
0.0
 70
    40
  0
VERTEX
  5
431
100
AcDbEntity
  8
0
390
0
100
AcDbVertex
100
AcDb3dPolylineVertex
 10
134.106567
 20
53.160007
 30
0.0
 70
    40
  0
VERTEX
  5
432
100
AcDbEntity
  8
0
390
0
100
AcDbVertex
100
AcDb3dPolylineVertex
 10
134.09288
 20
53.168812
 30
0.0
 70
    40
  0
VERTEX
  5
433
100
AcDbEntity
  8
0
390
0
100
AcDbVertex
100
AcDb3dPolylineVertex
 10
134.148697
 20
53.135441
 30
0.0
 70
    48
  0
VERTEX
  5
434
100
AcDbEntity
  8
0
390
0
100
AcDbVertex
100
AcDb3dPolylineVertex
 10
134.12001
 20
53.150745
 30
0.0
 70
    48
  0
VERTEX
  5
435
100
AcDbEntity
  8
0
390
0
100
AcDbVertex
100
AcDb3dPolylineVertex
 10
134.09288
 20
53.168812
 30
0.0
 70
    48
  0
VERTEX
  5
436
100
AcDbEntity
  8
0
390
0
100
AcDbVertex
100
AcDb3dPolylineVertex
 10
134.079437
 20
53.178089
 30
0.0
 70
    40
  0
VERTEX
  5
437
100
AcDbEntity
  8
0
390
0
100
AcDbVertex
100
AcDb3dPolylineVertex
 10
134.066269
 20
53.187836
 30
0.0
 70
    40
  0
VERTEX
  5
438
100
AcDbEntity
  8
0
390
0
100
AcDbVertex
100
AcDb3dPolylineVertex
 10
134.053406
 20
53.198021
 30
0.0
 70
    40
  0
VERTEX
  5
439
100
AcDbEntity
  8
0
390
0
100
AcDbVertex
100
AcDb3dPolylineVertex
 10
134.040878
 20
53.208614
 30
0.0
 70
    40
  0
VERTEX
  5
43A
100
AcDbEntity
  8
0
390
0
100
AcDbVertex
100
AcDb3dPolylineVertex
 10
134.028717
 20
53.219589
 30
0.0
 70
    40
  0
VERTEX
  5
43B
100
AcDbEntity
  8
0
390
0
100
AcDbVertex
100
AcDb3dPolylineVertex
 10
134.016983
 20
53.230915
 30
0.0
 70
    40
  0
VERTEX
  5
43C
100
AcDbEntity
  8
0
390
0
100
AcDbVertex
100
AcDb3dPolylineVertex
 10
134.06575
 20
53.186878
 30
0.0
 70
    48
  0
VERTEX
  5
43D
100
AcDbEntity
  8
0
390
0
100
AcDbVertex
100
AcDb3dPolylineVertex
 10
134.040024
 20
53.207935
 30
0.0
 70
    48
  0
VERTEX
  5
43E
100
AcDbEntity
  8
0
390
0
100
AcDbVertex
100
AcDb3dPolylineVertex
 10
134.016983
 20
53.230915
 30
0.0
 70
    48
  0
VERTEX
  5
43F
100
AcDbEntity
  8
0
390
0
100
AcDbVertex
100
AcDb3dPolylineVertex
 10
134.005646
 20
53.242592
 30
0.0
 70
    40
  0
VERTEX
  5
440
100
AcDbEntity
  8
0
390
0
100
AcDbVertex
100
AcDb3dPolylineVertex
 10
133.994705
 20
53.25462
 30
0.0
 70
    40
  0
VERTEX
  5
441
100
AcDbEntity
  8
0
390
0
100
AcDbVertex
100
AcDb3dPolylineVertex
 10
133.984161
 20
53.266994
 30
0.0
 70
    40
  0
VERTEX
  5
442
100
AcDbEntity
  8
0
390
0
100
AcDbVertex
100
AcDb3dPolylineVertex
 10
133.974014
 20
53.279724
 30
0.0
 70
    40
  0
VERTEX
  5
443
100
AcDbEntity
  8
0
390
0
100
AcDbVertex
100
AcDb3dPolylineVertex
 10
133.964264
 20
53.292809
 30
0.0
 70
    40
  0
VERTEX
  5
444
100
AcDbEntity
  8
0
390
0
100
AcDbVertex
100
AcDb3dPolylineVertex
 10
133.95491
 20
53.306248
 30
0.0
 70
    40
  0
VERTEX
  5
445
100
AcDbEntity
  8
0
390
0
100
AcDbVertex
100
AcDb3dPolylineVertex
 10
133.993912
 20
53.253925
 30
0.0
 70
    48
  0
VERTEX
  5
446
100
AcDbEntity
  8
0
390
0
100
AcDbVertex
100
AcDb3dPolylineVertex
 10
133.973221
 20
53.279011
 30
0.0
 70
    48
  0
VERTEX
  5
447
100
AcDbEntity
  8
0
390
0
100
AcDbVertex
100
AcDb3dPolylineVertex
 10
133.95491
 20
53.306248
 30
0.0
 70
    48
  0
VERTEX
  5
448
100
AcDbEntity
  8
0
390
0
100
AcDbVertex
100
AcDb3dPolylineVertex
 10
133.945999
 20
53.320019
 30
0.0
 70
    40
  0
VERTEX
  5
449
100
AcDbEntity
  8
0
390
0
100
AcDbVertex
100
AcDb3dPolylineVertex
 10
133.937546
 20
53.334072
 30
0.0
 70
    40
  0
VERTEX
  5
44A
100
AcDbEntity
  8
0
390
0
100
AcDbVertex
100
AcDb3dPolylineVertex
 10
133.92955
 20
53.348385
 30
0.0
 70
    40
  0
VERTEX
  5
44B
100
AcDbEntity
  8
0
390
0
100
AcDbVertex
100
AcDb3dPolylineVertex
 10
133.922043
 20
53.362934
 30
0.0
 70
    40
  0
VERTEX
  5
44C
100
AcDbEntity
  8
0
390
0
100
AcDbVertex
100
AcDb3dPolylineVertex
 10
133.915039
 20
53.377689
 30
0.0
 70
    40
  0
VERTEX
  5
44D
100
AcDbEntity
  8
0
390
0
100
AcDbVertex
100
AcDb3dPolylineVertex
 10
133.908524
 20
53.392628
 30
0.0
 70
    40
  0
VERTEX
  5
44E
100
AcDbEntity
  8
0
390
0
100
AcDbVertex
100
AcDb3dPolylineVertex
 10
133.93663
 20
53.333485
 30
0.0
 70
    48
  0
VERTEX
  5
44F
100
AcDbEntity
  8
0
390
0
100
AcDbVertex
100
AcDb3dPolylineVertex
 10
133.921036
 20
53.362583
 30
0.0
 70
    48
  0
VERTEX
  5
450
100
AcDbEntity
  8
0
390
0
100
AcDbVertex
100
AcDb3dPolylineVertex
 10
133.908524
 20
53.392628
 30
0.0
 70
    48
  0
VERTEX
  5
451
100
AcDbEntity
  8
0
390
0
100
AcDbVertex
100
AcDb3dPolylineVertex
 10
133.896988
 20
53.423119
 30
0.0
 70
    40
  0
VERTEX
  5
452
100
AcDbEntity
  8
0
390
0
100
AcDbVertex
100
AcDb3dPolylineVertex
 10
133.887451
 20
53.454391
 30
0.0
 70
    40
  0
VERTEX
  5
453
100
AcDbEntity
  8
0
390
0
100
AcDbVertex
100
AcDb3dPolylineVertex
 10
133.879944
 20
53.486267
 30
0.0
 70
    40
  0
VERTEX
  5
454
100
AcDbEntity
  8
0
390
0
100
AcDbVertex
100
AcDb3dPolylineVertex
 10
133.874512
 20
53.518578
 30
0.0
 70
    40
  0
VERTEX
  5
455
100
AcDbEntity
  8
0
390
0
100
AcDbVertex
100
AcDb3dPolylineVertex
 10
133.871201
 20
53.551144
 30
0.0
 70
    40
  0
VERTEX
  5
456
100
AcDbEntity
  8
0
390
0
100
AcDbVertex
100
AcDb3dPolylineVertex
 10
133.870041
 20
53.58379
 30
0.0
 70
    40
  0
VERTEX
  5
457
100
AcDbEntity
  8
0
390
0
100
AcDbVertex
100
AcDb3dPolylineVertex
 10
133.883469
 20
53.452717
 30
0.0
 70
    48
  0
VERTEX
  5
458
100
AcDbEntity
  8
0
390
0
100
AcDbVertex
100
AcDb3dPolylineVertex
 10
133.870193
 20
53.518528
 30
0.0
 70
    48
  0
VERTEX
  5
459
100
AcDbEntity
  8
0
390
0
100
AcDbVertex
100
AcDb3dPolylineVertex
 10
133.870041
 20
53.58379
 30
0.0
 70
    48
  0
VERTEX
  5
45A
100
AcDbEntity
  8
0
390
0
100
AcDbVertex
100
AcDb3dPolylineVertex
 10
133.87027
 20
53.60014
 30
0.0
 70
    40
  0
VERTEX
  5
45B
100
AcDbEntity
  8
0
390
0
100
AcDbVertex
100
AcDb3dPolylineVertex
 10
133.871048
 20
53.616531
 30
0.0
 70
    40
  0
VERTEX
  5
45C
100
AcDbEntity
  8
0
390
0
100
AcDbVertex
100
AcDb3dPolylineVertex
 10
133.872345
 20
53.632927
 30
0.0
 70
    40
  0
VERTEX
  5
45D
100
AcDbEntity
  8
0
390
0
100
AcDbVertex
100
AcDb3dPolylineVertex
 10
133.874191
 20
53.649284
 30
0.0
 70
    40
  0
VERTEX
  5
45E
100
AcDbEntity
  8
0
390
0
100
AcDbVertex
100
AcDb3dPolylineVertex
 10
133.876572
 20
53.665562
 30
0.0
 70
    40
  0
VERTEX
  5
45F
100
AcDbEntity
  8
0
390
0
100
AcDbVertex
100
AcDb3dPolylineVertex
 10
133.879471
 20
53.681721
 30
0.0
 70
    40
  0
VERTEX
  5
460
100
AcDbEntity
  8
0
390
0
100
AcDbVertex
100
AcDb3dPolylineVertex
 10
133.869949
 20
53.616413
 30
0.0
 70
    48
  0
VERTEX
  5
461
100
AcDbEntity
  8
0
390
0
100
AcDbVertex
100
AcDb3dPolylineVertex
 10
133.873154
 20
53.649555
 30
0.0
 70
    48
  0
VERTEX
  5
462
100
AcDbEntity
  8
0
390
0
100
AcDbVertex
100
AcDb3dPolylineVertex
 10
133.879471
 20
53.681721
 30
0.0
 70
    48
  0
VERTEX
  5
463
100
AcDbEntity
  8
0
390
0
100
AcDbVertex
100
AcDb3dPolylineVertex
 10
133.882904
 20
53.697716
 30
0.0
 70
    40
  0
VERTEX
  5
464
100
AcDbEntity
  8
0
390
0
100
AcDbVertex
100
AcDb3dPolylineVertex
 10
133.886841
 20
53.713558
 30
0.0
 70
    40
  0
VERTEX
  5
465
100
AcDbEntity
  8
0
390
0
100
AcDbVertex
100
AcDb3dPolylineVertex
 10
133.891296
 20
53.729252
 30
0.0
 70
    40
  0
VERTEX
  5
466
100
AcDbEntity
  8
0
390
0
100
AcDbVertex
100
AcDb3dPolylineVertex
 10
133.896271
 20
53.744793
 30
0.0
 70
    40
  0
VERTEX
  5
467
100
AcDbEntity
  8
0
390
0
100
AcDbVertex
100
AcDb3dPolylineVertex
 10
133.901749
 20
53.760178
 30
0.0
 70
    40
  0
VERTEX
  5
468
100
AcDbEntity
  8
0
390
0
100
AcDbVertex
100
AcDb3dPolylineVertex
 10
133.90773
 20
53.77541
 30
0.0
 70
    40
  0
VERTEX
  5
469
100
AcDbEntity
  8
0
390
0
100
AcDbVertex
100
AcDb3dPolylineVertex
 10
133.885818
 20
53.713856
 30
0.0
 70
    48
  0
VERTEX
  5
46A
100
AcDbEntity
  8
0
390
0
100
AcDbVertex
100
AcDb3dPolylineVertex
 10
133.895248
 20
53.745106
 30
0.0
 70
    48
  0
VERTEX
  5
46B
100
AcDbEntity
  8
0
390
0
100
AcDbVertex
100
AcDb3dPolylineVertex
 10
133.90773
 20
53.77541
 30
0.0
 70
    48
  0
VERTEX
  5
46C
100
AcDbEntity
  8
0
390
0
100
AcDbVertex
100
AcDb3dPolylineVertex
 10
133.91423
 20
53.790493
 30
0.0
 70
    40
  0
VERTEX
  5
46D
100
AcDbEntity
  8
0
390
0
100
AcDbVertex
100
AcDb3dPolylineVertex
 10
133.921249
 20
53.805382
 30
0.0
 70
    40
  0
VERTEX
  5
46E
100
AcDbEntity
  8
0
390
0
100
AcDbVertex
100
AcDb3dPolylineVertex
 10
133.928741
 20
53.820042
 30
0.0
 70
    40
  0
VERTEX
  5
46F
100
AcDbEntity
  8
0
390
0
100
AcDbVertex
100
AcDb3dPolylineVertex
 10
133.936722
 20
53.834438
 30
0.0
 70
    40
  0
VERTEX
  5
470
100
AcDbEntity
  8
0
390
0
100
AcDbVertex
100
AcDb3dPolylineVertex
 10
133.945145
 20
53.848534
 30
0.0
 70
    40
  0
VERTEX
  5
471
100
AcDbEntity
  8
0
390
0
100
AcDbVertex
100
AcDb3dPolylineVertex
 10
133.953995
 20
53.862293
 30
0.0
 70
    40
  0
VERTEX
  5
472
100
AcDbEntity
  8
0
390
0
100
AcDbVertex
100
AcDb3dPolylineVertex
 10
133.920212
 20
53.805744
 30
0.0
 70
    48
  0
VERTEX
  5
473
100
AcDbEntity
  8
0
390
0
100
AcDbVertex
100
AcDb3dPolylineVertex
 10
133.935867
 20
53.835133
 30
0.0
 70
    48
  0
VERTEX
  5
474
100
AcDbEntity
  8
0
390
0
100
AcDbVertex
100
AcDb3dPolylineVertex
 10
133.953995
 20
53.862293
 30
0.0
 70
    48
  0
VERTEX
  5
475
100
AcDbEntity
  8
0
390
0
100
AcDbVertex
100
AcDb3dPolylineVertex
 10
133.963257
 20
53.875721
 30
0.0
 70
    40
  0
VERTEX
  5
476
100
AcDbEntity
  8
0
390
0
100
AcDbVertex
100
AcDb3dPolylineVertex
 10
133.972961
 20
53.888836
 30
0.0
 70
    40
  0
VERTEX
  5
477
100
AcDbEntity
  8
0
390
0
100
AcDbVertex
100
AcDb3dPolylineVertex
 10
133.983093
 20
53.901638
 30
0.0
 70
    40
  0
VERTEX
  5
478
100
AcDbEntity
  8
0
390
0
100
AcDbVertex
100
AcDb3dPolylineVertex
 10
133.993652
 20
53.914127
 30
0.0
 70
    40
  0
VERTEX
  5
479
100
AcDbEntity
  8
0
390
0
100
AcDbVertex
100
AcDb3dPolylineVertex
 10
134.004654
 20
53.926296
 30
0.0
 70
    40
  0
VERTEX
  5
47A
100
AcDbEntity
  8
0
390
0
100
AcDbVertex
100
AcDb3dPolylineVertex
 10
134.016098
 20
53.938145
 30
0.0
 70
    40
  0
VERTEX
  5
47B
100
AcDbEntity
  8
0
390
0
100
AcDbVertex
100
AcDb3dPolylineVertex
 10
133.972092
 20
53.889454
 30
0.0
 70
    48
  0
VERTEX
  5
47C
100
AcDbEntity
  8
0
390
0
100
AcDbVertex
100
AcDb3dPolylineVertex
 10
133.992783
 20
53.914768
 30
0.0
 70
    48
  0
VERTEX
  5
47D
100
AcDbEntity
  8
0
390
0
100
AcDbVertex
100
AcDb3dPolylineVertex
 10
134.016098
 20
53.938145
 30
0.0
 70
    48
  0
VERTEX
  5
47E
100
AcDbEntity
  8
0
390
0
100
AcDbVertex
100
AcDb3dPolylineVertex
 10
134.027939
 20
53.949619
 30
0.0
 70
    40
  0
VERTEX
  5
47F
100
AcDbEntity
  8
0
390
0
100
AcDbVertex
100
AcDb3dPolylineVertex
 10
134.0401
 20
53.960667
 30
0.0
 70
    40
  0
VERTEX
  5
480
100
AcDbEntity
  8
0
390
0
100
AcDbVertex
100
AcDb3dPolylineVertex
 10
134.052597
 20
53.971279
 30
0.0
 70
    40
  0
VERTEX
  5
481
100
AcDbEntity
  8
0
390
0
100
AcDbVertex
100
AcDb3dPolylineVertex
 10
134.065399
 20
53.981453
 30
0.0
 70
    40
  0
VERTEX
  5
482
100
AcDbEntity
  8
0
390
0
100
AcDbVertex
100
AcDb3dPolylineVertex
 10
134.078506
 20
53.991188
 30
0.0
 70
    40
  0
VERTEX
  5
483
100
AcDbEntity
  8
0
390
0
100
AcDbVertex
100
AcDb3dPolylineVertex
 10
134.091904
 20
54.000477
 30
0.0
 70
    40
  0
VERTEX
  5
484
100
AcDbEntity
  8
0
390
0
100
AcDbVertex
100
AcDb3dPolylineVertex
 10
134.039444
 20
53.961521
 30
0.0
 70
    48
  0
VERTEX
  5
485
100
AcDbEntity
  8
0
390
0
100
AcDbVertex
100
AcDb3dPolylineVertex
 10
134.064804
 20
53.982349
 30
0.0
 70
    48
  0
VERTEX
  5
486
100
AcDbEntity
  8
0
390
0
100
AcDbVertex
100
AcDb3dPolylineVertex
 10
134.091904
 20
54.000477
 30
0.0
 70
    48
  0
VERTEX
  5
487
100
AcDbEntity
  8
0
390
0
100
AcDbVertex
100
AcDb3dPolylineVertex
 10
134.105621
 20
54.009335
 30
0.0
 70
    40
  0
VERTEX
  5
488
100
AcDbEntity
  8
0
390
0
100
AcDbVertex
100
AcDb3dPolylineVertex
 10
134.119675
 20
54.017761
 30
0.0
 70
    40
  0
VERTEX
  5
489
100
AcDbEntity
  8
0
390
0
100
AcDbVertex
100
AcDb3dPolylineVertex
 10
134.134003
 20
54.025745
 30
0.0
 70
    40
  0
VERTEX
  5
48A
100
AcDbEntity
  8
0
390
0
100
AcDbVertex
100
AcDb3dPolylineVertex
 10
134.148605
 20
54.033268
 30
0.0
 70
    40
  0
VERTEX
  5
48B
100
AcDbEntity
  8
0
390
0
100
AcDbVertex
100
AcDb3dPolylineVertex
 10
134.163452
 20
54.040306
 30
0.0
 70
    40
  0
VERTEX
  5
48C
100
AcDbEntity
  8
0
390
0
100
AcDbVertex
100
AcDb3dPolylineVertex
 10
134.178513
 20
54.046848
 30
0.0
 70
    40
  0
VERTEX
  5
48D
100
AcDbEntity
  8
0
390
0
100
AcDbVertex
100
AcDb3dPolylineVertex
 10
134.119003
 20
54.018604
 30
0.0
 70
    48
  0
VERTEX
  5
48E
100
AcDbEntity
  8
0
390
0
100
AcDbVertex
100
AcDb3dPolylineVertex
 10
134.148209
 20
54.034275
 30
0.0
 70
    48
  0
VERTEX
  5
48F
100
AcDbEntity
  8
0
390
0
100
AcDbVertex
100
AcDb3dPolylineVertex
 10
134.178513
 20
54.046848
 30
0.0
 70
    48
  0
VERTEX
  5
490
100
AcDbEntity
  8
0
390
0
100
AcDbVertex
100
AcDb3dPolylineVertex
 10
134.193756
 20
54.052876
 30
0.0
 70
    40
  0
VERTEX
  5
491
100
AcDbEntity
  8
0
390
0
100
AcDbVertex
100
AcDb3dPolylineVertex
 10
134.209122
 20
54.058384
 30
0.0
 70
    40
  0
VERTEX
  5
492
100
AcDbEntity
  8
0
390
0
100
AcDbVertex
100
AcDb3dPolylineVertex
 10
134.22464
 20
54.063374
 30
0.0
 70
    40
  0
VERTEX
  5
493
100
AcDbEntity
  8
0
390
0
100
AcDbVertex
100
AcDb3dPolylineVertex
 10
134.240295
 20
54.067852
 30
0.0
 70
    40
  0
VERTEX
  5
494
100
AcDbEntity
  8
0
390
0
100
AcDbVertex
100
AcDb3dPolylineVertex
 10
134.256088
 20
54.071819
 30
0.0
 70
    40
  0
VERTEX
  5
495
100
AcDbEntity
  8
0
390
0
100
AcDbVertex
100
AcDb3dPolylineVertex
 10
134.272018
 20
54.075275
 30
0.0
 70
    40
  0
VERTEX
  5
496
100
AcDbEntity
  8
0
390
0
100
AcDbVertex
100
AcDb3dPolylineVertex
 10
134.208847
 20
54.059422
 30
0.0
 70
    48
  0
VERTEX
  5
497
100
AcDbEntity
  8
0
390
0
100
AcDbVertex
100
AcDb3dPolylineVertex
 10
134.240005
 20
54.068867
 30
0.0
 70
    48
  0
VERTEX
  5
498
100
AcDbEntity
  8
0
390
0
100
AcDbVertex
100
AcDb3dPolylineVertex
 10
134.272018
 20
54.075275
 30
0.0
 70
    48
  0
VERTEX
  5
499
100
AcDbEntity
  8
0
390
0
100
AcDbVertex
100
AcDb3dPolylineVertex
 10
134.288101
 20
54.078213
 30
0.0
 70
    40
  0
VERTEX
  5
49A
100
AcDbEntity
  8
0
390
0
100
AcDbVertex
100
AcDb3dPolylineVertex
 10
134.304321
 20
54.080631
 30
0.0
 70
    40
  0
VERTEX
  5
49B
100
AcDbEntity
  8
0
390
0
100
AcDbVertex
100
AcDb3dPolylineVertex
 10
134.320663
 20
54.082527
 30
0.0
 70
    40
  0
VERTEX
  5
49C
100
AcDbEntity
  8
0
390
0
100
AcDbVertex
100
AcDb3dPolylineVertex
 10
134.337082
 20
54.083885
 30
0.0
 70
    40
  0
VERTEX
  5
49D
100
AcDbEntity
  8
0
390
0
100
AcDbVertex
100
AcDb3dPolylineVertex
 10
134.353546
 20
54.084705
 30
0.0
 70
    40
  0
VERTEX
  5
49E
100
AcDbEntity
  8
0
390
0
100
AcDbVertex
100
AcDb3dPolylineVertex
 10
134.370041
 20
54.08498
 30
0.0
 70
    40
  0
VERTEX
  5
49F
100
AcDbEntity
  8
0
390
0
100
AcDbVertex
100
AcDb3dPolylineVertex
 10
134.304031
 20
54.081669
 30
0.0
 70
    48
  0
VERTEX
  5
4A0
100
AcDbEntity
  8
0
390
0
100
AcDbVertex
100
AcDb3dPolylineVertex
 10
134.337051
 20
54.08498
 30
0.0
 70
    48
  0
VERTEX
  5
4A1
100
AcDbEntity
  8
0
390
0
100
AcDbVertex
100
AcDb3dPolylineVertex
 10
134.370041
 20
54.08498
 30
0.0
 70
    48
  0
SEQEND
  5
4A2
100
AcDbEntity
  8
0
390
0
  0
LINE
  5
4A3
100
AcDbEntity
  8
ARMATUR
390
0
  6
DURCHGEHEND
 62
     1
100
AcDbLine
 10
141.144302
 20
53.08498
 30
0.0
 11
134.370041
 21
53.08498
 31
0.0
  0
POLYLINE
  5
4A4
100
AcDbEntity
  8
ARMATUR
390
0
  6
DURCHGEHEND
 62
     1
100
AcDb3dPolyline
 66
     1
 10
0.0
 20
0.0
 30
0.0
 70
    12
 75
     5
  0
VERTEX
  5
4A5
100
AcDbEntity
  8
0
390
0
100
AcDbVertex
100
AcDb3dPolylineVertex
 10
134.370041
 20
49.58498
 30
0.0
 70
    48
  0
VERTEX
  5
4A6
100
AcDbEntity
  8
0
390
0
100
AcDbVertex
100
AcDb3dPolylineVertex
 10
134.370041
 20
49.58498
 30
0.0
 70
    40
  0
VERTEX
  5
4A7
100
AcDbEntity
  8
0
390
0
100
AcDbVertex
100
AcDb3dPolylineVertex
 10
134.353592
 20
49.585247
 30
0.0
 70
    40
  0
VERTEX
  5
4A8
100
AcDbEntity
  8
0
390
0
100
AcDbVertex
100
AcDb3dPolylineVertex
 10
134.337219
 20
49.586048
 30
0.0
 70
    40
  0
VERTEX
  5
4A9
100
AcDbEntity
  8
0
390
0
100
AcDbVertex
100
AcDb3dPolylineVertex
 10
134.320953
 20
49.587383
 30
0.0
 70
    40
  0
VERTEX
  5
4AA
100
AcDbEntity
  8
0
390
0
100
AcDbVertex
100
AcDb3dPolylineVertex
 10
134.304764
 20
49.589245
 30
0.0
 70
    40
  0
VERTEX
  5
4AB
100
AcDbEntity
  8
0
390
0
100
AcDbVertex
100
AcDb3dPolylineVertex
 10
134.288666
 20
49.591633
 30
0.0
 70
    40
  0
VERTEX
  5
4AC
100
AcDbEntity
  8
0
390
0
100
AcDbVertex
100
AcDb3dPolylineVertex
 10
134.272659
 20
49.594547
 30
0.0
 70
    40
  0
VERTEX
  5
4AD
100
AcDbEntity
  8
0
390
0
100
AcDbVertex
100
AcDb3dPolylineVertex
 10
134.337051
 20
49.58498
 30
0.0
 70
    48
  0
VERTEX
  5
4AE
100
AcDbEntity
  8
0
390
0
100
AcDbVertex
100
AcDb3dPolylineVertex
 10
134.304581
 20
49.5882
 30
0.0
 70
    48
  0
VERTEX
  5
4AF
100
AcDbEntity
  8
0
390
0
100
AcDbVertex
100
AcDb3dPolylineVertex
 10
134.272659
 20
49.594547
 30
0.0
 70
    48
  0
VERTEX
  5
4B0
100
AcDbEntity
  8
0
390
0
100
AcDbVertex
100
AcDb3dPolylineVertex
 10
134.256714
 20
49.597992
 30
0.0
 70
    40
  0
VERTEX
  5
4B1
100
AcDbEntity
  8
0
390
0
100
AcDbVertex
100
AcDb3dPolylineVertex
 10
134.240845
 20
49.601967
 30
0.0
 70
    40
  0
VERTEX
  5
4B2
100
AcDbEntity
  8
0
390
0
100
AcDbVertex
100
AcDb3dPolylineVertex
 10
134.225067
 20
49.606468
 30
0.0
 70
    40
  0
VERTEX
  5
4B3
100
AcDbEntity
  8
0
390
0
100
AcDbVertex
100
AcDb3dPolylineVertex
 10
134.209412
 20
49.611485
 30
0.0
 70
    40
  0
VERTEX
  5
4B4
100
AcDbEntity
  8
0
390
0
100
AcDbVertex
100
AcDb3dPolylineVertex
 10
134.193954
 20
49.617012
 30
0.0
 70
    40
  0
VERTEX
  5
4B5
100
AcDbEntity
  8
0
390
0
100
AcDbVertex
100
AcDb3dPolylineVertex
 10
134.178696
 20
49.623035
 30
0.0
 70
    40
  0
VERTEX
  5
4B6
100
AcDbEntity
  8
0
390
0
100
AcDbVertex
100
AcDb3dPolylineVertex
 10
134.240738
 20
49.600895
 30
0.0
 70
    48
  0
VERTEX
  5
4B7
100
AcDbEntity
  8
0
390
0
100
AcDbVertex
100
AcDb3dPolylineVertex
 10
134.208969
 20
49.610493
 30
0.0
 70
    48
  0
VERTEX
  5
4B8
100
AcDbEntity
  8
0
390
0
100
AcDbVertex
100
AcDb3dPolylineVertex
 10
134.178696
 20
49.623035
 30
0.0
 70
    48
  0
VERTEX
  5
4B9
100
AcDbEntity
  8
0
390
0
100
AcDbVertex
100
AcDb3dPolylineVertex
 10
134.163681
 20
49.629539
 30
0.0
 70
    40
  0
VERTEX
  5
4BA
100
AcDbEntity
  8
0
390
0
100
AcDbVertex
100
AcDb3dPolylineVertex
 10
134.148926
 20
49.636513
 30
0.0
 70
    40
  0
VERTEX
  5
4BB
100
AcDbEntity
  8
0
390
0
100
AcDbVertex
100
AcDb3dPolylineVertex
 10
134.13443
 20
49.643955
 30
0.0
 70
    40
  0
VERTEX
  5
4BC
100
AcDbEntity
  8
0
390
0
100
AcDbVertex
100
AcDb3dPolylineVertex
 10
134.120178
 20
49.651863
 30
0.0
 70
    40
  0
VERTEX
  5
4BD
100
AcDbEntity
  8
0
390
0
100
AcDbVertex
100
AcDb3dPolylineVertex
 10
134.106186
 20
49.66024
 30
0.0
 70
    40
  0
VERTEX
  5
4BE
100
AcDbEntity
  8
0
390
0
100
AcDbVertex
100
AcDb3dPolylineVertex
 10
134.092453
 20
49.669086
 30
0.0
 70
    40
  0
VERTEX
  5
4BF
100
AcDbEntity
  8
0
390
0
100
AcDbVertex
100
AcDb3dPolylineVertex
 10
134.148422
 20
49.635578
 30
0.0
 70
    48
  0
VERTEX
  5
4C0
100
AcDbEntity
  8
0
390
0
100
AcDbVertex
100
AcDb3dPolylineVertex
 10
134.119675
 20
49.650928
 30
0.0
 70
    48
  0
VERTEX
  5
4C1
100
AcDbEntity
  8
0
390
0
100
AcDbVertex
100
AcDb3dPolylineVertex
 10
134.092453
 20
49.669086
 30
0.0
 70
    48
  0
VERTEX
  5
4C2
100
AcDbEntity
  8
0
390
0
100
AcDbVertex
100
AcDb3dPolylineVertex
 10
134.078979
 20
49.67841
 30
0.0
 70
    40
  0
VERTEX
  5
4C3
100
AcDbEntity
  8
0
390
0
100
AcDbVertex
100
AcDb3dPolylineVertex
 10
134.065781
 20
49.688202
 30
0.0
 70
    40
  0
VERTEX
  5
4C4
100
AcDbEntity
  8
0
390
0
100
AcDbVertex
100
AcDb3dPolylineVertex
 10
134.052887
 20
49.698437
 30
0.0
 70
    40
  0
VERTEX
  5
4C5
100
AcDbEntity
  8
0
390
0
100
AcDbVertex
100
AcDb3dPolylineVertex
 10
134.040344
 20
49.709084
 30
0.0
 70
    40
  0
VERTEX
  5
4C6
100
AcDbEntity
  8
0
390
0
100
AcDbVertex
100
AcDb3dPolylineVertex
 10
134.028168
 20
49.720112
 30
0.0
 70
    40
  0
VERTEX
  5
4C7
100
AcDbEntity
  8
0
390
0
100
AcDbVertex
100
AcDb3dPolylineVertex
 10
134.016403
 20
49.731495
 30
0.0
 70
    40
  0
VERTEX
  5
4C8
100
AcDbEntity
  8
0
390
0
100
AcDbVertex
100
AcDb3dPolylineVertex
 10
134.065262
 20
49.687244
 30
0.0
 70
    48
  0
VERTEX
  5
4C9
100
AcDbEntity
  8
0
390
0
100
AcDbVertex
100
AcDb3dPolylineVertex
 10
134.039505
 20
49.708393
 30
0.0
 70
    48
  0
VERTEX
  5
4CA
100
AcDbEntity
  8
0
390
0
100
AcDbVertex
100
AcDb3dPolylineVertex
 10
134.016403
 20
49.731495
 30
0.0
 70
    48
  0
VERTEX
  5
4CB
100
AcDbEntity
  8
0
390
0
100
AcDbVertex
100
AcDb3dPolylineVertex
 10
133.994064
 20
49.755383
 30
0.0
 70
    40
  0
VERTEX
  5
4CC
100
AcDbEntity
  8
0
390
0
100
AcDbVertex
100
AcDb3dPolylineVertex
 10
133.973297
 20
49.780739
 30
0.0
 70
    40
  0
VERTEX
  5
4CD
100
AcDbEntity
  8
0
390
0
100
AcDbVertex
100
AcDb3dPolylineVertex
 10
133.954208
 20
49.807423
 30
0.0
 70
    40
  0
VERTEX
  5
4CE
100
AcDbEntity
  8
0
390
0
100
AcDbVertex
100
AcDb3dPolylineVertex
 10
133.936905
 20
49.835281
 30
0.0
 70
    40
  0
VERTEX
  5
4CF
100
AcDbEntity
  8
0
390
0
100
AcDbVertex
100
AcDb3dPolylineVertex
 10
133.921448
 20
49.864162
 30
0.0
 70
    40
  0
VERTEX
  5
4D0
100
AcDbEntity
  8
0
390
0
100
AcDbVertex
100
AcDb3dPolylineVertex
 10
133.907974
 20
49.893925
 30
0.0
 70
    40
  0
VERTEX
  5
4D1
100
AcDbEntity
  8
0
390
0
100
AcDbVertex
100
AcDb3dPolylineVertex
 10
133.9702
 20
49.777699
 30
0.0
 70
    48
  0
VERTEX
  5
4D2
100
AcDbEntity
  8
0
390
0
100
AcDbVertex
100
AcDb3dPolylineVertex
 10
133.932907
 20
49.833622
 30
0.0
 70
    48
  0
VERTEX
  5
4D3
100
AcDbEntity
  8
0
390
0
100
AcDbVertex
100
AcDb3dPolylineVertex
 10
133.907974
 20
49.893925
 30
0.0
 70
    48
  0
VERTEX
  5
4D4
100
AcDbEntity
  8
0
390
0
100
AcDbVertex
100
AcDb3dPolylineVertex
 10
133.8965
 20
49.924515
 30
0.0
 70
    40
  0
VERTEX
  5
4D5
100
AcDbEntity
  8
0
390
0
100
AcDbVertex
100
AcDb3dPolylineVertex
 10
133.887039
 20
49.955868
 30
0.0
 70
    40
  0
VERTEX
  5
4D6
100
AcDbEntity
  8
0
390
0
100
AcDbVertex
100
AcDb3dPolylineVertex
 10
133.879639
 20
49.987808
 30
0.0
 70
    40
  0
VERTEX
  5
4D7
100
AcDbEntity
  8
0
390
0
100
AcDbVertex
100
AcDb3dPolylineVertex
 10
133.874313
 20
50.020168
 30
0.0
 70
    40
  0
VERTEX
  5
4D8
100
AcDbEntity
  8
0
390
0
100
AcDbVertex
100
AcDb3dPolylineVertex
 10
133.871094
 20
50.052769
 30
0.0
 70
    40
  0
VERTEX
  5
4D9
100
AcDbEntity
  8
0
390
0
100
AcDbVertex
100
AcDb3dPolylineVertex
 10
133.870041
 20
50.085438
 30
0.0
 70
    40
  0
VERTEX
  5
4DA
100
AcDbEntity
  8
0
390
0
100
AcDbVertex
100
AcDb3dPolylineVertex
 10
133.883041
 20
49.954227
 30
0.0
 70
    48
  0
VERTEX
  5
4DB
100
AcDbEntity
  8
0
390
0
100
AcDbVertex
100
AcDb3dPolylineVertex
 10
133.86998
 20
50.020145
 30
0.0
 70
    48
  0
VERTEX
  5
4DC
100
AcDbEntity
  8
0
390
0
100
AcDbVertex
100
AcDb3dPolylineVertex
 10
133.870041
 20
50.085438
 30
0.0
 70
    48
  0
VERTEX
  5
4DD
100
AcDbEntity
  8
0
390
0
100
AcDbVertex
100
AcDb3dPolylineVertex
 10
133.870331
 20
50.101799
 30
0.0
 70
    40
  0
VERTEX
  5
4DE
100
AcDbEntity
  8
0
390
0
100
AcDbVertex
100
AcDb3dPolylineVertex
 10
133.871155
 20
50.118195
 30
0.0
 70
    40
  0
VERTEX
  5
4DF
100
AcDbEntity
  8
0
390
0
100
AcDbVertex
100
AcDb3dPolylineVertex
 10
133.872528
 20
50.13459
 30
0.0
 70
    40
  0
VERTEX
  5
4E0
100
AcDbEntity
  8
0
390
0
100
AcDbVertex
100
AcDb3dPolylineVertex
 10
133.87442
 20
50.150932
 30
0.0
 70
    40
  0
VERTEX
  5
4E1
100
AcDbEntity
  8
0
390
0
100
AcDbVertex
100
AcDb3dPolylineVertex
 10
133.876846
 20
50.167179
 30
0.0
 70
    40
  0
VERTEX
  5
4E2
100
AcDbEntity
  8
0
390
0
100
AcDbVertex
100
AcDb3dPolylineVertex
 10
133.879807
 20
50.183292
 30
0.0
 70
    40
  0
VERTEX
  5
4E3
100
AcDbEntity
  8
0
390
0
100
AcDbVertex
100
AcDb3dPolylineVertex
 10
133.870071
 20
50.118092
 30
0.0
 70
    48
  0
VERTEX
  5
4E4
100
AcDbEntity
  8
0
390
0
100
AcDbVertex
100
AcDb3dPolylineVertex
 10
133.873367
 20
50.151234
 30
0.0
 70
    48
  0
VERTEX
  5
4E5
100
AcDbEntity
  8
0
390
0
100
AcDbVertex
100
AcDb3dPolylineVertex
 10
133.879807
 20
50.183292
 30
0.0
 70
    48
  0
VERTEX
  5
4E6
100
AcDbEntity
  8
0
390
0
100
AcDbVertex
100
AcDb3dPolylineVertex
 10
133.88327
 20
50.199245
 30
0.0
 70
    40
  0
VERTEX
  5
4E7
100
AcDbEntity
  8
0
390
0
100
AcDbVertex
100
AcDb3dPolylineVertex
 10
133.887238
 20
50.21505
 30
0.0
 70
    40
  0
VERTEX
  5
4E8
100
AcDbEntity
  8
0
390
0
100
AcDbVertex
100
AcDb3dPolylineVertex
 10
133.891724
 20
50.230705
 30
0.0
 70
    40
  0
VERTEX
  5
4E9
100
AcDbEntity
  8
0
390
0
100
AcDbVertex
100
AcDb3dPolylineVertex
 10
133.896729
 20
50.246204
 30
0.0
 70
    40
  0
VERTEX
  5
4EA
100
AcDbEntity
  8
0
390
0
100
AcDbVertex
100
AcDb3dPolylineVertex
 10
133.902252
 20
50.261555
 30
0.0
 70
    40
  0
VERTEX
  5
4EB
100
AcDbEntity
  8
0
390
0
100
AcDbVertex
100
AcDb3dPolylineVertex
 10
133.908279
 20
50.276752
 30
0.0
 70
    40
  0
VERTEX
  5
4EC
100
AcDbEntity
  8
0
390
0
100
AcDbVertex
100
AcDb3dPolylineVertex
 10
133.886215
 20
50.215351
 30
0.0
 70
    48
  0
VERTEX
  5
4ED
100
AcDbEntity
  8
0
390
0
100
AcDbVertex
100
AcDb3dPolylineVertex
 10
133.895706
 20
50.24651
 30
0.0
 70
    48
  0
VERTEX
  5
4EE
100
AcDbEntity
  8
0
390
0
100
AcDbVertex
100
AcDb3dPolylineVertex
 10
133.908279
 20
50.276752
 30
0.0
 70
    48
  0
VERTEX
  5
4EF
100
AcDbEntity
  8
0
390
0
100
AcDbVertex
100
AcDb3dPolylineVertex
 10
133.914825
 20
50.29179
 30
0.0
 70
    40
  0
VERTEX
  5
4F0
100
AcDbEntity
  8
0
390
0
100
AcDbVertex
100
AcDb3dPolylineVertex
 10
133.92186
 20
50.306622
 30
0.0
 70
    40
  0
VERTEX
  5
4F1
100
AcDbEntity
  8
0
390
0
100
AcDbVertex
100
AcDb3dPolylineVertex
 10
133.929367
 20
50.321217
 30
0.0
 70
    40
  0
VERTEX
  5
4F2
100
AcDbEntity
  8
0
390
0
100
AcDbVertex
100
AcDb3dPolylineVertex
 10
133.937347
 20
50.335541
 30
0.0
 70
    40
  0
VERTEX
  5
4F3
100
AcDbEntity
  8
0
390
0
100
AcDbVertex
100
AcDb3dPolylineVertex
 10
133.945786
 20
50.349564
 30
0.0
 70
    40
  0
VERTEX
  5
4F4
100
AcDbEntity
  8
0
390
0
100
AcDbVertex
100
AcDb3dPolylineVertex
 10
133.954636
 20
50.363255
 30
0.0
 70
    40
  0
VERTEX
  5
4F5
100
AcDbEntity
  8
0
390
0
100
AcDbVertex
100
AcDb3dPolylineVertex
 10
133.920853
 20
50.307011
 30
0.0
 70
    48
  0
VERTEX
  5
4F6
100
AcDbEntity
  8
0
390
0
100
AcDbVertex
100
AcDb3dPolylineVertex
 10
133.936508
 20
50.336231
 30
0.0
 70
    48
  0
VERTEX
  5
4F7
100
AcDbEntity
  8
0
390
0
100
AcDbVertex
100
AcDb3dPolylineVertex
 10
133.954636
 20
50.363255
 30
0.0
 70
    48
  0
VERTEX
  5
4F8
100
AcDbEntity
  8
0
390
0
100
AcDbVertex
100
AcDb3dPolylineVertex
 10
133.963898
 20
50.376614
 30
0.0
 70
    40
  0
VERTEX
  5
4F9
100
AcDbEntity
  8
0
390
0
100
AcDbVertex
100
AcDb3dPolylineVertex
 10
133.973602
 20
50.389668
 30
0.0
 70
    40
  0
VERTEX
  5
4FA
100
AcDbEntity
  8
0
390
0
100
AcDbVertex
100
AcDb3dPolylineVertex
 10
133.983734
 20
50.402416
 30
0.0
 70
    40
  0
VERTEX
  5
4FB
100
AcDbEntity
  8
0
390
0
100
AcDbVertex
100
AcDb3dPolylineVertex
 10
133.994293
 20
50.414852
 30
0.0
 70
    40
  0
VERTEX
  5
4FC
100
AcDbEntity
  8
0
390
0
100
AcDbVertex
100
AcDb3dPolylineVertex
 10
134.005295
 20
50.426975
 30
0.0
 70
    40
  0
VERTEX
  5
4FD
100
AcDbEntity
  8
0
390
0
100
AcDbVertex
100
AcDb3dPolylineVertex
 10
134.016739
 20
50.438786
 30
0.0
 70
    40
  0
VERTEX
  5
4FE
100
AcDbEntity
  8
0
390
0
100
AcDbVertex
100
AcDb3dPolylineVertex
 10
133.972733
 20
50.390278
 30
0.0
 70
    48
  0
VERTEX
  5
4FF
100
AcDbEntity
  8
0
390
0
100
AcDbVertex
100
AcDb3dPolylineVertex
 10
133.993423
 20
50.415485
 30
0.0
 70
    48
  0
VERTEX
  5
500
100
AcDbEntity
  8
0
390
0
100
AcDbVertex
100
AcDb3dPolylineVertex
 10
134.016739
 20
50.438786
 30
0.0
 70
    48
  0
VERTEX
  5
501
100
AcDbEntity
  8
0
390
0
100
AcDbVertex
100
AcDb3dPolylineVertex
 10
134.028564
 20
50.450214
 30
0.0
 70
    40
  0
VERTEX
  5
502
100
AcDbEntity
  8
0
390
0
100
AcDbVertex
100
AcDb3dPolylineVertex
 10
134.04071
 20
50.461201
 30
0.0
 70
    40
  0
VERTEX
  5
503
100
AcDbEntity
  8
0
390
0
100
AcDbVertex
100
AcDb3dPolylineVertex
 10
134.053146
 20
50.471745
 30
0.0
 70
    40
  0
VERTEX
  5
504
100
AcDbEntity
  8
0
390
0
100
AcDbVertex
100
AcDb3dPolylineVertex
 10
134.065903
 20
50.481853
 30
0.0
 70
    40
  0
VERTEX
  5
505
100
AcDbEntity
  8
0
390
0
100
AcDbVertex
100
AcDb3dPolylineVertex
 10
134.078964
 20
50.491528
 30
0.0
 70
    40
  0
VERTEX
  5
506
100
AcDbEntity
  8
0
390
0
100
AcDbVertex
100
AcDb3dPolylineVertex
 10
134.092331
 20
50.500767
 30
0.0
 70
    40
  0
VERTEX
  5
507
100
AcDbEntity
  8
0
390
0
100
AcDbVertex
100
AcDb3dPolylineVertex
 10
134.040085
 20
50.462086
 30
0.0
 70
    48
  0
VERTEX
  5
508
100
AcDbEntity
  8
0
390
0
100
AcDbVertex
100
AcDb3dPolylineVertex
 10
134.065292
 20
50.482716
 30
0.0
 70
    48
  0
VERTEX
  5
509
100
AcDbEntity
  8
0
390
0
100
AcDbVertex
100
AcDb3dPolylineVertex
 10
134.092331
 20
50.500767
 30
0.0
 70
    48
  0
VERTEX
  5
50A
100
AcDbEntity
  8
0
390
0
100
AcDbVertex
100
AcDb3dPolylineVertex
 10
134.106018
 20
50.509586
 30
0.0
 70
    40
  0
VERTEX
  5
50B
100
AcDbEntity
  8
0
390
0
100
AcDbVertex
100
AcDb3dPolylineVertex
 10
134.120041
 20
50.517979
 30
0.0
 70
    40
  0
VERTEX
  5
50C
100
AcDbEntity
  8
0
390
0
100
AcDbVertex
100
AcDb3dPolylineVertex
 10
134.134354
 20
50.525932
 30
0.0
 70
    40
  0
VERTEX
  5
50D
100
AcDbEntity
  8
0
390
0
100
AcDbVertex
100
AcDb3dPolylineVertex
 10
134.148926
 20
50.533421
 30
0.0
 70
    40
  0
VERTEX
  5
50E
100
AcDbEntity
  8
0
390
0
100
AcDbVertex
100
AcDb3dPolylineVertex
 10
134.163742
 20
50.540428
 30
0.0
 70
    40
  0
VERTEX
  5
50F
100
AcDbEntity
  8
0
390
0
100
AcDbVertex
100
AcDb3dPolylineVertex
 10
134.178757
 20
50.54694
 30
0.0
 70
    40
  0
VERTEX
  5
510
100
AcDbEntity
  8
0
390
0
100
AcDbVertex
100
AcDb3dPolylineVertex
 10
134.11937
 20
50.518818
 30
0.0
 70
    48
  0
VERTEX
  5
511
100
AcDbEntity
  8
0
390
0
100
AcDbVertex
100
AcDb3dPolylineVertex
 10
134.148544
 20
50.534428
 30
0.0
 70
    48
  0
VERTEX
  5
512
100
AcDbEntity
  8
0
390
0
100
AcDbVertex
100
AcDb3dPolylineVertex
 10
134.178757
 20
50.54694
 30
0.0
 70
    48
  0
VERTEX
  5
513
100
AcDbEntity
  8
0
390
0
100
AcDbVertex
100
AcDb3dPolylineVertex
 10
134.193954
 20
50.55294
 30
0.0
 70
    40
  0
VERTEX
  5
514
100
AcDbEntity
  8
0
390
0
100
AcDbVertex
100
AcDb3dPolylineVertex
 10
134.20929
 20
50.558426
 30
0.0
 70
    40
  0
VERTEX
  5
515
100
AcDbEntity
  8
0
390
0
100
AcDbVertex
100
AcDb3dPolylineVertex
 10
134.224762
 20
50.5634
 30
0.0
 70
    40
  0
VERTEX
  5
516
100
AcDbEntity
  8
0
390
0
100
AcDbVertex
100
AcDb3dPolylineVertex
 10
134.240387
 20
50.567867
 30
0.0
 70
    40
  0
VERTEX
  5
517
100
AcDbEntity
  8
0
390
0
100
AcDbVertex
100
AcDb3dPolylineVertex
 10
134.256165
 20
50.571827
 30
0.0
 70
    40
  0
VERTEX
  5
518
100
AcDbEntity
  8
0
390
0
100
AcDbVertex
100
AcDb3dPolylineVertex
 10
134.272079
 20
50.575275
 30
0.0
 70
    40
  0
VERTEX
  5
519
100
AcDbEntity
  8
0
390
0
100
AcDbVertex
100
AcDb3dPolylineVertex
 10
134.209
 20
50.559452
 30
0.0
 70
    48
  0
VERTEX
  5
51A
100
AcDbEntity
  8
0
390
0
100
AcDbVertex
100
AcDb3dPolylineVertex
 10
134.240097
 20
50.568882
 30
0.0
 70
    48
  0
VERTEX
  5
51B
100
AcDbEntity
  8
0
390
0
100
AcDbVertex
100
AcDb3dPolylineVertex
 10
134.272079
 20
50.575275
 30
0.0
 70
    48
  0
VERTEX
  5
51C
100
AcDbEntity
  8
0
390
0
100
AcDbVertex
100
AcDb3dPolylineVertex
 10
134.288147
 20
50.578213
 30
0.0
 70
    40
  0
VERTEX
  5
51D
100
AcDbEntity
  8
0
390
0
100
AcDbVertex
100
AcDb3dPolylineVertex
 10
134.304352
 20
50.580631
 30
0.0
 70
    40
  0
VERTEX
  5
51E
100
AcDbEntity
  8
0
390
0
100
AcDbVertex
100
AcDb3dPolylineVertex
 10
134.320679
 20
50.582527
 30
0.0
 70
    40
  0
VERTEX
  5
51F
100
AcDbEntity
  8
0
390
0
100
AcDbVertex
100
AcDb3dPolylineVertex
 10
134.337082
 20
50.583885
 30
0.0
 70
    40
  0
VERTEX
  5
520
100
AcDbEntity
  8
0
390
0
100
AcDbVertex
100
AcDb3dPolylineVertex
 10
134.353546
 20
50.584705
 30
0.0
 70
    40
  0
VERTEX
  5
521
100
AcDbEntity
  8
0
390
0
100
AcDbVertex
100
AcDb3dPolylineVertex
 10
134.370041
 20
50.58498
 30
0.0
 70
    40
  0
VERTEX
  5
522
100
AcDbEntity
  8
0
390
0
100
AcDbVertex
100
AcDb3dPolylineVertex
 10
134.304031
 20
50.581669
 30
0.0
 70
    48
  0
VERTEX
  5
523
100
AcDbEntity
  8
0
390
0
100
AcDbVertex
100
AcDb3dPolylineVertex
 10
134.337051
 20
50.58498
 30
0.0
 70
    48
  0
VERTEX
  5
524
100
AcDbEntity
  8
0
390
0
100
AcDbVertex
100
AcDb3dPolylineVertex
 10
134.370041
 20
50.58498
 30
0.0
 70
    48
  0
SEQEND
  5
525
100
AcDbEntity
  8
0
390
0
  0
LINE
  5
526
100
AcDbEntity
  8
ARMATUR
390
0
  6
DURCHGEHEND
 62
     1
100
AcDbLine
 10
141.144302
 20
49.58498
 30
0.0
 11
134.370041
 21
49.58498
 31
0.0
  0
POLYLINE
  5
527
100
AcDbEntity
  8
ARMATUR
390
0
  6
DURCHGEHEND
 62
     1
100
AcDb3dPolyline
 66
     1
 10
0.0
 20
0.0
 30
0.0
 70
    12
 75
     5
  0
VERTEX
  5
528
100
AcDbEntity
  8
0
390
0
100
AcDbVertex
100
AcDb3dPolylineVertex
 10
141.144302
 20
50.58498
 30
0.0
 70
    48
  0
VERTEX
  5
529
100
AcDbEntity
  8
0
390
0
100
AcDbVertex
100
AcDb3dPolylineVertex
 10
141.144302
 20
50.58498
 30
0.0
 70
    40
  0
VERTEX
  5
52A
100
AcDbEntity
  8
0
390
0
100
AcDbVertex
100
AcDb3dPolylineVertex
 10
141.160751
 20
50.584709
 30
0.0
 70
    40
  0
VERTEX
  5
52B
100
AcDbEntity
  8
0
390
0
100
AcDbVertex
100
AcDb3dPolylineVertex
 10
141.177109
 20
50.583908
 30
0.0
 70
    40
  0
VERTEX
  5
52C
100
AcDbEntity
  8
0
390
0
100
AcDbVertex
100
AcDb3dPolylineVertex
 10
141.193359
 20
50.582573
 30
0.0
 70
    40
  0
VERTEX
  5
52D
100
AcDbEntity
  8
0
390
0
100
AcDbVertex
100
AcDb3dPolylineVertex
 10
141.209534
 20
50.580708
 30
0.0
 70
    40
  0
VERTEX
  5
52E
100
AcDbEntity
  8
0
390
0
100
AcDbVertex
100
AcDb3dPolylineVertex
 10
141.225616
 20
50.57832
 30
0.0
 70
    40
  0
VERTEX
  5
52F
100
AcDbEntity
  8
0
390
0
100
AcDbVertex
100
AcDb3dPolylineVertex
 10
141.241623
 20
50.575413
 30
0.0
 70
    40
  0
VERTEX
  5
530
100
AcDbEntity
  8
0
390
0
100
AcDbVertex
100
AcDb3dPolylineVertex
 10
141.177292
 20
50.58498
 30
0.0
 70
    48
  0
VERTEX
  5
531
100
AcDbEntity
  8
0
390
0
100
AcDbVertex
100
AcDb3dPolylineVertex
 10
141.209702
 20
50.581745
 30
0.0
 70
    48
  0
VERTEX
  5
532
100
AcDbEntity
  8
0
390
0
100
AcDbVertex
100
AcDb3dPolylineVertex
 10
141.241623
 20
50.575413
 30
0.0
 70
    48
  0
VERTEX
  5
533
100
AcDbEntity
  8
0
390
0
100
AcDbVertex
100
AcDb3dPolylineVertex
 10
141.257538
 20
50.571976
 30
0.0
 70
    40
  0
VERTEX
  5
534
100
AcDbEntity
  8
0
390
0
100
AcDbVertex
100
AcDb3dPolylineVertex
 10
141.273392
 20
50.568008
 30
0.0
 70
    40
  0
VERTEX
  5
535
100
AcDbEntity
  8
0
390
0
100
AcDbVertex
100
AcDb3dPolylineVertex
 10
141.289139
 20
50.563519
 30
0.0
 70
    40
  0
VERTEX
  5
536
100
AcDbEntity
  8
0
390
0
100
AcDbVertex
100
AcDb3dPolylineVertex
 10
141.304749
 20
50.558514
 30
0.0
 70
    40
  0
VERTEX
  5
537
100
AcDbEntity
  8
0
390
0
100
AcDbVertex
100
AcDb3dPolylineVertex
 10
141.320175
 20
50.553005
 30
0.0
 70
    40
  0
VERTEX
  5
538
100
AcDbEntity
  8
0
390
0
100
AcDbVertex
100
AcDb3dPolylineVertex
 10
141.335403
 20
50.547001
 30
0.0
 70
    40
  0
VERTEX
  5
539
100
AcDbEntity
  8
0
390
0
100
AcDbVertex
100
AcDb3dPolylineVertex
 10
141.273514
 20
50.56908
 30
0.0
 70
    48
  0
VERTEX
  5
53A
100
AcDbEntity
  8
0
390
0
100
AcDbVertex
100
AcDb3dPolylineVertex
 10
141.305191
 20
50.559498
 30
0.0
 70
    48
  0
VERTEX
  5
53B
100
AcDbEntity
  8
0
390
0
100
AcDbVertex
100
AcDb3dPolylineVertex
 10
141.335403
 20
50.547001
 30
0.0
 70
    48
  0
VERTEX
  5
53C
100
AcDbEntity
  8
0
390
0
100
AcDbVertex
100
AcDb3dPolylineVertex
 10
141.350388
 20
50.54052
 30
0.0
 70
    40
  0
VERTEX
  5
53D
100
AcDbEntity
  8
0
390
0
100
AcDbVertex
100
AcDb3dPolylineVertex
 10
141.365112
 20
50.533569
 30
0.0
 70
    40
  0
VERTEX
  5
53E
100
AcDbEntity
  8
0
390
0
100
AcDbVertex
100
AcDb3dPolylineVertex
 10
141.379578
 20
50.526154
 30
0.0
 70
    40
  0
VERTEX
  5
53F
100
AcDbEntity
  8
0
390
0
100
AcDbVertex
100
AcDb3dPolylineVertex
 10
141.393799
 20
50.518276
 30
0.0
 70
    40
  0
VERTEX
  5
540
100
AcDbEntity
  8
0
390
0
100
AcDbVertex
100
AcDb3dPolylineVertex
 10
141.407745
 20
50.509937
 30
0.0
 70
    40
  0
VERTEX
  5
541
100
AcDbEntity
  8
0
390
0
100
AcDbVertex
100
AcDb3dPolylineVertex
 10
141.421432
 20
50.501133
 30
0.0
 70
    40
  0
VERTEX
  5
542
100
AcDbEntity
  8
0
390
0
100
AcDbVertex
100
AcDb3dPolylineVertex
 10
141.365646
 20
50.534504
 30
0.0
 70
    48
  0
VERTEX
  5
543
100
AcDbEntity
  8
0
390
0
100
AcDbVertex
100
AcDb3dPolylineVertex
 10
141.394302
 20
50.519199
 30
0.0
 70
    48
  0
VERTEX
  5
544
100
AcDbEntity
  8
0
390
0
100
AcDbVertex
100
AcDb3dPolylineVertex
 10
141.421432
 20
50.501133
 30
0.0
 70
    48
  0
VERTEX
  5
545
100
AcDbEntity
  8
0
390
0
100
AcDbVertex
100
AcDb3dPolylineVertex
 10
141.434875
 20
50.491856
 30
0.0
 70
    40
  0
VERTEX
  5
546
100
AcDbEntity
  8
0
390
0
100
AcDbVertex
100
AcDb3dPolylineVertex
 10
141.448044
 20
50.482109
 30
0.0
 70
    40
  0
VERTEX
  5
547
100
AcDbEntity
  8
0
390
0
100
AcDbVertex
100
AcDb3dPolylineVertex
 10
141.460922
 20
50.471924
 30
0.0
 70
    40
  0
VERTEX
  5
548
100
AcDbEntity
  8
0
390
0
100
AcDbVertex
100
AcDb3dPolylineVertex
 10
141.47345
 20
50.461323
 30
0.0
 70
    40
  0
VERTEX
  5
549
100
AcDbEntity
  8
0
390
0
100
AcDbVertex
100
AcDb3dPolylineVertex
 10
141.485611
 20
50.450344
 30
0.0
 70
    40
  0
VERTEX
  5
54A
100
AcDbEntity
  8
0
390
0
100
AcDbVertex
100
AcDb3dPolylineVertex
 10
141.49736
 20
50.439014
 30
0.0
 70
    40
  0
VERTEX
  5
54B
100
AcDbEntity
  8
0
390
0
100
AcDbVertex
100
AcDb3dPolylineVertex
 10
141.448563
 20
50.483067
 30
0.0
 70
    48
  0
VERTEX
  5
54C
100
AcDbEntity
  8
0
390
0
100
AcDbVertex
100
AcDb3dPolylineVertex
 10
141.474289
 20
50.462009
 30
0.0
 70
    48
  0
VERTEX
  5
54D
100
AcDbEntity
  8
0
390
0
100
AcDbVertex
100
AcDb3dPolylineVertex
 10
141.49736
 20
50.439014
 30
0.0
 70
    48
  0
VERTEX
  5
54E
100
AcDbEntity
  8
0
390
0
100
AcDbVertex
100
AcDb3dPolylineVertex
 10
141.508682
 20
50.427341
 30
0.0
 70
    40
  0
VERTEX
  5
54F
100
AcDbEntity
  8
0
390
0
100
AcDbVertex
100
AcDb3dPolylineVertex
 10
141.519623
 20
50.415318
 30
0.0
 70
    40
  0
VERTEX
  5
550
100
AcDbEntity
  8
0
390
0
100
AcDbVertex
100
AcDb3dPolylineVertex
 10
141.530167
 20
50.402939
 30
0.0
 70
    40
  0
VERTEX
  5
551
100
AcDbEntity
  8
0
390
0
100
AcDbVertex
100
AcDb3dPolylineVertex
 10
141.540314
 20
50.390209
 30
0.0
 70
    40
  0
VERTEX
  5
552
100
AcDbEntity
  8
0
390
0
100
AcDbVertex
100
AcDb3dPolylineVertex
 10
141.550064
 20
50.377121
 30
0.0
 70
    40
  0
VERTEX
  5
553
100
AcDbEntity
  8
0
390
0
100
AcDbVertex
100
AcDb3dPolylineVertex
 10
141.559402
 20
50.363682
 30
0.0
 70
    40
  0
VERTEX
  5
554
100
AcDbEntity
  8
0
390
0
100
AcDbVertex
100
AcDb3dPolylineVertex
 10
141.520401
 20
50.416019
 30
0.0
 70
    48
  0
VERTEX
  5
555
100
AcDbEntity
  8
0
390
0
100
AcDbVertex
100
AcDb3dPolylineVertex
 10
141.541122
 20
50.390919
 30
0.0
 70
    48
  0
VERTEX
  5
556
100
AcDbEntity
  8
0
390
0
100
AcDbVertex
100
AcDb3dPolylineVertex
 10
141.559402
 20
50.363682
 30
0.0
 70
    48
  0
VERTEX
  5
557
100
AcDbEntity
  8
0
390
0
100
AcDbVertex
100
AcDb3dPolylineVertex
 10
141.568314
 20
50.349915
 30
0.0
 70
    40
  0
VERTEX
  5
558
100
AcDbEntity
  8
0
390
0
100
AcDbVertex
100
AcDb3dPolylineVertex
 10
141.576782
 20
50.335861
 30
0.0
 70
    40
  0
VERTEX
  5
559
100
AcDbEntity
  8
0
390
0
100
AcDbVertex
100
AcDb3dPolylineVertex
 10
141.584778
 20
50.321548
 30
0.0
 70
    40
  0
VERTEX
  5
55A
100
AcDbEntity
  8
0
390
0
100
AcDbVertex
100
AcDb3dPolylineVertex
 10
141.592285
 20
50.307003
 30
0.0
 70
    40
  0
VERTEX
  5
55B
100
AcDbEntity
  8
0
390
0
100
AcDbVertex
100
AcDb3dPolylineVertex
 10
141.599304
 20
50.292248
 30
0.0
 70
    40
  0
VERTEX
  5
55C
100
AcDbEntity
  8
0
390
0
100
AcDbVertex
100
AcDb3dPolylineVertex
 10
141.60582
 20
50.277302
 30
0.0
 70
    40
  0
VERTEX
  5
55D
100
AcDbEntity
  8
0
390
0
100
AcDbVertex
100
AcDb3dPolylineVertex
 10
141.577682
 20
50.336445
 30
0.0
 70
    48
  0
VERTEX
  5
55E
100
AcDbEntity
  8
0
390
0
100
AcDbVertex
100
AcDb3dPolylineVertex
 10
141.593307
 20
50.307362
 30
0.0
 70
    48
  0
VERTEX
  5
55F
100
AcDbEntity
  8
0
390
0
100
AcDbVertex
100
AcDb3dPolylineVertex
 10
141.60582
 20
50.277302
 30
0.0
 70
    48
  0
VERTEX
  5
560
100
AcDbEntity
  8
0
390
0
100
AcDbVertex
100
AcDb3dPolylineVertex
 10
141.617355
 20
50.246815
 30
0.0
 70
    40
  0
VERTEX
  5
561
100
AcDbEntity
  8
0
390
0
100
AcDbVertex
100
AcDb3dPolylineVertex
 10
141.626892
 20
50.215549
 30
0.0
 70
    40
  0
VERTEX
  5
562
100
AcDbEntity
  8
0
390
0
100
AcDbVertex
100
AcDb3dPolylineVertex
 10
141.634399
 20
50.183678
 30
0.0
 70
    40
  0
VERTEX
  5
563
100
AcDbEntity
  8
0
390
0
100
AcDbVertex
100
AcDb3dPolylineVertex
 10
141.639832
 20
50.151371
 30
0.0
 70
    40
  0
VERTEX
  5
564
100
AcDbEntity
  8
0
390
0
100
AcDbVertex
100
AcDb3dPolylineVertex
 10
141.643143
 20
50.118813
 30
0.0
 70
    40
  0
VERTEX
  5
565
100
AcDbEntity
  8
0
390
0
100
AcDbVertex
100
AcDb3dPolylineVertex
 10
141.644302
 20
50.08617
 30
0.0
 70
    40
  0
VERTEX
  5
566
100
AcDbEntity
  8
0
390
0
100
AcDbVertex
100
AcDb3dPolylineVertex
 10
141.630875
 20
50.217228
 30
0.0
 70
    48
  0
VERTEX
  5
567
100
AcDbEntity
  8
0
390
0
100
AcDbVertex
100
AcDb3dPolylineVertex
 10
141.64415
 20
50.151417
 30
0.0
 70
    48
  0
VERTEX
  5
568
100
AcDbEntity
  8
0
390
0
100
AcDbVertex
100
AcDb3dPolylineVertex
 10
141.644302
 20
50.08617
 30
0.0
 70
    48
  0
VERTEX
  5
569
100
AcDbEntity
  8
0
390
0
100
AcDbVertex
100
AcDb3dPolylineVertex
 10
141.644058
 20
50.069817
 30
0.0
 70
    40
  0
VERTEX
  5
56A
100
AcDbEntity
  8
0
390
0
100
AcDbVertex
100
AcDb3dPolylineVertex
 10
141.64328
 20
50.053413
 30
0.0
 70
    40
  0
VERTEX
  5
56B
100
AcDbEntity
  8
0
390
0
100
AcDbVertex
100
AcDb3dPolylineVertex
 10
141.641968
 20
50.037014
 30
0.0
 70
    40
  0
VERTEX
  5
56C
100
AcDbEntity
  8
0
390
0
100
AcDbVertex
100
AcDb3dPolylineVertex
 10
141.640137
 20
50.020653
 30
0.0
 70
    40
  0
VERTEX
  5
56D
100
AcDbEntity
  8
0
390
0
100
AcDbVertex
100
AcDb3dPolylineVertex
 10
141.637756
 20
50.004375
 30
0.0
 70
    40
  0
VERTEX
  5
56E
100
AcDbEntity
  8
0
390
0
100
AcDbVertex
100
AcDb3dPolylineVertex
 10
141.634842
 20
49.988224
 30
0.0
 70
    40
  0
VERTEX
  5
56F
100
AcDbEntity
  8
0
390
0
100
AcDbVertex
100
AcDb3dPolylineVertex
 10
141.644363
 20
50.053532
 30
0.0
 70
    48
  0
VERTEX
  5
570
100
AcDbEntity
  8
0
390
0
100
AcDbVertex
100
AcDb3dPolylineVertex
 10
141.64119
 20
50.020374
 30
0.0
 70
    48
  0
VERTEX
  5
571
100
AcDbEntity
  8
0
390
0
100
AcDbVertex
100
AcDb3dPolylineVertex
 10
141.634842
 20
49.988224
 30
0.0
 70
    48
  0
VERTEX
  5
572
100
AcDbEntity
  8
0
390
0
100
AcDbVertex
100
AcDb3dPolylineVertex
 10
141.631409
 20
49.972225
 30
0.0
 70
    40
  0
VERTEX
  5
573
100
AcDbEntity
  8
0
390
0
100
AcDbVertex
100
AcDb3dPolylineVertex
 10
141.627472
 20
49.956383
 30
0.0
 70
    40
  0
VERTEX
  5
574
100
AcDbEntity
  8
0
390
0
100
AcDbVertex
100
AcDb3dPolylineVertex
 10
141.623032
 20
49.940693
 30
0.0
 70
    40
  0
VERTEX
  5
575
100
AcDbEntity
  8
0
390
0
100
AcDbVertex
100
AcDb3dPolylineVertex
 10
141.618073
 20
49.925152
 30
0.0
 70
    40
  0
VERTEX
  5
576
100
AcDbEntity
  8
0
390
0
100
AcDbVertex
100
AcDb3dPolylineVertex
 10
141.612595
 20
49.90976
 30
0.0
 70
    40
  0
VERTEX
  5
577
100
AcDbEntity
  8
0
390
0
100
AcDbVertex
100
AcDb3dPolylineVertex
 10
141.606613
 20
49.89452
 30
0.0
 70
    40
  0
VERTEX
  5
578
100
AcDbEntity
  8
0
390
0
100
AcDbVertex
100
AcDb3dPolylineVertex
 10
141.628494
 20
49.956074
 30
0.0
 70
    48
  0
VERTEX
  5
579
100
AcDbEntity
  8
0
390
0
100
AcDbVertex
100
AcDb3dPolylineVertex
 10
141.619095
 20
49.924854
 30
0.0
 70
    48
  0
VERTEX
  5
57A
100
AcDbEntity
  8
0
390
0
100
AcDbVertex
100
AcDb3dPolylineVertex
 10
141.606613
 20
49.89452
 30
0.0
 70
    48
  0
VERTEX
  5
57B
100
AcDbEntity
  8
0
390
0
100
AcDbVertex
100
AcDb3dPolylineVertex
 10
141.600113
 20
49.879452
 30
0.0
 70
    40
  0
VERTEX
  5
57C
100
AcDbEntity
  8
0
390
0
100
AcDbVertex
100
AcDb3dPolylineVertex
 10
141.593094
 20
49.864571
 30
0.0
 70
    40
  0
VERTEX
  5
57D
100
AcDbEntity
  8
0
390
0
100
AcDbVertex
100
AcDb3dPolylineVertex
 10
141.585587
 20
49.849915
 30
0.0
 70
    40
  0
VERTEX
  5
57E
100
AcDbEntity
  8
0
390
0
100
AcDbVertex
100
AcDb3dPolylineVertex
 10
141.577606
 20
49.835518
 30
0.0
 70
    40
  0
VERTEX
  5
57F
100
AcDbEntity
  8
0
390
0
100
AcDbVertex
100
AcDb3dPolylineVertex
 10
141.569199
 20
49.821419
 30
0.0
 70
    40
  0
VERTEX
  5
580
100
AcDbEntity
  8
0
390
0
100
AcDbVertex
100
AcDb3dPolylineVertex
 10
141.560349
 20
49.807652
 30
0.0
 70
    40
  0
VERTEX
  5
581
100
AcDbEntity
  8
0
390
0
100
AcDbVertex
100
AcDb3dPolylineVertex
 10
141.594131
 20
49.864216
 30
0.0
 70
    48
  0
VERTEX
  5
582
100
AcDbEntity
  8
0
390
0
100
AcDbVertex
100
AcDb3dPolylineVertex
 10
141.578445
 20
49.834827
 30
0.0
 70
    48
  0
VERTEX
  5
583
100
AcDbEntity
  8
0
390
0
100
AcDbVertex
100
AcDb3dPolylineVertex
 10
141.560349
 20
49.807652
 30
0.0
 70
    48
  0
VERTEX
  5
584
100
AcDbEntity
  8
0
390
0
100
AcDbVertex
100
AcDb3dPolylineVertex
 10
141.551071
 20
49.79422
 30
0.0
 70
    40
  0
VERTEX
  5
585
100
AcDbEntity
  8
0
390
0
100
AcDbVertex
100
AcDb3dPolylineVertex
 10
141.541367
 20
49.781101
 30
0.0
 70
    40
  0
VERTEX
  5
586
100
AcDbEntity
  8
0
390
0
100
AcDbVertex
100
AcDb3dPolylineVertex
 10
141.531235
 20
49.768303
 30
0.0
 70
    40
  0
VERTEX
  5
587
100
AcDbEntity
  8
0
390
0
100
AcDbVertex
100
AcDb3dPolylineVertex
 10
141.520676
 20
49.755817
 30
0.0
 70
    40
  0
VERTEX
  5
588
100
AcDbEntity
  8
0
390
0
100
AcDbVertex
100
AcDb3dPolylineVertex
 10
141.509659
 20
49.743649
 30
0.0
 70
    40
  0
VERTEX
  5
589
100
AcDbEntity
  8
0
390
0
100
AcDbVertex
100
AcDb3dPolylineVertex
 10
141.498215
 20
49.7318
 30
0.0
 70
    40
  0
VERTEX
  5
58A
100
AcDbEntity
  8
0
390
0
100
AcDbVertex
100
AcDb3dPolylineVertex
 10
141.542221
 20
49.780476
 30
0.0
 70
    48
  0
VERTEX
  5
58B
100
AcDbEntity
  8
0
390
0
100
AcDbVertex
100
AcDb3dPolylineVertex
 10
141.521561
 20
49.755177
 30
0.0
 70
    48
  0
VERTEX
  5
58C
100
AcDbEntity
  8
0
390
0
100
AcDbVertex
100
AcDb3dPolylineVertex
 10
141.498215
 20
49.7318
 30
0.0
 70
    48
  0
VERTEX
  5
58D
100
AcDbEntity
  8
0
390
0
100
AcDbVertex
100
AcDb3dPolylineVertex
 10
141.486389
 20
49.720325
 30
0.0
 70
    40
  0
VERTEX
  5
58E
100
AcDbEntity
  8
0
390
0
100
AcDbVertex
100
AcDb3dPolylineVertex
 10
141.474228
 20
49.709282
 30
0.0
 70
    40
  0
VERTEX
  5
58F
100
AcDbEntity
  8
0
390
0
100
AcDbVertex
100
AcDb3dPolylineVertex
 10
141.461731
 20
49.698669
 30
0.0
 70
    40
  0
VERTEX
  5
590
100
AcDbEntity
  8
0
390
0
100
AcDbVertex
100
AcDb3dPolylineVertex
 10
141.448929
 20
49.688496
 30
0.0
 70
    40
  0
VERTEX
  5
591
100
AcDbEntity
  8
0
390
0
100
AcDbVertex
100
AcDb3dPolylineVertex
 10
141.435822
 20
49.678761
 30
0.0
 70
    40
  0
VERTEX
  5
592
100
AcDbEntity
  8
0
390
0
100
AcDbVertex
100
AcDb3dPolylineVertex
 10
141.422409
 20
49.669468
 30
0.0
 70
    40
  0
VERTEX
  5
593
100
AcDbEntity
  8
0
390
0
100
AcDbVertex
100
AcDb3dPolylineVertex
 10
141.474899
 20
49.708424
 30
0.0
 70
    48
  0
VERTEX
  5
594
100
AcDbEntity
  8
0
390
0
100
AcDbVertex
100
AcDb3dPolylineVertex
 10
141.449509
 20
49.687611
 30
0.0
 70
    48
  0
VERTEX
  5
595
100
AcDbEntity
  8
0
390
0
100
AcDbVertex
100
AcDb3dPolylineVertex
 10
141.422409
 20
49.669468
 30
0.0
 70
    48
  0
VERTEX
  5
596
100
AcDbEntity
  8
0
390
0
100
AcDbVertex
100
AcDb3dPolylineVertex
 10
141.408691
 20
49.660606
 30
0.0
 70
    40
  0
VERTEX
  5
597
100
AcDbEntity
  8
0
390
0
100
AcDbVertex
100
AcDb3dPolylineVertex
 10
141.394653
 20
49.652176
 30
0.0
 70
    40
  0
VERTEX
  5
598
100
AcDbEntity
  8
0
390
0
100
AcDbVertex
100
AcDb3dPolylineVertex
 10
141.38031
 20
49.644196
 30
0.0
 70
    40
  0
VERTEX
  5
599
100
AcDbEntity
  8
0
390
0
100
AcDbVertex
100
AcDb3dPolylineVertex
 10
141.365707
 20
49.636677
 30
0.0
 70
    40
  0
VERTEX
  5
59A
100
AcDbEntity
  8
0
390
0
100
AcDbVertex
100
AcDb3dPolylineVertex
 10
141.350861
 20
49.629639
 30
0.0
 70
    40
  0
VERTEX
  5
59B
100
AcDbEntity
  8
0
390
0
100
AcDbVertex
100
AcDb3dPolylineVertex
 10
141.3358
 20
49.623096
 30
0.0
 70
    40
  0
VERTEX
  5
59C
100
AcDbEntity
  8
0
390
0
100
AcDbVertex
100
AcDb3dPolylineVertex
 10
141.39534
 20
49.651325
 30
0.0
 70
    48
  0
VERTEX
  5
59D
100
AcDbEntity
  8
0
390
0
100
AcDbVertex
100
AcDb3dPolylineVertex
 10
141.366104
 20
49.63567
 30
0.0
 70
    48
  0
VERTEX
  5
59E
100
AcDbEntity
  8
0
390
0
100
AcDbVertex
100
AcDb3dPolylineVertex
 10
141.3358
 20
49.623096
 30
0.0
 70
    48
  0
VERTEX
  5
59F
100
AcDbEntity
  8
0
390
0
100
AcDbVertex
100
AcDb3dPolylineVertex
 10
141.320572
 20
49.617069
 30
0.0
 70
    40
  0
VERTEX
  5
5A0
100
AcDbEntity
  8
0
390
0
100
AcDbVertex
100
AcDb3dPolylineVertex
 10
141.305206
 20
49.611561
 30
0.0
 70
    40
  0
VERTEX
  5
5A1
100
AcDbEntity
  8
0
390
0
100
AcDbVertex
100
AcDb3dPolylineVertex
 10
141.289688
 20
49.606567
 30
0.0
 70
    40
  0
VERTEX
  5
5A2
100
AcDbEntity
  8
0
390
0
100
AcDbVertex
100
AcDb3dPolylineVertex
 10
141.274033
 20
49.602085
 30
0.0
 70
    40
  0
VERTEX
  5
5A3
100
AcDbEntity
  8
0
390
0
100
AcDbVertex
100
AcDb3dPolylineVertex
 10
141.258255
 20
49.598122
 30
0.0
 70
    40
  0
VERTEX
  5
5A4
100
AcDbEntity
  8
0
390
0
100
AcDbVertex
100
AcDb3dPolylineVertex
 10
141.242325
 20
49.594669
 30
0.0
 70
    40
  0
VERTEX
  5
5A5
100
AcDbEntity
  8
0
390
0
100
AcDbVertex
100
AcDb3dPolylineVertex
 10
141.305496
 20
49.610523
 30
0.0
 70
    48
  0
VERTEX
  5
5A6
100
AcDbEntity
  8
0
390
0
100
AcDbVertex
100
AcDb3dPolylineVertex
 10
141.274307
 20
49.601063
 30
0.0
 70
    48
  0
VERTEX
  5
5A7
100
AcDbEntity
  8
0
390
0
100
AcDbVertex
100
AcDb3dPolylineVertex
 10
141.242325
 20
49.594669
 30
0.0
 70
    48
  0
VERTEX
  5
5A8
100
AcDbEntity
  8
0
390
0
100
AcDbVertex
100
AcDb3dPolylineVertex
 10
141.226242
 20
49.591732
 30
0.0
 70
    40
  0
VERTEX
  5
5A9
100
AcDbEntity
  8
0
390
0
100
AcDbVertex
100
AcDb3dPolylineVertex
 10
141.210022
 20
49.589317
 30
0.0
 70
    40
  0
VERTEX
  5
5AA
100
AcDbEntity
  8
0
390
0
100
AcDbVertex
100
AcDb3dPolylineVertex
 10
141.19368
 20
49.587425
 30
0.0
 70
    40
  0
VERTEX
  5
5AB
100
AcDbEntity
  8
0
390
0
100
AcDbVertex
100
AcDb3dPolylineVertex
 10
141.177261
 20
49.586071
 30
0.0
 70
    40
  0
VERTEX
  5
5AC
100
AcDbEntity
  8
0
390
0
100
AcDbVertex
100
AcDb3dPolylineVertex
 10
141.160797
 20
49.585255
 30
0.0
 70
    40
  0
VERTEX
  5
5AD
100
AcDbEntity
  8
0
390
0
100
AcDbVertex
100
AcDb3dPolylineVertex
 10
141.144302
 20
49.58498
 30
0.0
 70
    40
  0
VERTEX
  5
5AE
100
AcDbEntity
  8
0
390
0
100
AcDbVertex
100
AcDb3dPolylineVertex
 10
141.210312
 20
49.588276
 30
0.0
 70
    48
  0
VERTEX
  5
5AF
100
AcDbEntity
  8
0
390
0
100
AcDbVertex
100
AcDb3dPolylineVertex
 10
141.177292
 20
49.58498
 30
0.0
 70
    48
  0
VERTEX
  5
5B0
100
AcDbEntity
  8
0
390
0
100
AcDbVertex
100
AcDb3dPolylineVertex
 10
141.144302
 20
49.58498
 30
0.0
 70
    48
  0
SEQEND
  5
5B1
100
AcDbEntity
  8
0
390
0
  0
LINE
  5
5B2
100
AcDbEntity
  8
ARMATUR
390
0
  6
DURCHGEHEND
 62
     1
100
AcDbLine
 10
134.370041
 20
50.58498
 30
0.0
 11
141.144302
 21
50.58498
 31
0.0
  0
POLYLINE
  5
5B3
100
AcDbEntity
  8
ARMATUR
390
0
  6
DURCHGEHEND
 62
     1
100
AcDb3dPolyline
 66
     1
 10
0.0
 20
0.0
 30
0.0
 70
    12
 75
     5
  0
VERTEX
  5
5B4
100
AcDbEntity
  8
0
390
0
100
AcDbVertex
100
AcDb3dPolylineVertex
 10
139.785294
 20
48.83498
 30
0.0
 70
    48
  0
VERTEX
  5
5B5
100
AcDbEntity
  8
0
390
0
100
AcDbVertex
100
AcDb3dPolylineVertex
 10
139.785294
 20
48.83498
 30
0.0
 70
    40
  0
VERTEX
  5
5B6
100
AcDbEntity
  8
0
390
0
100
AcDbVertex
100
AcDb3dPolylineVertex
 10
139.805725
 20
48.834431
 30
0.0
 70
    40
  0
VERTEX
  5
5B7
100
AcDbEntity
  8
0
390
0
100
AcDbVertex
100
AcDb3dPolylineVertex
 10
139.825958
 20
48.83279
 30
0.0
 70
    40
  0
VERTEX
  5
5B8
100
AcDbEntity
  8
0
390
0
100
AcDbVertex
100
AcDb3dPolylineVertex
 10
139.846008
 20
48.830055
 30
0.0
 70
    40
  0
VERTEX
  5
5B9
100
AcDbEntity
  8
0
390
0
100
AcDbVertex
100
AcDb3dPolylineVertex
 10
139.865875
 20
48.826233
 30
0.0
 70
    40
  0
VERTEX
  5
5BA
100
AcDbEntity
  8
0
390
0
100
AcDbVertex
100
AcDb3dPolylineVertex
 10
139.885559
 20
48.821323
 30
0.0
 70
    40
  0
VERTEX
  5
5BB
100
AcDbEntity
  8
0
390
0
100
AcDbVertex
100
AcDb3dPolylineVertex
 10
139.905045
 20
48.815327
 30
0.0
 70
    40
  0
VERTEX
  5
5BC
100
AcDbEntity
  8
0
390
0
100
AcDbVertex
100
AcDb3dPolylineVertex
 10
139.82634
 20
48.83498
 30
0.0
 70
    48
  0
VERTEX
  5
5BD
100
AcDbEntity
  8
0
390
0
100
AcDbVertex
100
AcDb3dPolylineVertex
 10
139.866257
 20
48.828403
 30
0.0
 70
    48
  0
VERTEX
  5
5BE
100
AcDbEntity
  8
0
390
0
100
AcDbVertex
100
AcDb3dPolylineVertex
 10
139.905045
 20
48.815327
 30
0.0
 70
    48
  0
VERTEX
  5
5BF
100
AcDbEntity
  8
0
390
0
100
AcDbVertex
100
AcDb3dPolylineVertex
 10
139.924194
 20
48.8083
 30
0.0
 70
    40
  0
VERTEX
  5
5C0
100
AcDbEntity
  8
0
390
0
100
AcDbVertex
100
AcDb3dPolylineVertex
 10
139.942825
 20
48.800293
 30
0.0
 70
    40
  0
VERTEX
  5
5C1
100
AcDbEntity
  8
0
390
0
100
AcDbVertex
100
AcDb3dPolylineVertex
 10
139.960953
 20
48.791306
 30
0.0
 70
    40
  0
VERTEX
  5
5C2
100
AcDbEntity
  8
0
390
0
100
AcDbVertex
100
AcDb3dPolylineVertex
 10
139.978561
 20
48.781349
 30
0.0
 70
    40
  0
VERTEX
  5
5C3
100
AcDbEntity
  8
0
390
0
100
AcDbVertex
100
AcDb3dPolylineVertex
 10
139.995621
 20
48.770435
 30
0.0
 70
    40
  0
VERTEX
  5
5C4
100
AcDbEntity
  8
0
390
0
100
AcDbVertex
100
AcDb3dPolylineVertex
 10
140.012131
 20
48.758564
 30
0.0
 70
    40
  0
VERTEX
  5
5C5
100
AcDbEntity
  8
0
390
0
100
AcDbVertex
100
AcDb3dPolylineVertex
 10
139.943832
 20
48.802265
 30
0.0
 70
    48
  0
VERTEX
  5
5C6
100
AcDbEntity
  8
0
390
0
100
AcDbVertex
100
AcDb3dPolylineVertex
 10
139.97966
 20
48.783253
 30
0.0
 70
    48
  0
VERTEX
  5
5C7
100
AcDbEntity
  8
0
390
0
100
AcDbVertex
100
AcDb3dPolylineVertex
 10
140.012131
 20
48.758564
 30
0.0
 70
    48
  0
VERTEX
  5
5C8
100
AcDbEntity
  8
0
390
0
100
AcDbVertex
100
AcDb3dPolylineVertex
 10
140.043121
 20
48.732224
 30
0.0
 70
    40
  0
VERTEX
  5
5C9
100
AcDbEntity
  8
0
390
0
100
AcDbVertex
100
AcDb3dPolylineVertex
 10
140.070969
 20
48.702774
 30
0.0
 70
    40
  0
VERTEX
  5
5CA
100
AcDbEntity
  8
0
390
0
100
AcDbVertex
100
AcDb3dPolylineVertex
 10
140.095459
 20
48.670567
 30
0.0
 70
    40
  0
VERTEX
  5
5CB
100
AcDbEntity
  8
0
390
0
100
AcDbVertex
100
AcDb3dPolylineVertex
 10
140.116348
 20
48.635948
 30
0.0
 70
    40
  0
VERTEX
  5
5CC
100
AcDbEntity
  8
0
390
0
100
AcDbVertex
100
AcDb3dPolylineVertex
 10
140.133438
 20
48.599266
 30
0.0
 70
    40
  0
VERTEX
  5
5CD
100
AcDbEntity
  8
0
390
0
100
AcDbVertex
100
AcDb3dPolylineVertex
 10
140.146469
 20
48.560871
 30
0.0
 70
    40
  0
VERTEX
  5
5CE
100
AcDbEntity
  8
0
390
0
100
AcDbVertex
100
AcDb3dPolylineVertex
 10
140.077103
 20
48.709217
 30
0.0
 70
    48
  0
VERTEX
  5
5CF
100
AcDbEntity
  8
0
390
0
100
AcDbVertex
100
AcDb3dPolylineVertex
 10
140.124588
 20
48.639149
 30
0.0
 70
    48
  0
VERTEX
  5
5D0
100
AcDbEntity
  8
0
390
0
100
AcDbVertex
100
AcDb3dPolylineVertex
 10
140.146469
 20
48.560871
 30
0.0
 70
    48
  0
VERTEX
  5
5D1
100
AcDbEntity
  8
0
390
0
100
AcDbVertex
100
AcDb3dPolylineVertex
 10
140.155212
 20
48.521233
 30
0.0
 70
    40
  0
VERTEX
  5
5D2
100
AcDbEntity
  8
0
390
0
100
AcDbVertex
100
AcDb3dPolylineVertex
 10
140.159576
 20
48.480904
 30
0.0
 70
    40
  0
VERTEX
  5
5D3
100
AcDbEntity
  8
0
390
0
100
AcDbVertex
100
AcDb3dPolylineVertex
 10
140.159622
 20
48.440342
 30
0.0
 70
    40
  0
VERTEX
  5
5D4
100
AcDbEntity
  8
0
390
0
100
AcDbVertex
100
AcDb3dPolylineVertex
 10
140.155334
 20
48.400013
 30
0.0
 70
    40
  0
VERTEX
  5
5D5
100
AcDbEntity
  8
0
390
0
100
AcDbVertex
100
AcDb3dPolylineVertex
 10
140.146774
 20
48.360374
 30
0.0
 70
    40
  0
VERTEX
  5
5D6
100
AcDbEntity
  8
0
390
0
100
AcDbVertex
100
AcDb3dPolylineVertex
 10
140.133926
 20
48.321888
 30
0.0
 70
    40
  0
VERTEX
  5
5D7
100
AcDbEntity
  8
0
390
0
100
AcDbVertex
100
AcDb3dPolylineVertex
 10
140.16832
 20
48.482594
 30
0.0
 70
    48
  0
VERTEX
  5
5D8
100
AcDbEntity
  8
0
390
0
100
AcDbVertex
100
AcDb3dPolylineVertex
 10
140.163864
 20
48.397404
 30
0.0
 70
    48
  0
VERTEX
  5
5D9
100
AcDbEntity
  8
0
390
0
100
AcDbVertex
100
AcDb3dPolylineVertex
 10
140.133926
 20
48.321888
 30
0.0
 70
    48
  0
VERTEX
  5
5DA
100
AcDbEntity
  8
0
390
0
100
AcDbVertex
100
AcDb3dPolylineVertex
 10
140.125931
 20
48.303204
 30
0.0
 70
    40
  0
VERTEX
  5
5DB
100
AcDbEntity
  8
0
390
0
100
AcDbVertex
100
AcDb3dPolylineVertex
 10
140.116928
 20
48.284962
 30
0.0
 70
    40
  0
VERTEX
  5
5DC
100
AcDbEntity
  8
0
390
0
100
AcDbVertex
100
AcDb3dPolylineVertex
 10
140.106934
 20
48.267231
 30
0.0
 70
    40
  0
VERTEX
  5
5DD
100
AcDbEntity
  8
0
390
0
100
AcDbVertex
100
AcDb3dPolylineVertex
 10
140.096024
 20
48.250065
 30
0.0
 70
    40
  0
VERTEX
  5
5DE
100
AcDbEntity
  8
0
390
0
100
AcDbVertex
100
AcDb3dPolylineVertex
 10
140.084183
 20
48.233517
 30
0.0
 70
    40
  0
VERTEX
  5
5DF
100
AcDbEntity
  8
0
390
0
100
AcDbVertex
100
AcDb3dPolylineVertex
 10
140.071487
 20
48.217655
 30
0.0
 70
    40
  0
VERTEX
  5
5E0
100
AcDbEntity
  8
0
390
0
100
AcDbVertex
100
AcDb3dPolylineVertex
 10
140.118973
 20
48.284107
 30
0.0
 70
    48
  0
VERTEX
  5
5E1
100
AcDbEntity
  8
0
390
0
100
AcDbVertex
100
AcDb3dPolylineVertex
 10
140.097733
 20
48.248661
 30
0.0
 70
    48
  0
VERTEX
  5
5E2
100
AcDbEntity
  8
0
390
0
100
AcDbVertex
100
AcDb3dPolylineVertex
 10
140.071487
 20
48.217655
 30
0.0
 70
    48
  0
VERTEX
  5
5E3
100
AcDbEntity
  8
0
390
0
100
AcDbVertex
100
AcDb3dPolylineVertex
 10
140.057922
 20
48.202499
 30
0.0
 70
    40
  0
VERTEX
  5
5E4
100
AcDbEntity
  8
0
390
0
100
AcDbVertex
100
AcDb3dPolylineVertex
 10
140.043533
 20
48.188068
 30
0.0
 70
    40
  0
VERTEX
  5
5E5
100
AcDbEntity
  8
0
390
0
100
AcDbVertex
100
AcDb3dPolylineVertex
 10
140.028336
 20
48.174412
 30
0.0
 70
    40
  0
VERTEX
  5
5E6
100
AcDbEntity
  8
0
390
0
100
AcDbVertex
100
AcDb3dPolylineVertex
 10
140.01239
 20
48.161572
 30
0.0
 70
    40
  0
VERTEX
  5
5E7
100
AcDbEntity
  8
0
390
0
100
AcDbVertex
100
AcDb3dPolylineVertex
 10
139.995743
 20
48.149601
 30
0.0
 70
    40
  0
VERTEX
  5
5E8
100
AcDbEntity
  8
0
390
0
100
AcDbVertex
100
AcDb3dPolylineVertex
 10
139.978439
 20
48.138538
 30
0.0
 70
    40
  0
VERTEX
  5
5E9
100
AcDbEntity
  8
0
390
0
100
AcDbVertex
100
AcDb3dPolylineVertex
 10
140.045242
 20
48.186649
 30
0.0
 70
    48
  0
VERTEX
  5
5EA
100
AcDbEntity
  8
0
390
0
100
AcDbVertex
100
AcDb3dPolylineVertex
 10
140.013687
 20
48.159718
 30
0.0
 70
    48
  0
VERTEX
  5
5EB
100
AcDbEntity
  8
0
390
0
100
AcDbVertex
100
AcDb3dPolylineVertex
 10
139.978439
 20
48.138538
 30
0.0
 70
    48
  0
SEQEND
  5
5EC
100
AcDbEntity
  8
0
390
0
  0
LINE
  5
5ED
100
AcDbEntity
  8
ARMATUR
390
0
  6
DURCHGEHEND
 62
     1
100
AcDbLine
 10
135.72905
 20
48.83498
 30
0.0
 11
139.785294
 21
48.83498
 31
0.0
  0
POLYLINE
  5
5EE
100
AcDbEntity
  8
ARMATUR
390
0
  6
DURCHGEHEND
 62
     1
100
AcDb3dPolyline
 66
     1
 10
0.0
 20
0.0
 30
0.0
 70
    12
 75
     5
  0
VERTEX
  5
5EF
100
AcDbEntity
  8
0
390
0
100
AcDbVertex
100
AcDb3dPolylineVertex
 10
135.535904
 20
48.138538
 30
0.0
 70
    48
  0
VERTEX
  5
5F0
100
AcDbEntity
  8
0
390
0
100
AcDbVertex
100
AcDb3dPolylineVertex
 10
135.535904
 20
48.138538
 30
0.0
 70
    40
  0
VERTEX
  5
5F1
100
AcDbEntity
  8
0
390
0
100
AcDbVertex
100
AcDb3dPolylineVertex
 10
135.518646
 20
48.149551
 30
0.0
 70
    40
  0
VERTEX
  5
5F2
100
AcDbEntity
  8
0
390
0
100
AcDbVertex
100
AcDb3dPolylineVertex
 10
135.502106
 20
48.161404
 30
0.0
 70
    40
  0
VERTEX
  5
5F3
100
AcDbEntity
  8
0
390
0
100
AcDbVertex
100
AcDb3dPolylineVertex
 10
135.486298
 20
48.174099
 30
0.0
 70
    40
  0
VERTEX
  5
5F4
100
AcDbEntity
  8
0
390
0
100
AcDbVertex
100
AcDb3dPolylineVertex
 10
135.471222
 20
48.187634
 30
0.0
 70
    40
  0
VERTEX
  5
5F5
100
AcDbEntity
  8
0
390
0
100
AcDbVertex
100
AcDb3dPolylineVertex
 10
135.456863
 20
48.202003
 30
0.0
 70
    40
  0
VERTEX
  5
5F6
100
AcDbEntity
  8
0
390
0
100
AcDbVertex
100
AcDb3dPolylineVertex
 10
135.443222
 20
48.217213
 30
0.0
 70
    40
  0
VERTEX
  5
5F7
100
AcDbEntity
  8
0
390
0
100
AcDbVertex
100
AcDb3dPolylineVertex
 10
135.500656
 20
48.159718
 30
0.0
 70
    48
  0
VERTEX
  5
5F8
100
AcDbEntity
  8
0
390
0
100
AcDbVertex
100
AcDb3dPolylineVertex
 10
135.469772
 20
48.185963
 30
0.0
 70
    48
  0
VERTEX
  5
5F9
100
AcDbEntity
  8
0
390
0
100
AcDbVertex
100
AcDb3dPolylineVertex
 10
135.443222
 20
48.217213
 30
0.0
 70
    48
  0
VERTEX
  5
5FA
100
AcDbEntity
  8
0
390
0
100
AcDbVertex
100
AcDb3dPolylineVertex
 10
135.43042
 20
48.233147
 30
0.0
 70
    40
  0
VERTEX
  5
5FB
100
AcDbEntity
  8
0
390
0
100
AcDbVertex
100
AcDb3dPolylineVertex
 10
135.418549
 20
48.24966
 30
0.0
 70
    40
  0
VERTEX
  5
5FC
100
AcDbEntity
  8
0
390
0
100
AcDbVertex
100
AcDb3dPolylineVertex
 10
135.407639
 20
48.266747
 30
0.0
 70
    40
  0
VERTEX
  5
5FD
100
AcDbEntity
  8
0
390
0
100
AcDbVertex
100
AcDb3dPolylineVertex
 10
135.397675
 20
48.284389
 30
0.0
 70
    40
  0
VERTEX
  5
5FE
100
AcDbEntity
  8
0
390
0
100
AcDbVertex
100
AcDb3dPolylineVertex
 10
135.388672
 20
48.302586
 30
0.0
 70
    40
  0
VERTEX
  5
5FF
100
AcDbEntity
  8
0
390
0
100
AcDbVertex
100
AcDb3dPolylineVertex
 10
135.38063
 20
48.321323
 30
0.0
 70
    40
  0
VERTEX
  5
600
100
AcDbEntity
  8
0
390
0
100
AcDbVertex
100
AcDb3dPolylineVertex
 10
135.416672
 20
48.248493
 30
0.0
 70
    48
  0
VERTEX
  5
601
100
AcDbEntity
  8
0
390
0
100
AcDbVertex
100
AcDb3dPolylineVertex
 10
135.395737
 20
48.283314
 30
0.0
 70
    48
  0
VERTEX
  5
602
100
AcDbEntity
  8
0
390
0
100
AcDbVertex
100
AcDb3dPolylineVertex
 10
135.38063
 20
48.321323
 30
0.0
 70
    48
  0
VERTEX
  5
603
100
AcDbEntity
  8
0
390
0
100
AcDbVertex
100
AcDb3dPolylineVertex
 10
135.367645
 20
48.359978
 30
0.0
 70
    40
  0
VERTEX
  5
604
100
AcDbEntity
  8
0
390
0
100
AcDbVertex
100
AcDb3dPolylineVertex
 10
135.358994
 20
48.399647
 30
0.0
 70
    40
  0
VERTEX
  5
605
100
AcDbEntity
  8
0
390
0
100
AcDbVertex
100
AcDb3dPolylineVertex
 10
135.354645
 20
48.439919
 30
0.0
 70
    40
  0
VERTEX
  5
606
100
AcDbEntity
  8
0
390
0
100
AcDbVertex
100
AcDb3dPolylineVertex
 10
135.35466
 20
48.480392
 30
0.0
 70
    40
  0
VERTEX
  5
607
100
AcDbEntity
  8
0
390
0
100
AcDbVertex
100
AcDb3dPolylineVertex
 10
135.359009
 20
48.520653
 30
0.0
 70
    40
  0
VERTEX
  5
608
100
AcDbEntity
  8
0
390
0
100
AcDbVertex
100
AcDb3dPolylineVertex
 10
135.367722
 20
48.560291
 30
0.0
 70
    40
  0
VERTEX
  5
609
100
AcDbEntity
  8
0
390
0
100
AcDbVertex
100
AcDb3dPolylineVertex
 10
135.350357
 20
48.397343
 30
0.0
 70
    48
  0
VERTEX
  5
60A
100
AcDbEntity
  8
0
390
0
100
AcDbVertex
100
AcDb3dPolylineVertex
 10
135.345932
 20
48.481907
 30
0.0
 70
    48
  0
VERTEX
  5
60B
100
AcDbEntity
  8
0
390
0
100
AcDbVertex
100
AcDb3dPolylineVertex
 10
135.367722
 20
48.560291
 30
0.0
 70
    48
  0
VERTEX
  5
60C
100
AcDbEntity
  8
0
390
0
100
AcDbVertex
100
AcDb3dPolylineVertex
 10
135.380722
 20
48.598755
 30
0.0
 70
    40
  0
VERTEX
  5
60D
100
AcDbEntity
  8
0
390
0
100
AcDbVertex
100
AcDb3dPolylineVertex
 10
135.397797
 20
48.635513
 30
0.0
 70
    40
  0
VERTEX
  5
60E
100
AcDbEntity
  8
0
390
0
100
AcDbVertex
100
AcDb3dPolylineVertex
 10
135.418686
 20
48.670204
 30
0.0
 70
    40
  0
VERTEX
  5
60F
100
AcDbEntity
  8
0
390
0
100
AcDbVertex
100
AcDb3dPolylineVertex
 10
135.443146
 20
48.702461
 30
0.0
 70
    40
  0
VERTEX
  5
610
100
AcDbEntity
  8
0
390
0
100
AcDbVertex
100
AcDb3dPolylineVertex
 10
135.470901
 20
48.731918
 30
0.0
 70
    40
  0
VERTEX
  5
611
100
AcDbEntity
  8
0
390
0
100
AcDbVertex
100
AcDb3dPolylineVertex
 10
135.501724
 20
48.758213
 30
0.0
 70
    40
  0
VERTEX
  5
612
100
AcDbEntity
  8
0
390
0
100
AcDbVertex
100
AcDb3dPolylineVertex
 10
135.389481
 20
48.638676
 30
0.0
 70
    48
  0
VERTEX
  5
613
100
AcDbEntity
  8
0
390
0
100
AcDbVertex
100
AcDb3dPolylineVertex
 10
135.43721
 20
48.709034
 30
0.0
 70
    48
  0
VERTEX
  5
614
100
AcDbEntity
  8
0
390
0
100
AcDbVertex
100
AcDb3dPolylineVertex
 10
135.501724
 20
48.758213
 30
0.0
 70
    48
  0
VERTEX
  5
615
100
AcDbEntity
  8
0
390
0
100
AcDbVertex
100
AcDb3dPolylineVertex
 10
135.535263
 20
48.780975
 30
0.0
 70
    40
  0
VERTEX
  5
616
100
AcDbEntity
  8
0
390
0
100
AcDbVertex
100
AcDb3dPolylineVertex
 10
135.571091
 20
48.799973
 30
0.0
 70
    40
  0
VERTEX
  5
617
100
AcDbEntity
  8
0
390
0
100
AcDbVertex
100
AcDb3dPolylineVertex
 10
135.60878
 20
48.815041
 30
0.0
 70
    40
  0
VERTEX
  5
618
100
AcDbEntity
  8
0
390
0
100
AcDbVertex
100
AcDb3dPolylineVertex
 10
135.647949
 20
48.826008
 30
0.0
 70
    40
  0
VERTEX
  5
619
100
AcDbEntity
  8
0
390
0
100
AcDbVertex
100
AcDb3dPolylineVertex
 10
135.688171
 20
48.83271
 30
0.0
 70
    40
  0
VERTEX
  5
61A
100
AcDbEntity
  8
0
390
0
100
AcDbVertex
100
AcDb3dPolylineVertex
 10
135.72905
 20
48.83498
 30
0.0
 70
    40
  0
VERTEX
  5
61B
100
AcDbEntity
  8
0
390
0
100
AcDbVertex
100
AcDb3dPolylineVertex
 10
135.566238
 20
48.807392
 30
0.0
 70
    48
  0
VERTEX
  5
61C
100
AcDbEntity
  8
0
390
0
100
AcDbVertex
100
AcDb3dPolylineVertex
 10
135.646927
 20
48.83498
 30
0.0
 70
    48
  0
VERTEX
  5
61D
100
AcDbEntity
  8
0
390
0
100
AcDbVertex
100
AcDb3dPolylineVertex
 10
135.72905
 20
48.83498
 30
0.0
 70
    48
  0
SEQEND
  5
61E
100
AcDbEntity
  8
0
390
0
  0
ARC
  5
61F
100
AcDbEntity
  8
ARMATUR
390
0
  6
DURCHGEHEND
 62
     1
100
AcDbCircle
 10
137.757156
 20
51.83498
 30
0.0
 40
4.3125
100
AcDbArc
 50
238.998001
 51
301.002991
  0
POLYLINE
  5
620
100
AcDbEntity
  8
ARMATUR
390
0
  6
DURCHGEHEND
 62
     1
100
AcDb3dPolyline
 66
     1
 10
0.0
 20
0.0
 30
0.0
 70
    12
 75
     5
  0
VERTEX
  5
621
100
AcDbEntity
  8
0
390
0
100
AcDbVertex
100
AcDb3dPolylineVertex
 10
139.978439
 20
55.531391
 30
0.0
 70
    48
  0
VERTEX
  5
622
100
AcDbEntity
  8
0
390
0
100
AcDbVertex
100
AcDb3dPolylineVertex
 10
139.978439
 20
55.531391
 30
0.0
 70
    40
  0
VERTEX
  5
623
100
AcDbEntity
  8
0
390
0
100
AcDbVertex
100
AcDb3dPolylineVertex
 10
139.995697
 20
55.520386
 30
0.0
 70
    40
  0
VERTEX
  5
624
100
AcDbEntity
  8
0
390
0
100
AcDbVertex
100
AcDb3dPolylineVertex
 10
140.012238
 20
55.508537
 30
0.0
 70
    40
  0
VERTEX
  5
625
100
AcDbEntity
  8
0
390
0
100
AcDbVertex
100
AcDb3dPolylineVertex
 10
140.028046
 20
55.495842
 30
0.0
 70
    40
  0
VERTEX
  5
626
100
AcDbEntity
  8
0
390
0
100
AcDbVertex
100
AcDb3dPolylineVertex
 10
140.043121
 20
55.482307
 30
0.0
 70
    40
  0
VERTEX
  5
627
100
AcDbEntity
  8
0
390
0
100
AcDbVertex
100
AcDb3dPolylineVertex
 10
140.05748
 20
55.46793
 30
0.0
 70
    40
  0
VERTEX
  5
628
100
AcDbEntity
  8
0
390
0
100
AcDbVertex
100
AcDb3dPolylineVertex
 10
140.071121
 20
55.452717
 30
0.0
 70
    40
  0
VERTEX
  5
629
100
AcDbEntity
  8
0
390
0
100
AcDbVertex
100
AcDb3dPolylineVertex
 10
140.013687
 20
55.510227
 30
0.0
 70
    48
  0
VERTEX
  5
62A
100
AcDbEntity
  8
0
390
0
100
AcDbVertex
100
AcDb3dPolylineVertex
 10
140.044571
 20
55.483982
 30
0.0
 70
    48
  0
VERTEX
  5
62B
100
AcDbEntity
  8
0
390
0
100
AcDbVertex
100
AcDb3dPolylineVertex
 10
140.071121
 20
55.452717
 30
0.0
 70
    48
  0
VERTEX
  5
62C
100
AcDbEntity
  8
0
390
0
100
AcDbVertex
100
AcDb3dPolylineVertex
 10
140.083923
 20
55.43679
 30
0.0
 70
    40
  0
VERTEX
  5
62D
100
AcDbEntity
  8
0
390
0
100
AcDbVertex
100
AcDb3dPolylineVertex
 10
140.095795
 20
55.420277
 30
0.0
 70
    40
  0
VERTEX
  5
62E
100
AcDbEntity
  8
0
390
0
100
AcDbVertex
100
AcDb3dPolylineVertex
 10
140.106705
 20
55.403191
 30
0.0
 70
    40
  0
VERTEX
  5
62F
100
AcDbEntity
  8
0
390
0
100
AcDbVertex
100
AcDb3dPolylineVertex
 10
140.116669
 20
55.385548
 30
0.0
 70
    40
  0
VERTEX
  5
630
100
AcDbEntity
  8
0
390
0
100
AcDbVertex
100
AcDb3dPolylineVertex
 10
140.125671
 20
55.367355
 30
0.0
 70
    40
  0
VERTEX
  5
631
100
AcDbEntity
  8
0
390
0
100
AcDbVertex
100
AcDb3dPolylineVertex
 10
140.133713
 20
55.348621
 30
0.0
 70
    40
  0
VERTEX
  5
632
100
AcDbEntity
  8
0
390
0
100
AcDbVertex
100
AcDb3dPolylineVertex
 10
140.097672
 20
55.421452
 30
0.0
 70
    48
  0
VERTEX
  5
633
100
AcDbEntity
  8
0
390
0
100
AcDbVertex
100
AcDb3dPolylineVertex
 10
140.118607
 20
55.386616
 30
0.0
 70
    48
  0
VERTEX
  5
634
100
AcDbEntity
  8
0
390
0
100
AcDbVertex
100
AcDb3dPolylineVertex
 10
140.133713
 20
55.348621
 30
0.0
 70
    48
  0
VERTEX
  5
635
100
AcDbEntity
  8
0
390
0
100
AcDbVertex
100
AcDb3dPolylineVertex
 10
140.146683
 20
55.309967
 30
0.0
 70
    40
  0
VERTEX
  5
636
100
AcDbEntity
  8
0
390
0
100
AcDbVertex
100
AcDb3dPolylineVertex
 10
140.155334
 20
55.270298
 30
0.0
 70
    40
  0
VERTEX
  5
637
100
AcDbEntity
  8
0
390
0
100
AcDbVertex
100
AcDb3dPolylineVertex
 10
140.159668
 20
55.230026
 30
0.0
 70
    40
  0
VERTEX
  5
638
100
AcDbEntity
  8
0
390
0
100
AcDbVertex
100
AcDb3dPolylineVertex
 10
140.159668
 20
55.189552
 30
0.0
 70
    40
  0
VERTEX
  5
639
100
AcDbEntity
  8
0
390
0
100
AcDbVertex
100
AcDb3dPolylineVertex
 10
140.155319
 20
55.149292
 30
0.0
 70
    40
  0
VERTEX
  5
63A
100
AcDbEntity
  8
0
390
0
100
AcDbVertex
100
AcDb3dPolylineVertex
 10
140.146622
 20
55.109653
 30
0.0
 70
    40
  0
VERTEX
  5
63B
100
AcDbEntity
  8
0
390
0
100
AcDbVertex
100
AcDb3dPolylineVertex
 10
140.163956
 20
55.272602
 30
0.0
 70
    48
  0
VERTEX
  5
63C
100
AcDbEntity
  8
0
390
0
100
AcDbVertex
100
AcDb3dPolylineVertex
 10
140.168381
 20
55.188038
 30
0.0
 70
    48
  0
VERTEX
  5
63D
100
AcDbEntity
  8
0
390
0
100
AcDbVertex
100
AcDb3dPolylineVertex
 10
140.146622
 20
55.109653
 30
0.0
 70
    48
  0
VERTEX
  5
63E
100
AcDbEntity
  8
0
390
0
100
AcDbVertex
100
AcDb3dPolylineVertex
 10
140.133621
 20
55.07119
 30
0.0
 70
    40
  0
VERTEX
  5
63F
100
AcDbEntity
  8
0
390
0
100
AcDbVertex
100
AcDb3dPolylineVertex
 10
140.116547
 20
55.034431
 30
0.0
 70
    40
  0
VERTEX
  5
640
100
AcDbEntity
  8
0
390
0
100
AcDbVertex
100
AcDb3dPolylineVertex
 10
140.095657
 20
54.999741
 30
0.0
 70
    40
  0
VERTEX
  5
641
100
AcDbEntity
  8
0
390
0
100
AcDbVertex
100
AcDb3dPolylineVertex
 10
140.071198
 20
54.967484
 30
0.0
 70
    40
  0
VERTEX
  5
642
100
AcDbEntity
  8
0
390
0
100
AcDbVertex
100
AcDb3dPolylineVertex
 10
140.043442
 20
54.938026
 30
0.0
 70
    40
  0
VERTEX
  5
643
100
AcDbEntity
  8
0
390
0
100
AcDbVertex
100
AcDb3dPolylineVertex
 10
140.012619
 20
54.911732
 30
0.0
 70
    40
  0
VERTEX
  5
644
100
AcDbEntity
  8
0
390
0
100
AcDbVertex
100
AcDb3dPolylineVertex
 10
140.124863
 20
55.031269
 30
0.0
 70
    48
  0
VERTEX
  5
645
100
AcDbEntity
  8
0
390
0
100
AcDbVertex
100
AcDb3dPolylineVertex
 10
140.077133
 20
54.960911
 30
0.0
 70
    48
  0
VERTEX
  5
646
100
AcDbEntity
  8
0
390
0
100
AcDbVertex
100
AcDb3dPolylineVertex
 10
140.012619
 20
54.911732
 30
0.0
 70
    48
  0
VERTEX
  5
647
100
AcDbEntity
  8
0
390
0
100
AcDbVertex
100
AcDb3dPolylineVertex
 10
139.97908
 20
54.888969
 30
0.0
 70
    40
  0
VERTEX
  5
648
100
AcDbEntity
  8
0
390
0
100
AcDbVertex
100
AcDb3dPolylineVertex
 10
139.943253
 20
54.869976
 30
0.0
 70
    40
  0
VERTEX
  5
649
100
AcDbEntity
  8
0
390
0
100
AcDbVertex
100
AcDb3dPolylineVertex
 10
139.905563
 20
54.854912
 30
0.0
 70
    40
  0
VERTEX
  5
64A
100
AcDbEntity
  8
0
390
0
100
AcDbVertex
100
AcDb3dPolylineVertex
 10
139.866394
 20
54.843948
 30
0.0
 70
    40
  0
VERTEX
  5
64B
100
AcDbEntity
  8
0
390
0
100
AcDbVertex
100
AcDb3dPolylineVertex
 10
139.826172
 20
54.83725
 30
0.0
 70
    40
  0
VERTEX
  5
64C
100
AcDbEntity
  8
0
390
0
100
AcDbVertex
100
AcDb3dPolylineVertex
 10
139.785294
 20
54.83498
 30
0.0
 70
    40
  0
VERTEX
  5
64D
100
AcDbEntity
  8
0
390
0
100
AcDbVertex
100
AcDb3dPolylineVertex
 10
139.948105
 20
54.862553
 30
0.0
 70
    48
  0
VERTEX
  5
64E
100
AcDbEntity
  8
0
390
0
100
AcDbVertex
100
AcDb3dPolylineVertex
 10
139.867416
 20
54.83498
 30
0.0
 70
    48
  0
VERTEX
  5
64F
100
AcDbEntity
  8
0
390
0
100
AcDbVertex
100
AcDb3dPolylineVertex
 10
139.785294
 20
54.83498
 30
0.0
 70
    48
  0
SEQEND
  5
650
100
AcDbEntity
  8
0
390
0
  0
ARC
  5
651
100
AcDbEntity
  8
ARMATUR
390
0
  6
DURCHGEHEND
 62
     1
100
AcDbCircle
 10
137.757156
 20
51.83498
 30
0.0
 40
4.3125
100
AcDbArc
 50
58.997002
 51
121.001999
  0
POLYLINE
  5
652
100
AcDbEntity
  8
ARMATUR
390
0
  6
DURCHGEHEND
 62
     1
100
AcDb3dPolyline
 66
     1
 10
0.0
 20
0.0
 30
0.0
 70
    12
 75
     5
  0
VERTEX
  5
653
100
AcDbEntity
  8
0
390
0
100
AcDbVertex
100
AcDb3dPolylineVertex
 10
135.72905
 20
54.83498
 30
0.0
 70
    48
  0
VERTEX
  5
654
100
AcDbEntity
  8
0
390
0
100
AcDbVertex
100
AcDb3dPolylineVertex
 10
135.72905
 20
54.83498
 30
0.0
 70
    40
  0
VERTEX
  5
655
100
AcDbEntity
  8
0
390
0
100
AcDbVertex
100
AcDb3dPolylineVertex
 10
135.708603
 20
54.835526
 30
0.0
 70
    40
  0
VERTEX
  5
656
100
AcDbEntity
  8
0
390
0
100
AcDbVertex
100
AcDb3dPolylineVertex
 10
135.688354
 20
54.837166
 30
0.0
 70
    40
  0
VERTEX
  5
657
100
AcDbEntity
  8
0
390
0
100
AcDbVertex
100
AcDb3dPolylineVertex
 10
135.668304
 20
54.839893
 30
0.0
 70
    40
  0
VERTEX
  5
658
100
AcDbEntity
  8
0
390
0
100
AcDbVertex
100
AcDb3dPolylineVertex
 10
135.648438
 20
54.843712
 30
0.0
 70
    40
  0
VERTEX
  5
659
100
AcDbEntity
  8
0
390
0
100
AcDbVertex
100
AcDb3dPolylineVertex
 10
135.628769
 20
54.848614
 30
0.0
 70
    40
  0
VERTEX
  5
65A
100
AcDbEntity
  8
0
390
0
100
AcDbVertex
100
AcDb3dPolylineVertex
 10
135.609299
 20
54.854603
 30
0.0
 70
    40
  0
VERTEX
  5
65B
100
AcDbEntity
  8
0
390
0
100
AcDbVertex
100
AcDb3dPolylineVertex
 10
135.687973
 20
54.83498
 30
0.0
 70
    48
  0
VERTEX
  5
65C
100
AcDbEntity
  8
0
390
0
100
AcDbVertex
100
AcDb3dPolylineVertex
 10
135.648056
 20
54.841541
 30
0.0
 70
    48
  0
VERTEX
  5
65D
100
AcDbEntity
  8
0
390
0
100
AcDbVertex
100
AcDb3dPolylineVertex
 10
135.609299
 20
54.854603
 30
0.0
 70
    48
  0
VERTEX
  5
65E
100
AcDbEntity
  8
0
390
0
100
AcDbVertex
100
AcDb3dPolylineVertex
 10
135.590149
 20
54.861633
 30
0.0
 70
    40
  0
VERTEX
  5
65F
100
AcDbEntity
  8
0
390
0
100
AcDbVertex
100
AcDb3dPolylineVertex
 10
135.571518
 20
54.869648
 30
0.0
 70
    40
  0
VERTEX
  5
660
100
AcDbEntity
  8
0
390
0
100
AcDbVertex
100
AcDb3dPolylineVertex
 10
135.553375
 20
54.878635
 30
0.0
 70
    40
  0
VERTEX
  5
661
100
AcDbEntity
  8
0
390
0
100
AcDbVertex
100
AcDb3dPolylineVertex
 10
135.535782
 20
54.888588
 30
0.0
 70
    40
  0
VERTEX
  5
662
100
AcDbEntity
  8
0
390
0
100
AcDbVertex
100
AcDb3dPolylineVertex
 10
135.518707
 20
54.899502
 30
0.0
 70
    40
  0
VERTEX
  5
663
100
AcDbEntity
  8
0
390
0
100
AcDbVertex
100
AcDb3dPolylineVertex
 10
135.502182
 20
54.911366
 30
0.0
 70
    40
  0
VERTEX
  5
664
100
AcDbEntity
  8
0
390
0
100
AcDbVertex
100
AcDb3dPolylineVertex
 10
135.570511
 20
54.86768
 30
0.0
 70
    48
  0
VERTEX
  5
665
100
AcDbEntity
  8
0
390
0
100
AcDbVertex
100
AcDb3dPolylineVertex
 10
135.534683
 20
54.886692
 30
0.0
 70
    48
  0
VERTEX
  5
666
100
AcDbEntity
  8
0
390
0
100
AcDbVertex
100
AcDb3dPolylineVertex
 10
135.502182
 20
54.911366
 30
0.0
 70
    48
  0
VERTEX
  5
667
100
AcDbEntity
  8
0
390
0
100
AcDbVertex
100
AcDb3dPolylineVertex
 10
135.471191
 20
54.937714
 30
0.0
 70
    40
  0
VERTEX
  5
668
100
AcDbEntity
  8
0
390
0
100
AcDbVertex
100
AcDb3dPolylineVertex
 10
135.443344
 20
54.967167
 30
0.0
 70
    40
  0
VERTEX
  5
669
100
AcDbEntity
  8
0
390
0
100
AcDbVertex
100
AcDb3dPolylineVertex
 10
135.418854
 20
54.999374
 30
0.0
 70
    40
  0
VERTEX
  5
66A
100
AcDbEntity
  8
0
390
0
100
AcDbVertex
100
AcDb3dPolylineVertex
 10
135.397964
 20
55.033997
 30
0.0
 70
    40
  0
VERTEX
  5
66B
100
AcDbEntity
  8
0
390
0
100
AcDbVertex
100
AcDb3dPolylineVertex
 10
135.380905
 20
55.070679
 30
0.0
 70
    40
  0
VERTEX
  5
66C
100
AcDbEntity
  8
0
390
0
100
AcDbVertex
100
AcDb3dPolylineVertex
 10
135.367874
 20
55.109074
 30
0.0
 70
    40
  0
VERTEX
  5
66D
100
AcDbEntity
  8
0
390
0
100
AcDbVertex
100
AcDb3dPolylineVertex
 10
135.43721
 20
54.960728
 30
0.0
 70
    48
  0
VERTEX
  5
66E
100
AcDbEntity
  8
0
390
0
100
AcDbVertex
100
AcDb3dPolylineVertex
 10
135.389725
 20
55.030796
 30
0.0
 70
    48
  0
VERTEX
  5
66F
100
AcDbEntity
  8
0
390
0
100
AcDbVertex
100
AcDb3dPolylineVertex
 10
135.367874
 20
55.109074
 30
0.0
 70
    48
  0
VERTEX
  5
670
100
AcDbEntity
  8
0
390
0
100
AcDbVertex
100
AcDb3dPolylineVertex
 10
135.359131
 20
55.148712
 30
0.0
 70
    40
  0
VERTEX
  5
671
100
AcDbEntity
  8
0
390
0
100
AcDbVertex
100
AcDb3dPolylineVertex
 10
135.354752
 20
55.189041
 30
0.0
 70
    40
  0
VERTEX
  5
672
100
AcDbEntity
  8
0
390
0
100
AcDbVertex
100
AcDb3dPolylineVertex
 10
135.354706
 20
55.229603
 30
0.0
 70
    40
  0
VERTEX
  5
673
100
AcDbEntity
  8
0
390
0
100
AcDbVertex
100
AcDb3dPolylineVertex
 10
135.358994
 20
55.269932
 30
0.0
 70
    40
  0
VERTEX
  5
674
100
AcDbEntity
  8
0
390
0
100
AcDbVertex
100
AcDb3dPolylineVertex
 10
135.367554
 20
55.30957
 30
0.0
 70
    40
  0
VERTEX
  5
675
100
AcDbEntity
  8
0
390
0
100
AcDbVertex
100
AcDb3dPolylineVertex
 10
135.380386
 20
55.348057
 30
0.0
 70
    40
  0
VERTEX
  5
676
100
AcDbEntity
  8
0
390
0
100
AcDbVertex
100
AcDb3dPolylineVertex
 10
135.345993
 20
55.187351
 30
0.0
 70
    48
  0
VERTEX
  5
677
100
AcDbEntity
  8
0
390
0
100
AcDbVertex
100
AcDb3dPolylineVertex
 10
135.350479
 20
55.272541
 30
0.0
 70
    48
  0
VERTEX
  5
678
100
AcDbEntity
  8
0
390
0
100
AcDbVertex
100
AcDb3dPolylineVertex
 10
135.380386
 20
55.348057
 30
0.0
 70
    48
  0
VERTEX
  5
679
100
AcDbEntity
  8
0
390
0
100
AcDbVertex
100
AcDb3dPolylineVertex
 10
135.388382
 20
55.366737
 30
0.0
 70
    40
  0
VERTEX
  5
67A
100
AcDbEntity
  8
0
390
0
100
AcDbVertex
100
AcDb3dPolylineVertex
 10
135.397385
 20
55.384975
 30
0.0
 70
    40
  0
VERTEX
  5
67B
100
AcDbEntity
  8
0
390
0
100
AcDbVertex
100
AcDb3dPolylineVertex
 10
135.407379
 20
55.40271
 30
0.0
 70
    40
  0
VERTEX
  5
67C
100
AcDbEntity
  8
0
390
0
100
AcDbVertex
100
AcDb3dPolylineVertex
 10
135.418304
 20
55.41988
 30
0.0
 70
    40
  0
VERTEX
  5
67D
100
AcDbEntity
  8
0
390
0
100
AcDbVertex
100
AcDb3dPolylineVertex
 10
135.430145
 20
55.436424
 30
0.0
 70
    40
  0
VERTEX
  5
67E
100
AcDbEntity
  8
0
390
0
100
AcDbVertex
100
AcDb3dPolylineVertex
 10
135.442856
 20
55.45229
 30
0.0
 70
    40
  0
VERTEX
  5
67F
100
AcDbEntity
  8
0
390
0
100
AcDbVertex
100
AcDb3dPolylineVertex
 10
135.39534
 20
55.385822
 30
0.0
 70
    48
  0
VERTEX
  5
680
100
AcDbEntity
  8
0
390
0
100
AcDbVertex
100
AcDb3dPolylineVertex
 10
135.41658
 20
55.421284
 30
0.0
 70
    48
  0
VERTEX
  5
681
100
AcDbEntity
  8
0
390
0
100
AcDbVertex
100
AcDb3dPolylineVertex
 10
135.442856
 20
55.45229
 30
0.0
 70
    48
  0
VERTEX
  5
682
100
AcDbEntity
  8
0
390
0
100
AcDbVertex
100
AcDb3dPolylineVertex
 10
135.456421
 20
55.467445
 30
0.0
 70
    40
  0
VERTEX
  5
683
100
AcDbEntity
  8
0
390
0
100
AcDbVertex
100
AcDb3dPolylineVertex
 10
135.47081
 20
55.481876
 30
0.0
 70
    40
  0
VERTEX
  5
684
100
AcDbEntity
  8
0
390
0
100
AcDbVertex
100
AcDb3dPolylineVertex
 10
135.486008
 20
55.495529
 30
0.0
 70
    40
  0
VERTEX
  5
685
100
AcDbEntity
  8
0
390
0
100
AcDbVertex
100
AcDb3dPolylineVertex
 10
135.501953
 20
55.508366
 30
0.0
 70
    40
  0
VERTEX
  5
686
100
AcDbEntity
  8
0
390
0
100
AcDbVertex
100
AcDb3dPolylineVertex
 10
135.5186
 20
55.520336
 30
0.0
 70
    40
  0
VERTEX
  5
687
100
AcDbEntity
  8
0
390
0
100
AcDbVertex
100
AcDb3dPolylineVertex
 10
135.535904
 20
55.531391
 30
0.0
 70
    40
  0
VERTEX
  5
688
100
AcDbEntity
  8
0
390
0
100
AcDbVertex
100
AcDb3dPolylineVertex
 10
135.469101
 20
55.483295
 30
0.0
 70
    48
  0
VERTEX
  5
689
100
AcDbEntity
  8
0
390
0
100
AcDbVertex
100
AcDb3dPolylineVertex
 10
135.500656
 20
55.510227
 30
0.0
 70
    48
  0
VERTEX
  5
68A
100
AcDbEntity
  8
0
390
0
100
AcDbVertex
100
AcDb3dPolylineVertex
 10
135.535904
 20
55.531391
 30
0.0
 70
    48
  0
SEQEND
  5
68B
100
AcDbEntity
  8
0
390
0
  0
LINE
  5
68C
100
AcDbEntity
  8
ARMATUR
390
0
  6
DURCHGEHEND
 62
     1
100
AcDbLine
 10
139.785294
 20
54.83498
 30
0.0
 11
135.72905
 21
54.835011
 31
0.0
  0
LINE
  5
68D
100
AcDbEntity
  8
ACHSEN
390
0
  6
STRICHPUNKTIERT
 62
     4
100
AcDbLine
 10
137.757156
 20
120.449333
 30
0.0
 11
137.757156
 21
39.271973
 31
0.0
  0
LINE
  5
68E
100
AcDbEntity
  8
ACHSEN
390
0
  6
STRICHPUNKTIERT
 62
     4
100
AcDbLine
 10
128.371994
 20
51.719921
 30
0.0
 11
147.122452
 21
51.719921
 31
0.0
  0
LINE
  5
68F
100
AcDbEntity
  8
TEXT
390
0
  6
DURCHGEHEND
 62
     9
100
AcDbLine
 10
135.298691
 20
146.008591
 30
0.0
 11
131.298691
 21
142.00856
 31
0.0
  0
CIRCLE
  5
690
100
AcDbEntity
  8
TEXT
390
0
  6
DURCHGEHEND
 62
     9
100
AcDbCircle
 10
133.317154
 20
144.027054
 30
0.0
 40
1.875
  0
TEXT
  5
691
100
AcDbEntity
  8
TEXT
390
0
100
AcDbText
 10
136.076477
 20
141.177383
 30
0.0
 40
7.055555
  1
63
100
AcDbText
  0
TEXT
  5
692
100
AcDbEntity
  8
TEXT
390
0
100
AcDbText
 10
101.943481
 20
82.860573
 30
0.0
 40
7.055555
  1
30-50
 50
90.0
100
AcDbText
  0
TEXT
  5
693
100
AcDbEntity
  8
TEXT
390
0
100
AcDbText
 10
146.111526
 20
74.538788
 30
0.0
 40
7.055555
  1
G 1 1/4
100
AcDbText
  0
LINE
  5
694
100
AcDbEntity
  8
BEMASSUNG
390
0
  6
DURCHGEHEND
 62
     3
100
AcDbLine
 10
129.807159
 20
119.219955
 30
0.0
 11
129.807159
 21
141.175827
 31
0.0
  0
LINE
  5
695
100
AcDbEntity
  8
BEMASSUNG
390
0
  6
DURCHGEHEND
 62
     3
100
AcDbLine
 10
145.557159
 20
119.111626
 30
0.0
 11
145.557159
 21
141.607803
 31
0.0
  0
LINE
  5
696
100
AcDbEntity
  8
BEMASSUNG
390
0
  6
DURCHGEHEND
 62
     3
100
AcDbLine
 10
128.9142
 20
140.208527
 30
0.0
 11
146.840637
 21
140.208527
 31
0.0
  0
LINE
  5
697
100
AcDbEntity
  8
BEMASSUNG
390
0
  6
DURCHGEHEND
 62
     3
100
AcDbLine
 10
128.680878
 20
118.147163
 30
0.0
 11
102.461441
 21
118.147163
 31
0.0
  0
LINE
  5
698
100
AcDbEntity
  8
BEMASSUNG
390
0
  6
DURCHGEHEND
 62
     3
100
AcDbLine
 10
129.005859
 20
105.671593
 30
0.0
 11
102.566902
 21
105.671593
 31
0.0
  0
LINE
  5
699
100
AcDbEntity
  8
BEMASSUNG
390
0
  6
DURCHGEHEND
 62
     3
100
AcDbLine
 10
103.609009
 20
119.082573
 30
0.0
 11
103.609009
 21
82.616051
 31
0.0
  0
LINE
  5
69A
100
AcDbEntity
  8
BEMASSUNG
390
0
  6
DURCHGEHEND
 62
     3
100
AcDbLine
 10
130.867477
 20
141.384598
 30
0.0
 11
128.693588
 21
138.938446
 31
0.0
  0
LINE
  5
69B
100
AcDbEntity
  8
BEMASSUNG
390
0
  6
DURCHGEHEND
 62
     3
100
AcDbLine
 10
146.581482
 20
141.352097
 30
0.0
 11
144.407593
 21
138.905945
 31
0.0
  0
LINE
  5
69C
100
AcDbEntity
  8
BEMASSUNG
390
0
  6
DURCHGEHEND
 62
     3
100
AcDbLine
 10
102.363007
 20
119.252296
 30
0.0
 11
104.809128
 21
117.078407
 31
0.0
  0
LINE
  5
69D
100
AcDbEntity
  8
BEMASSUNG
390
0
  6
DURCHGEHEND
 62
     3
100
AcDbLine
 10
102.303223
 20
106.800598
 30
0.0
 11
104.749359
 21
104.62674
 31
0.0
  0
LINE
  5
69E
100
AcDbEntity
  8
BEMASSUNG
390
0
  6
DURCHGEHEND
 62
     3
100
AcDbLine
 10
132.519653
 20
71.657188
 30
0.0
 11
132.519653
 21
94.412582
 31
0.0
  0
LINE
  5
69F
100
AcDbEntity
  8
BEMASSUNG
390
0
  6
DURCHGEHEND
 62
     3
100
AcDbLine
 10
142.994659
 20
71.558952
 30
0.0
 11
142.994659
 21
94.520912
 31
0.0
  0
LINE
  5
6A0
100
AcDbEntity
  8
BEMASSUNG
390
0
  6
DURCHGEHEND
 62
     3
100
AcDbLine
 10
131.343231
 20
72.828979
 30
0.0
 11
174.294678
 21
72.828979
 31
0.0
  0
LINE
  5
6A1
100
AcDbEntity
  8
BEMASSUNG
390
0
  6
DURCHGEHEND
 62
     3
100
AcDbLine
 10
133.551025
 20
74.005035
 30
0.0
 11
131.377136
 21
71.558884
 31
0.0
  0
LINE
  5
6A2
100
AcDbEntity
  8
BEMASSUNG
390
0
  6
DURCHGEHEND
 62
     3
100
AcDbLine
 10
143.960205
 20
73.972534
 30
0.0
 11
141.786316
 21
71.526382
 31
0.0
  0
ENDSEC
  0
SECTION
  2
OBJECTS
  0
DICTIONARY
  5
19
100
AcDbDictionary
280
     0
281
     1
  3
ACAD_GROUP
350
1A
  3
ACAD_MLINESTYLE
350
1B
  3
ACAD_LAYOUT
350
1E
  3
ACAD_PLOTSETTINGS
350
22
  3
ACAD_PLOTSTYLENAME
350
1F
  3
ACAD_WIPEOUT_VARS
350
23
  0
DICTIONARY
  5
1A
102
{ACAD_REACTORS
330
19
102
}
100
AcDbDictionary
280
     0
281
     1
  0
DICTIONARY
  5
1B
102
{ACAD_REACTORS
330
19
102
}
100
AcDbDictionary
280
     0
281
     1
  3
Standard
350
1C
  0
MLINESTYLE
  5
1C
102
{ACAD_REACTORS
330
1B
102
}
100
AcDbMlineStyle
  2
Standard
 70
     0
  3

 62
     0
 51
90.0
 52
90.0
 71
     2
 49
0.5
 62
   256
  6
ByLayer
 49
-0.5
 62
   256
  6
ByLayer
  0
ACDBDICTIONARYWDFLT
  5
1F
102
{ACAD_REACTORS
330
19
102
}
100
AcDbDictionary
281
     1
  3
Normal
350
1D
100
AcDbDictionaryWithDefault
340
1D
  0
ACDBPLACEHOLDER
  5
1D
102
{ACAD_REACTORS
330
1F
102
}
  0
LAYOUT
  5
20
102
{ACAD_REACTORS
330
1E
102
}
100
AcDbPlotSettings
  1

  2

  4

  6

 40
0.0
 41
0.0
 42
0.0
 43
0.0
 44
0.0
 45
0.0
 46
0.0
 47
0.0
 48
0.0
 49
0.0
140
0.0
141
0.0
142
1.0
143
1.0
 70
  1024
 72
     0
 73
     0
 74
     0
  7

 75
     0
147
1.0
148
0.0
149
0.0
100
AcDbLayout
  1
Model
 70
     0
 71
     0
 10
0.0
 20
0.0
 11
0.0
 21
0.0
 12
0.0
 22
0.0
 32
0.0
 14
0.0
 24
0.0
 34
0.0
 15
0.0
 25
0.0
 35
0.0
146
0.0
 13
0.0
 23
0.0
 33
0.0
 16
0.0
 26
0.0
 36
0.0
 17
0.0
 27
0.0
 37
0.0
 76
     0
330
A
331
0
345
0
346
0
  0
LAYOUT
  5
21
102
{ACAD_REACTORS
330
1E
102
}
100
AcDbPlotSettings
  1

  2

  4

  6

 40
0.0
 41
0.0
 42
0.0
 43
0.0
 44
0.0
 45
0.0
 46
0.0
 47
0.0
 48
0.0
 49
0.0
140
0.0
141
0.0
142
1.0
143
1.0
 70
     0
 72
     0
 73
     0
 74
     0
  7

 75
     0
147
1.0
148
0.0
149
0.0
100
AcDbLayout
  1
Layout1
 70
     0
 71
     0
 10
0.0
 20
0.0
 11
0.0
 21
0.0
 12
0.0
 22
0.0
 32
0.0
 14
0.0
 24
0.0
 34
0.0
 15
0.0
 25
0.0
 35
0.0
146
0.0
 13
0.0
 23
0.0
 33
0.0
 16
0.0
 26
0.0
 36
0.0
 17
0.0
 27
0.0
 37
0.0
 76
     0
330
B
331
0
345
0
346
0
  0
DICTIONARY
  5
1E
102
{ACAD_REACTORS
330
19
102
}
100
AcDbDictionary
280
     0
281
     1
  3
Layout1
350
21
  3
Model
350
20
  0
DICTIONARY
  5
22
102
{ACAD_REACTORS
330
19
102
}
100
AcDbDictionary
280
     0
281
     1
  0
WIPEOUTVARIABLES
  5
23
100
AcDbWipeoutVariables
 70
     1
  0
ENDSEC
  0
EOF
