  0
SECTION
  2
HEADER
  9
$ACADVER
  1
AC1015
  9
$ACADMAINTVER
 70
     6
  9
$DWGCODEPAGE
  3
ANSI_1252
  9
$INSBASE
 10
0.0
 20
0.0
 30
0.0
  9
$EXTMIN
 10
50.359116
 20
3.180404
 30
0.0
  9
$EXTMAX
 10
293.614227
 20
246.116898
 30
0.0
  9
$LIMMIN
 10
0.0
 20
0.0
  9
$LIMMAX
 10
0.0
 20
0.0
  9
$ORTHOMODE
 70
     0
  9
$REGENMODE
 70
     1
  9
$FILLMODE
 70
     1
  9
$QTEXTMODE
 70
     0
  9
$MIRRTEXT
 70
     1
  9
$LTSCALE
 40
1.0
  9
$ATTMODE
 70
     1
  9
$TEXTSIZE
 40
0.2
  9
$TRACEWID
 40
0.05
  9
$TEXTSTYLE
  7
Standard
  9
$CLAYER
  8
0
  9
$CELTYPE
  6
Continuous
  9
$CECOLOR
 62
   256
  9
$CELTSCALE
 40
1.0
  9
$DISPSILH
 70
     0
  9
$DIMSCALE
 40
1.0
  9
$DIMASZ
 40
0.18
  9
$DIMEXO
 40
0.0625
  9
$DIMDLI
 40
0.38
  9
$DIMRND
 40
0.0
  9
$DIMDLE
 40
0.0
  9
$DIMEXE
 40
0.18
  9
$DIMTP
 40
0.0
  9
$DIMTM
 40
0.0
  9
$DIMTXT
 40
0.18
  9
$DIMCEN
 40
0.09
  9
$DIMTSZ
 40
0.0
  9
$DIMTOL
 70
     0
  9
$DIMLIM
 70
     0
  9
$DIMTIH
 70
     1
  9
$DIMTOH
 70
     1
  9
$DIMSE1
 70
     0
  9
$DIMSE2
 70
     0
  9
$DIMTAD
 70
     0
  9
$DIMZIN
 70
     0
  9
$DIMBLK
  1

  9
$DIMASO
 70
     1
  9
$DIMSHO
 70
     1
  9
$DIMPOST
  1

  9
$DIMAPOST
  1

  9
$DIMALT
 70
     0
  9
$DIMALTD
 70
     2
  9
$DIMALTF
 40
25.4
  9
$DIMLFAC
 40
1.0
  9
$DIMTOFL
 70
     0
  9
$DIMTVP
 40
0.0
  9
$DIMTIX
 70
     0
  9
$DIMSOXD
 70
     0
  9
$DIMSAH
 70
     0
  9
$DIMBLK1
  1

  9
$DIMBLK2
  1

  9
$DIMSTYLE
  2
Standard
  9
$DIMCLRD
 70
     0
  9
$DIMCLRE
 70
     0
  9
$DIMCLRT
 70
     0
  9
$DIMTFAC
 40
1.0
  9
$DIMGAP
 40
0.09
  9
$DIMJUST
 70
     0
  9
$DIMSD1
 70
     0
  9
$DIMSD2
 70
     0
  9
$DIMTOLJ
 70
     1
  9
$DIMTZIN
 70
     0
  9
$DIMALTZ
 70
     0
  9
$DIMALTTZ
 70
     0
  9
$DIMUPT
 70
     0
  9
$DIMDEC
 70
     4
  9
$DIMTDEC
 70
     4
  9
$DIMALTU
 70
     2
  9
$DIMALTTD
 70
     2
  9
$DIMTXSTY
  7
Standard
  9
$DIMAUNIT
 70
     0
  9
$DIMADEC
 70
     0
  9
$DIMALTRND
 40
0.0
  9
$DIMAZIN
 70
     0
  9
$DIMDSEP
 70
     0
  9
$DIMATFIT
 70
     3
  9
$DIMFRAC
 70
     0
  9
$DIMLDRBLK
  1

  9
$DIMLUNIT
 70
     2
  9
$DIMLWD
 70
     0
  9
$DIMLWE
 70
     0
  9
$DIMTMOVE
 70
     0
  9
$LUNITS
 70
     2
  9
$LUPREC
 70
     4
  9
$SKETCHINC
 40
0.1
  9
$FILLETRAD
 40
0.0
  9
$AUNITS
 70
     0
  9
$AUPREC
 70
     0
  9
$MENU
  1
acad
  9
$ELEVATION
 40
0.0
  9
$PELEVATION
 40
0.0
  9
$THICKNESS
 40
0.0
  9
$LIMCHECK
 70
     0
  9
$CHAMFERA
 40
0.0
  9
$CHAMFERB
 40
0.0
  9
$CHAMFERC
 40
0.0
  9
$CHAMFERD
 40
0.0
  9
$SKPOLY
 70
     0
  9
$TDCREATE
 40
0.000000000
  9
$TDUCREATE
 40
0.000000000
  9
$TDUPDATE
 40
0.000000000
  9
$TDUUPDATE
 40
0.000000000
  9
$TDINDWG
 40
0.0000000000
  9
$TDUSRTIMER
 40
0.0000000000
  9
$USRTIMER
 70
     1
  9
$ANGBASE
 50
0.0
  9
$ANGDIR
 70
     0
  9
$PDMODE
 70
     0
  9
$PDSIZE
 40
0.0
  9
$PLINEWID
 40
0.0
  9
$SPLFRAME
 70
     0
  9
$SPLINETYPE
 70
     6
  9
$SPLINESEGS
 70
     8
  9
$HANDSEED
  5
347
  9
$SURFTAB1
 70
     6
  9
$SURFTAB2
 70
     6
  9
$SURFTYPE
 70
     6
  9
$SURFU
 70
     6
  9
$SURFV
 70
     6
  9
$UCSBASE
  2

  9
$UCSNAME
  2

  9
$UCSORG
 10
0.0
 20
0.0
 30
0.0
  9
$UCSXDIR
 10
1.0
 20
0.0
 30
0.0
  9
$UCSYDIR
 10
0.0
 20
1.0
 30
0.0
  9
$UCSORTHOREF
  2

  9
$UCSORTHOVIEW
 70
     0
  9
$UCSORGTOP
 10
0.0
 20
0.0
 30
0.0
  9
$UCSORGBOTTOM
 10
0.0
 20
0.0
 30
0.0
  9
$UCSORGLEFT
 10
0.0
 20
0.0
 30
0.0
  9
$UCSORGRIGHT
 10
0.0
 20
0.0
 30
0.0
  9
$UCSORGFRONT
 10
0.0
 20
0.0
 30
0.0
  9
$UCSORGBACK
 10
0.0
 20
0.0
 30
0.0
  9
$PUCSBASE
  2

  9
$PUCSNAME
  2

  9
$PUCSORG
 10
0.0
 20
0.0
 30
0.0
  9
$PUCSXDIR
 10
1.0
 20
0.0
 30
0.0
  9
$PUCSYDIR
 10
0.0
 20
1.0
 30
0.0
  9
$PUCSORTHOREF
  2

  9
$PUCSORTHOVIEW
 70
     0
  9
$PUCSORGTOP
 10
0.0
 20
0.0
 30
0.0
  9
$PUCSORGBOTTOM
 10
0.0
 20
0.0
 30
0.0
  9
$PUCSORGLEFT
 10
0.0
 20
0.0
 30
0.0
  9
$PUCSORGRIGHT
 10
0.0
 20
0.0
 30
0.0
  9
$PUCSORGFRONT
 10
0.0
 20
0.0
 30
0.0
  9
$PUCSORGBACK
 10
0.0
 20
0.0
 30
0.0
  9
$USERI1
 70
     0
  9
$USERI2
 70
     0
  9
$USERI3
 70
     0
  9
$USERI4
 70
     0
  9
$USERI5
 70
     0
  9
$USERR1
 40
0.0
  9
$USERR2
 40
0.0
  9
$USERR3
 40
0.0
  9
$USERR4
 40
0.0
  9
$USERR5
 40
0.0
  9
$WORLDVIEW
 70
     1
  9
$SHADEDGE
 70
     3
  9
$SHADEDIF
 70
    70
  9
$TILEMODE
 70
     1
  9
$MAXACTVP
 70
    16
  9
$PINSBASE
 10
0.0
 20
0.0
 30
0.0
  9
$PLIMCHECK
 70
     0
  9
$PEXTMIN
 10
1.000000E+20
 20
1.000000E+20
 30
1.000000E+20
  9
$PEXTMAX
 10
-1.000000E+20
 20
-1.000000E+20
 30
-1.000000E+20
  9
$PLIMMIN
 10
0.0
 20
0.0
  9
$PLIMMAX
 10
12.0
 20
9.0
  9
$UNITMODE
 70
     0
  9
$VISRETAIN
 70
     0
  9
$PLINEGEN
 70
     1
  9
$PSLTSCALE
 70
     0
  9
$TREEDEPTH
 70
  3020
  9
$CMLSTYLE
  2
Standard
  9
$CMLJUST
 70
     0
  9
$CMLSCALE
 40
1.0
  9
$PROXYGRAPHICS
 70
     0
  9
$MEASUREMENT
 70
     0
  9
$CELWEIGHT
370
     0
  9
$ENDCAPS
280
     0
  9
$JOINSTYLE
280
     0
  9
$LWDISPLAY
290
     0
  9
$INSUNITS
 70
     0
  9
$HYPERLINKBASE
  1

  9
$STYLESHEET
  1

  9
$XEDIT
290
     1
  9
$CEPSNTYPE
380
     0
  9
$PSTYLEMODE
290
     1
  9
$FINGERPRINTGUID
  2

  9
$VERSIONGUID
  2

  9
$EXTNAMES
290
     1
  9
$PSVPSCALE
 40
0.0
  0
ENDSEC
  0
SECTION
  2
CLASSES
  0
CLASS
  1
LWPOLYLINE
  2
AcDbPolyline
  3
AutoCAD 2000
 90
        0
280
     0
281
     1
  0
CLASS
  1
IMAGE
  2
AcDbRasterImage
  3
ISM
 90
      127
280
     0
281
     1
  0
CLASS
  1
OLE2FRAME
  2
AcDbOle2Frame
  3
AutoCAD 2000
 90
        0
280
     0
281
     1
  0
CLASS
  1
HATCH
  2
AcDbHatch
  3
AutoCAD 2000
 90
        0
280
     0
281
     1
  0
CLASS
  1
DICTIONARYVAR
  2
AcDbDictionaryVar
  3
AutoCAD 2000
 90
        0
280
     0
281
     0
  0
CLASS
  1
RASTERVARIABLES
  2
AcDbRasterVariables
  3
ISM
 90
        0
280
     0
281
     0
  0
CLASS
  1
IMAGEDEF
  2
AcDbRasterImageDef
  3
ISM
 90
        0
280
     0
281
     0
  0
CLASS
  1
IMAGEDEF_REACTOR
  2
AcDbRasterImageDefReactor
  3
ISM
 90
        1
280
     0
281
     0
  0
CLASS
  1
IDBUFFER
  2
AcDbIdBuffer
  3
AutoCAD 2000
 90
        0
280
     0
281
     0
  0
CLASS
  1
SPATIAL_FILTER
  2
AcDbSpatialFilter
  3
AutoCAD 2000
 90
        0
280
     0
281
     0
  0
CLASS
  1
XRECORD
  2
AcDbXrecord
  3
AutoCAD 2000
 90
        0
280
     0
281
     0
  0
CLASS
  1
SORTENTSTABLE
  2
AcDbSortentsTable
  3
AutoCAD 2000
 90
        0
280
     0
281
     0
  0
CLASS
  1
LAYER_INDEX
  2
AcDbLayerIndex
  3
AutoCAD 2000
 90
        0
280
     0
281
     0
  0
CLASS
  1
SPATIAL_INDEX
  2
AcDbSpatialIndex
  3
AutoCAD 2000
 90
        0
280
     0
281
     0
  0
CLASS
  1
OBJECT_PTR
  2
CAseDLPNTableRecord
  3
"ASE-LPNTableRecord"
 90
        1
280
     0
281
     0
  0
CLASS
  1
LAYOUT
  2
AcDbLayout
  3
AutoCAD 2000
 90
        0
280
     0
281
     0
  0
CLASS
  1
PLOTSETTINGS
  2
AcDbPlotSettings
  3
AutoCAD 2000
 90
        0
280
     0
281
     0
  0
CLASS
  1
ACDBDICTIONARYWDFLT
  2
AcDbDictionaryWithDefault
  3
AutoCAD 2000
 90
        0
280
     0
281
     0
  0
CLASS
  1
ACDBPLACEHOLDER
  2
AcDbPlaceHolder
  3
AutoCAD 2000
 90
        0
280
     0
281
     0
  0
CLASS
  1
VBA_PROJECT
  2
AcDbVbaProject
  3
acadvba
 90
        0
280
     0
281
     0
  0
CLASS
  1
WIPEOUT
  2
AcDbWipeout
  3
WipeOut|AutoCAD Express Tool|expresstools@autodesk.com
 90
      127
280
     0
281
     1
  0
CLASS
  1
WIPEOUTVARIABLES
  2
AcDbWipeoutVariables
  3
WipeOut|AutoCAD Express Tool|expresstools@autodesk.com
 90
        0
280
     0
281
     0
  0
CLASS
  1
RTEXT
  2
RText
  3
RText|AutoCAD Express Tool|expresstools@autodesk.com
 90
        0
280
     0
281
     1
  0
CLASS
  1
ARCALIGNEDTEXT
  2
AcDbArcAlignedText
  3
ATEXT|AutoCAD Express Tool|expresstools@autodesk.com
 90
        0
280
     0
281
     1
  0
ENDSEC
  0
SECTION
  2
TABLES
  0
TABLE
  2
VPORT
  5
7
100
AcDbSymbolTable
 70
     1
  0
VPORT
  5
15
100
AcDbSymbolTableRecord
100
AcDbViewportTableRecord
  2
*ACTIVE
 70
     0
 10
0.0
 20
0.0
 11
1.0
 21
1.0
 12
6.591288
 22
4.579184
 13
0.0
 23
0.0
 14
1.0
 24
1.0
 15
0.0
 25
0.0
 16
0.0
 26
0.0
 36
1.0
 17
0.0
 27
0.0
 37
0.0
 40
9.158369
 41
0.688564
 42
50.0
 43
0.0
 44
0.0
 50
0.0
 51
0.0
 71
     0
 72
   100
 73
     1
 74
     1
 75
     0
 76
     0
 77
     0
 78
     0
281
     0
 65
     0
110
0.0
120
0.0
130
0.0
111
1.0
121
0.0
131
0.0
112
0.0
122
1.0
132
0.0
345
0
346
0
 79
     0
146
0.0
  0
ENDTAB
  0
TABLE
  2
LTYPE
  5
4
100
AcDbSymbolTable
 70
   185
  0
LTYPE
  5
11
100
AcDbSymbolTableRecord
100
AcDbLinetypeTableRecord
  2
ByBlock
 70
    64
  3

 72
    65
 73
     0
 40
0.0
  0
LTYPE
  5
12
100
AcDbSymbolTableRecord
100
AcDbLinetypeTableRecord
  2
ByLayer
 70
    64
  3

 72
    65
 73
     0
 40
0.0
  0
LTYPE
  5
13
100
AcDbSymbolTableRecord
100
AcDbLinetypeTableRecord
  2
Continuous
 70
    64
  3
Solid line
 72
    65
 73
     0
 40
0.0
  0
LTYPE
  5
25
100
AcDbSymbolTableRecord
100
AcDbLinetypeTableRecord
  2
DURCHGEHEND
 70
    64
  3

 72
    65
 73
     0
 40
0.0
  0
LTYPE
  5
26
100
AcDbSymbolTableRecord
100
AcDbLinetypeTableRecord
  2
GESTRICHELT
 70
    64
  3

 72
    65
 73
     2
 40
10.0
 49
5.0
 74
     0
 49
-5.0
 74
     0
  0
LTYPE
  5
27
100
AcDbSymbolTableRecord
100
AcDbLinetypeTableRecord
  2
MITTELLINIE
 70
    64
  3

 72
    65
 73
     4
 40
20.0
 49
10.0
 74
     0
 49
-2.0
 74
     0
 49
5.0
 74
     0
 49
-3.0
 74
     0
  0
LTYPE
  5
28
100
AcDbSymbolTableRecord
100
AcDbLinetypeTableRecord
  2
PUNKTIERT
 70
    64
  3

 72
    65
 73
     2
 40
0.25
 49
0.0
 74
     0
 49
-0.25
 74
     0
  0
LTYPE
  5
29
100
AcDbSymbolTableRecord
100
AcDbLinetypeTableRecord
  2
STRICHPUNKTIERT
 70
    64
  3

 72
    65
 73
     4
 40
12.0
 49
5.0
 74
     0
 49
-3.0
 74
     0
 49
1.0
 74
     0
 49
-3.0
 74
     0
  0
LTYPE
  5
2A
100
AcDbSymbolTableRecord
100
AcDbLinetypeTableRecord
  2
STRICH-PUNKT-PUNKT
 70
    64
  3

 72
    65
 73
     6
 40
10.0
 49
5.0
 74
     0
 49
-1.0
 74
     0
 49
1.0
 74
     0
 49
-1.0
 74
     0
 49
1.0
 74
     0
 49
-1.0
 74
     0
  0
LTYPE
  5
2B
100
AcDbSymbolTableRecord
100
AcDbLinetypeTableRecord
  2
STARTPFEIL
 70
    64
  3

 72
    65
 73
     0
 40
0.0
  0
LTYPE
  5
2C
100
AcDbSymbolTableRecord
100
AcDbLinetypeTableRecord
  2
ENDPFEIL
 70
    64
  3

 72
    65
 73
     0
 40
0.0
  0
LTYPE
  5
2D
100
AcDbSymbolTableRecord
100
AcDbLinetypeTableRecord
  2
ENDPUNKT
 70
    64
  3

 72
    65
 73
     0
 40
0.0
  0
LTYPE
  5
2E
100
AcDbSymbolTableRecord
100
AcDbLinetypeTableRecord
  2
PFEIL
 70
    64
  3

 72
    65
 73
     0
 40
0.0
  0
LTYPE
  5
2F
100
AcDbSymbolTableRecord
100
AcDbLinetypeTableRecord
  2
STITCHLINE
 70
    64
  3

 72
    65
 73
     2
 40
6.0
 49
3.0
 74
     0
 49
-3.0
 74
     0
  0
LTYPE
  5
30
100
AcDbSymbolTableRecord
100
AcDbLinetypeTableRecord
  2
MITTELLINIE_2
 70
    64
  3

 72
    65
 73
     4
 40
17.0
 49
10.0
 74
     0
 49
-2.0
 74
     0
 49
3.0
 74
     0
 49
-2.0
 74
     0
  0
LTYPE
  5
31
100
AcDbSymbolTableRecord
100
AcDbLinetypeTableRecord
  2
VERDECKTE_LINIE
 70
    64
  3

 72
    65
 73
     2
 40
4.0
 49
2.0
 74
     0
 49
-2.0
 74
     0
  0
LTYPE
  5
32
100
AcDbSymbolTableRecord
100
AcDbLinetypeTableRecord
  2
PHANTOMLINIE
 70
    64
  3

 72
    65
 73
     6
 40
21.0
 49
10.0
 74
     0
 49
-2.0
 74
     0
 49
3.0
 74
     0
 49
-1.0
 74
     0
 49
3.0
 74
     0
 49
-2.0
 74
     0
  0
LTYPE
  5
33
100
AcDbSymbolTableRecord
100
AcDbLinetypeTableRecord
  2
BRUCHLINIE_1
 70
    64
  3

 72
    65
 73
     0
 40
0.0
  0
LTYPE
  5
34
100
AcDbSymbolTableRecord
100
AcDbLinetypeTableRecord
  2
BRUCHLINIE_2
 70
    64
  3

 72
    65
 73
     0
 40
0.0
  0
LTYPE
  5
35
100
AcDbSymbolTableRecord
100
AcDbLinetypeTableRecord
  2
_DURCHGEHEND
 70
    64
  3

 72
    65
 73
     0
 40
0.0
  0
LTYPE
  5
36
100
AcDbSymbolTableRecord
100
AcDbLinetypeTableRecord
  2
_GESTRICHELT
 70
    64
  3

 72
    65
 73
     2
 40
10.0
 49
5.0
 74
     0
 49
-5.0
 74
     0
  0
LTYPE
  5
37
100
AcDbSymbolTableRecord
100
AcDbLinetypeTableRecord
  2
_MITTELLINIE
 70
    64
  3

 72
    65
 73
     4
 40
20.0
 49
10.0
 74
     0
 49
-2.0
 74
     0
 49
5.0
 74
     0
 49
-3.0
 74
     0
  0
LTYPE
  5
38
100
AcDbSymbolTableRecord
100
AcDbLinetypeTableRecord
  2
_PUNKTIERT
 70
    64
  3

 72
    65
 73
     2
 40
0.25
 49
0.0
 74
     0
 49
-0.25
 74
     0
  0
LTYPE
  5
39
100
AcDbSymbolTableRecord
100
AcDbLinetypeTableRecord
  2
_STRICHPUNKTIERT
 70
    64
  3

 72
    65
 73
     4
 40
8.0
 49
5.0
 74
     0
 49
-1.0
 74
     0
 49
1.0
 74
     0
 49
-1.0
 74
     0
  0
LTYPE
  5
3A
100
AcDbSymbolTableRecord
100
AcDbLinetypeTableRecord
  2
_STRICH-PUNKT-PUNKT
 70
    64
  3

 72
    65
 73
     6
 40
10.0
 49
5.0
 74
     0
 49
-1.0
 74
     0
 49
1.0
 74
     0
 49
-1.0
 74
     0
 49
1.0
 74
     0
 49
-1.0
 74
     0
  0
LTYPE
  5
3B
100
AcDbSymbolTableRecord
100
AcDbLinetypeTableRecord
  2
_STARTPFEIL
 70
    64
  3

 72
    65
 73
     0
 40
0.0
  0
LTYPE
  5
3C
100
AcDbSymbolTableRecord
100
AcDbLinetypeTableRecord
  2
_ENDPFEIL
 70
    64
  3

 72
    65
 73
     0
 40
0.0
  0
LTYPE
  5
3D
100
AcDbSymbolTableRecord
100
AcDbLinetypeTableRecord
  2
_ENDPUNKT
 70
    64
  3

 72
    65
 73
     0
 40
0.0
  0
LTYPE
  5
3E
100
AcDbSymbolTableRecord
100
AcDbLinetypeTableRecord
  2
_PFEIL
 70
    64
  3

 72
    65
 73
     0
 40
0.0
  0
LTYPE
  5
3F
100
AcDbSymbolTableRecord
100
AcDbLinetypeTableRecord
  2
_STITCHLINE
 70
    64
  3

 72
    65
 73
     2
 40
6.0
 49
3.0
 74
     0
 49
-3.0
 74
     0
  0
LTYPE
  5
40
100
AcDbSymbolTableRecord
100
AcDbLinetypeTableRecord
  2
_MITTELLINIE_2
 70
    64
  3

 72
    65
 73
     4
 40
17.0
 49
10.0
 74
     0
 49
-2.0
 74
     0
 49
3.0
 74
     0
 49
-2.0
 74
     0
  0
LTYPE
  5
41
100
AcDbSymbolTableRecord
100
AcDbLinetypeTableRecord
  2
_VERDECKTE_LINIE
 70
    64
  3

 72
    65
 73
     2
 40
4.0
 49
2.0
 74
     0
 49
-2.0
 74
     0
  0
LTYPE
  5
42
100
AcDbSymbolTableRecord
100
AcDbLinetypeTableRecord
  2
_PHANTOMLINIE
 70
    64
  3

 72
    65
 73
     6
 40
21.0
 49
10.0
 74
     0
 49
-2.0
 74
     0
 49
3.0
 74
     0
 49
-1.0
 74
     0
 49
3.0
 74
     0
 49
-2.0
 74
     0
  0
LTYPE
  5
43
100
AcDbSymbolTableRecord
100
AcDbLinetypeTableRecord
  2
_BRUCHLINIE_1
 70
    64
  3

 72
    65
 73
     0
 40
0.0
  0
LTYPE
  5
44
100
AcDbSymbolTableRecord
100
AcDbLinetypeTableRecord
  2
_BRUCHLINIE_2
 70
    64
  3

 72
    65
 73
     0
 40
0.0
  0
LTYPE
  5
45
100
AcDbSymbolTableRecord
100
AcDbLinetypeTableRecord
  2
CONTINUOUS
 70
    64
  3

 72
    65
 73
     0
 40
0.0
  0
LTYPE
  5
46
100
AcDbSymbolTableRecord
100
AcDbLinetypeTableRecord
  2
_DURCHGEHEND
 70
    64
  3

 72
    65
 73
     0
 40
0.0
  0
LTYPE
  5
47
100
AcDbSymbolTableRecord
100
AcDbLinetypeTableRecord
  2
_GESTRICHELT
 70
    64
  3

 72
    65
 73
     2
 40
10.0
 49
5.0
 74
     0
 49
-5.0
 74
     0
  0
LTYPE
  5
48
100
AcDbSymbolTableRecord
100
AcDbLinetypeTableRecord
  2
_MITTELLINIE
 70
    64
  3

 72
    65
 73
     4
 40
20.0
 49
10.0
 74
     0
 49
-2.0
 74
     0
 49
5.0
 74
     0
 49
-3.0
 74
     0
  0
LTYPE
  5
49
100
AcDbSymbolTableRecord
100
AcDbLinetypeTableRecord
  2
_PUNKTIERT
 70
    64
  3

 72
    65
 73
     2
 40
0.25
 49
0.0
 74
     0
 49
-0.25
 74
     0
  0
LTYPE
  5
4A
100
AcDbSymbolTableRecord
100
AcDbLinetypeTableRecord
  2
_STRICHPUNKTIERT
 70
    64
  3

 72
    65
 73
     4
 40
8.0
 49
5.0
 74
     0
 49
-1.0
 74
     0
 49
1.0
 74
     0
 49
-1.0
 74
     0
  0
LTYPE
  5
4B
100
AcDbSymbolTableRecord
100
AcDbLinetypeTableRecord
  2
_STRICH-PUNKT-PUNKT
 70
    64
  3

 72
    65
 73
     6
 40
10.0
 49
5.0
 74
     0
 49
-1.0
 74
     0
 49
1.0
 74
     0
 49
-1.0
 74
     0
 49
1.0
 74
     0
 49
-1.0
 74
     0
  0
LTYPE
  5
4C
100
AcDbSymbolTableRecord
100
AcDbLinetypeTableRecord
  2
_STARTPFEIL
 70
    64
  3

 72
    65
 73
     0
 40
0.0
  0
LTYPE
  5
4D
100
AcDbSymbolTableRecord
100
AcDbLinetypeTableRecord
  2
_ENDPFEIL
 70
    64
  3

 72
    65
 73
     0
 40
0.0
  0
LTYPE
  5
4E
100
AcDbSymbolTableRecord
100
AcDbLinetypeTableRecord
  2
_ENDPUNKT
 70
    64
  3

 72
    65
 73
     0
 40
0.0
  0
LTYPE
  5
4F
100
AcDbSymbolTableRecord
100
AcDbLinetypeTableRecord
  2
_PFEIL
 70
    64
  3

 72
    65
 73
     0
 40
0.0
  0
LTYPE
  5
50
100
AcDbSymbolTableRecord
100
AcDbLinetypeTableRecord
  2
_STITCHLINE
 70
    64
  3

 72
    65
 73
     2
 40
6.0
 49
3.0
 74
     0
 49
-3.0
 74
     0
  0
LTYPE
  5
51
100
AcDbSymbolTableRecord
100
AcDbLinetypeTableRecord
  2
_MITTELLINIE_2
 70
    64
  3

 72
    65
 73
     4
 40
17.0
 49
10.0
 74
     0
 49
-2.0
 74
     0
 49
3.0
 74
     0
 49
-2.0
 74
     0
  0
LTYPE
  5
52
100
AcDbSymbolTableRecord
100
AcDbLinetypeTableRecord
  2
_VERDECKTE_LINIE
 70
    64
  3

 72
    65
 73
     2
 40
4.0
 49
2.0
 74
     0
 49
-2.0
 74
     0
  0
LTYPE
  5
53
100
AcDbSymbolTableRecord
100
AcDbLinetypeTableRecord
  2
_PHANTOMLINIE
 70
    64
  3

 72
    65
 73
     6
 40
21.0
 49
10.0
 74
     0
 49
-2.0
 74
     0
 49
3.0
 74
     0
 49
-1.0
 74
     0
 49
3.0
 74
     0
 49
-2.0
 74
     0
  0
LTYPE
  5
54
100
AcDbSymbolTableRecord
100
AcDbLinetypeTableRecord
  2
_BRUCHLINIE_1
 70
    64
  3

 72
    65
 73
     0
 40
0.0
  0
LTYPE
  5
55
100
AcDbSymbolTableRecord
100
AcDbLinetypeTableRecord
  2
_BRUCHLINIE_2
 70
    64
  3

 72
    65
 73
     0
 40
0.0
  0
LTYPE
  5
56
100
AcDbSymbolTableRecord
100
AcDbLinetypeTableRecord
  2
_DURCHGEHEND
 70
    64
  3

 72
    65
 73
     0
 40
0.0
  0
LTYPE
  5
57
100
AcDbSymbolTableRecord
100
AcDbLinetypeTableRecord
  2
_GESTRICHELT
 70
    64
  3

 72
    65
 73
     2
 40
10.0
 49
5.0
 74
     0
 49
-5.0
 74
     0
  0
LTYPE
  5
58
100
AcDbSymbolTableRecord
100
AcDbLinetypeTableRecord
  2
_MITTELLINIE
 70
    64
  3

 72
    65
 73
     4
 40
20.0
 49
10.0
 74
     0
 49
-2.0
 74
     0
 49
5.0
 74
     0
 49
-3.0
 74
     0
  0
LTYPE
  5
59
100
AcDbSymbolTableRecord
100
AcDbLinetypeTableRecord
  2
_PUNKTIERT
 70
    64
  3

 72
    65
 73
     2
 40
0.25
 49
0.0
 74
     0
 49
-0.25
 74
     0
  0
LTYPE
  5
5A
100
AcDbSymbolTableRecord
100
AcDbLinetypeTableRecord
  2
_STRICHPUNKTIERT
 70
    64
  3

 72
    65
 73
     4
 40
8.0
 49
5.0
 74
     0
 49
-1.0
 74
     0
 49
1.0
 74
     0
 49
-1.0
 74
     0
  0
LTYPE
  5
5B
100
AcDbSymbolTableRecord
100
AcDbLinetypeTableRecord
  2
_STRICH-PUNKT-PUNKT
 70
    64
  3

 72
    65
 73
     6
 40
10.0
 49
5.0
 74
     0
 49
-1.0
 74
     0
 49
1.0
 74
     0
 49
-1.0
 74
     0
 49
1.0
 74
     0
 49
-1.0
 74
     0
  0
LTYPE
  5
5C
100
AcDbSymbolTableRecord
100
AcDbLinetypeTableRecord
  2
_STARTPFEIL
 70
    64
  3

 72
    65
 73
     0
 40
0.0
  0
LTYPE
  5
5D
100
AcDbSymbolTableRecord
100
AcDbLinetypeTableRecord
  2
_ENDPFEIL
 70
    64
  3

 72
    65
 73
     0
 40
0.0
  0
LTYPE
  5
5E
100
AcDbSymbolTableRecord
100
AcDbLinetypeTableRecord
  2
_ENDPUNKT
 70
    64
  3

 72
    65
 73
     0
 40
0.0
  0
LTYPE
  5
5F
100
AcDbSymbolTableRecord
100
AcDbLinetypeTableRecord
  2
_PFEIL
 70
    64
  3

 72
    65
 73
     0
 40
0.0
  0
LTYPE
  5
60
100
AcDbSymbolTableRecord
100
AcDbLinetypeTableRecord
  2
_STITCHLINE
 70
    64
  3

 72
    65
 73
     2
 40
6.0
 49
3.0
 74
     0
 49
-3.0
 74
     0
  0
LTYPE
  5
61
100
AcDbSymbolTableRecord
100
AcDbLinetypeTableRecord
  2
_MITTELLINIE_2
 70
    64
  3

 72
    65
 73
     4
 40
17.0
 49
10.0
 74
     0
 49
-2.0
 74
     0
 49
3.0
 74
     0
 49
-2.0
 74
     0
  0
LTYPE
  5
62
100
AcDbSymbolTableRecord
100
AcDbLinetypeTableRecord
  2
_VERDECKTE_LINIE
 70
    64
  3

 72
    65
 73
     2
 40
4.0
 49
2.0
 74
     0
 49
-2.0
 74
     0
  0
LTYPE
  5
63
100
AcDbSymbolTableRecord
100
AcDbLinetypeTableRecord
  2
_PHANTOMLINIE
 70
    64
  3

 72
    65
 73
     6
 40
21.0
 49
10.0
 74
     0
 49
-2.0
 74
     0
 49
3.0
 74
     0
 49
-1.0
 74
     0
 49
3.0
 74
     0
 49
-2.0
 74
     0
  0
LTYPE
  5
64
100
AcDbSymbolTableRecord
100
AcDbLinetypeTableRecord
  2
_BRUCHLINIE_1
 70
    64
  3

 72
    65
 73
     0
 40
0.0
  0
LTYPE
  5
65
100
AcDbSymbolTableRecord
100
AcDbLinetypeTableRecord
  2
_BRUCHLINIE_2
 70
    64
  3

 72
    65
 73
     0
 40
0.0
  0
LTYPE
  5
66
100
AcDbSymbolTableRecord
100
AcDbLinetypeTableRecord
  2
SLDCENTERLINES0
 70
    64
  3

 72
    65
 73
     4
 40
19.05
 49
15.24
 74
     0
 49
-1.27
 74
     0
 49
1.27
 74
     0
 49
-1.27
 74
     0
  0
LTYPE
  5
67
100
AcDbSymbolTableRecord
100
AcDbLinetypeTableRecord
  2
SLDTANVISIBLE0
 70
    64
  3

 72
    65
 73
     6
 40
12.7
 49
6.35
 74
     0
 49
-1.27
 74
     0
 49
1.27
 74
     0
 49
-1.27
 74
     0
 49
1.27
 74
     0
 49
-1.27
 74
     0
  0
LTYPE
  5
68
100
AcDbSymbolTableRecord
100
AcDbLinetypeTableRecord
  2
_DURCHGEHEND
 70
    64
  3

 72
    65
 73
     0
 40
0.0
  0
LTYPE
  5
69
100
AcDbSymbolTableRecord
100
AcDbLinetypeTableRecord
  2
_GESTRICHELT
 70
    64
  3

 72
    65
 73
     2
 40
10.0
 49
5.0
 74
     0
 49
-5.0
 74
     0
  0
LTYPE
  5
6A
100
AcDbSymbolTableRecord
100
AcDbLinetypeTableRecord
  2
_MITTELLINIE
 70
    64
  3

 72
    65
 73
     4
 40
20.0
 49
10.0
 74
     0
 49
-2.0
 74
     0
 49
5.0
 74
     0
 49
-3.0
 74
     0
  0
LTYPE
  5
6B
100
AcDbSymbolTableRecord
100
AcDbLinetypeTableRecord
  2
_PUNKTIERT
 70
    64
  3

 72
    65
 73
     2
 40
0.25
 49
0.0
 74
     0
 49
-0.25
 74
     0
  0
LTYPE
  5
6C
100
AcDbSymbolTableRecord
100
AcDbLinetypeTableRecord
  2
_STRICHPUNKTIERT
 70
    64
  3

 72
    65
 73
     4
 40
8.0
 49
5.0
 74
     0
 49
-1.0
 74
     0
 49
1.0
 74
     0
 49
-1.0
 74
     0
  0
LTYPE
  5
6D
100
AcDbSymbolTableRecord
100
AcDbLinetypeTableRecord
  2
_STRICH-PUNKT-PUNKT
 70
    64
  3

 72
    65
 73
     6
 40
10.0
 49
5.0
 74
     0
 49
-1.0
 74
     0
 49
1.0
 74
     0
 49
-1.0
 74
     0
 49
1.0
 74
     0
 49
-1.0
 74
     0
  0
LTYPE
  5
6E
100
AcDbSymbolTableRecord
100
AcDbLinetypeTableRecord
  2
_STARTPFEIL
 70
    64
  3

 72
    65
 73
     0
 40
0.0
  0
LTYPE
  5
6F
100
AcDbSymbolTableRecord
100
AcDbLinetypeTableRecord
  2
_ENDPFEIL
 70
    64
  3

 72
    65
 73
     0
 40
0.0
  0
LTYPE
  5
70
100
AcDbSymbolTableRecord
100
AcDbLinetypeTableRecord
  2
_ENDPUNKT
 70
    64
  3

 72
    65
 73
     0
 40
0.0
  0
LTYPE
  5
71
100
AcDbSymbolTableRecord
100
AcDbLinetypeTableRecord
  2
_PFEIL
 70
    64
  3

 72
    65
 73
     0
 40
0.0
  0
LTYPE
  5
72
100
AcDbSymbolTableRecord
100
AcDbLinetypeTableRecord
  2
_STITCHLINE
 70
    64
  3

 72
    65
 73
     2
 40
6.0
 49
3.0
 74
     0
 49
-3.0
 74
     0
  0
LTYPE
  5
73
100
AcDbSymbolTableRecord
100
AcDbLinetypeTableRecord
  2
_MITTELLINIE_2
 70
    64
  3

 72
    65
 73
     4
 40
17.0
 49
10.0
 74
     0
 49
-2.0
 74
     0
 49
3.0
 74
     0
 49
-2.0
 74
     0
  0
LTYPE
  5
74
100
AcDbSymbolTableRecord
100
AcDbLinetypeTableRecord
  2
_VERDECKTE_LINIE
 70
    64
  3

 72
    65
 73
     2
 40
4.0
 49
2.0
 74
     0
 49
-2.0
 74
     0
  0
LTYPE
  5
75
100
AcDbSymbolTableRecord
100
AcDbLinetypeTableRecord
  2
_PHANTOMLINIE
 70
    64
  3

 72
    65
 73
     6
 40
21.0
 49
10.0
 74
     0
 49
-2.0
 74
     0
 49
3.0
 74
     0
 49
-1.0
 74
     0
 49
3.0
 74
     0
 49
-2.0
 74
     0
  0
LTYPE
  5
76
100
AcDbSymbolTableRecord
100
AcDbLinetypeTableRecord
  2
_BRUCHLINIE_1
 70
    64
  3

 72
    65
 73
     0
 40
0.0
  0
LTYPE
  5
77
100
AcDbSymbolTableRecord
100
AcDbLinetypeTableRecord
  2
_BRUCHLINIE_2
 70
    64
  3

 72
    65
 73
     0
 40
0.0
  0
LTYPE
  5
78
100
AcDbSymbolTableRecord
100
AcDbLinetypeTableRecord
  2
_DURCHGEHEND
 70
    64
  3

 72
    65
 73
     0
 40
0.0
  0
LTYPE
  5
79
100
AcDbSymbolTableRecord
100
AcDbLinetypeTableRecord
  2
_GESTRICHELT
 70
    64
  3

 72
    65
 73
     2
 40
10.0
 49
5.0
 74
     0
 49
-5.0
 74
     0
  0
LTYPE
  5
7A
100
AcDbSymbolTableRecord
100
AcDbLinetypeTableRecord
  2
_MITTELLINIE
 70
    64
  3

 72
    65
 73
     4
 40
20.0
 49
10.0
 74
     0
 49
-2.0
 74
     0
 49
5.0
 74
     0
 49
-3.0
 74
     0
  0
LTYPE
  5
7B
100
AcDbSymbolTableRecord
100
AcDbLinetypeTableRecord
  2
_PUNKTIERT
 70
    64
  3

 72
    65
 73
     2
 40
0.25
 49
0.0
 74
     0
 49
-0.25
 74
     0
  0
LTYPE
  5
7C
100
AcDbSymbolTableRecord
100
AcDbLinetypeTableRecord
  2
_STRICHPUNKTIERT
 70
    64
  3

 72
    65
 73
     4
 40
8.0
 49
5.0
 74
     0
 49
-1.0
 74
     0
 49
1.0
 74
     0
 49
-1.0
 74
     0
  0
LTYPE
  5
7D
100
AcDbSymbolTableRecord
100
AcDbLinetypeTableRecord
  2
_STRICH-PUNKT-PUNKT
 70
    64
  3

 72
    65
 73
     6
 40
10.0
 49
5.0
 74
     0
 49
-1.0
 74
     0
 49
1.0
 74
     0
 49
-1.0
 74
     0
 49
1.0
 74
     0
 49
-1.0
 74
     0
  0
LTYPE
  5
7E
100
AcDbSymbolTableRecord
100
AcDbLinetypeTableRecord
  2
_STARTPFEIL
 70
    64
  3

 72
    65
 73
     0
 40
0.0
  0
LTYPE
  5
7F
100
AcDbSymbolTableRecord
100
AcDbLinetypeTableRecord
  2
_ENDPFEIL
 70
    64
  3

 72
    65
 73
     0
 40
0.0
  0
LTYPE
  5
80
100
AcDbSymbolTableRecord
100
AcDbLinetypeTableRecord
  2
_ENDPUNKT
 70
    64
  3

 72
    65
 73
     0
 40
0.0
  0
LTYPE
  5
81
100
AcDbSymbolTableRecord
100
AcDbLinetypeTableRecord
  2
_PFEIL
 70
    64
  3

 72
    65
 73
     0
 40
0.0
  0
LTYPE
  5
82
100
AcDbSymbolTableRecord
100
AcDbLinetypeTableRecord
  2
_STITCHLINE
 70
    64
  3

 72
    65
 73
     2
 40
6.0
 49
3.0
 74
     0
 49
-3.0
 74
     0
  0
LTYPE
  5
83
100
AcDbSymbolTableRecord
100
AcDbLinetypeTableRecord
  2
_MITTELLINIE_2
 70
    64
  3

 72
    65
 73
     4
 40
17.0
 49
10.0
 74
     0
 49
-2.0
 74
     0
 49
3.0
 74
     0
 49
-2.0
 74
     0
  0
LTYPE
  5
84
100
AcDbSymbolTableRecord
100
AcDbLinetypeTableRecord
  2
_VERDECKTE_LINIE
 70
    64
  3

 72
    65
 73
     2
 40
4.0
 49
2.0
 74
     0
 49
-2.0
 74
     0
  0
LTYPE
  5
85
100
AcDbSymbolTableRecord
100
AcDbLinetypeTableRecord
  2
_PHANTOMLINIE
 70
    64
  3

 72
    65
 73
     6
 40
21.0
 49
10.0
 74
     0
 49
-2.0
 74
     0
 49
3.0
 74
     0
 49
-1.0
 74
     0
 49
3.0
 74
     0
 49
-2.0
 74
     0
  0
LTYPE
  5
86
100
AcDbSymbolTableRecord
100
AcDbLinetypeTableRecord
  2
_BRUCHLINIE_1
 70
    64
  3

 72
    65
 73
     0
 40
0.0
  0
LTYPE
  5
87
100
AcDbSymbolTableRecord
100
AcDbLinetypeTableRecord
  2
_BRUCHLINIE_2
 70
    64
  3

 72
    65
 73
     0
 40
0.0
  0
LTYPE
  5
88
100
AcDbSymbolTableRecord
100
AcDbLinetypeTableRecord
  2
_DURCHGEHEND
 70
    64
  3

 72
    65
 73
     0
 40
0.0
  0
LTYPE
  5
89
100
AcDbSymbolTableRecord
100
AcDbLinetypeTableRecord
  2
_GESTRICHELT
 70
    64
  3

 72
    65
 73
     2
 40
10.0
 49
5.0
 74
     0
 49
-5.0
 74
     0
  0
LTYPE
  5
8A
100
AcDbSymbolTableRecord
100
AcDbLinetypeTableRecord
  2
_MITTELLINIE
 70
    64
  3

 72
    65
 73
     4
 40
20.0
 49
10.0
 74
     0
 49
-2.0
 74
     0
 49
5.0
 74
     0
 49
-3.0
 74
     0
  0
LTYPE
  5
8B
100
AcDbSymbolTableRecord
100
AcDbLinetypeTableRecord
  2
_PUNKTIERT
 70
    64
  3

 72
    65
 73
     2
 40
0.25
 49
0.0
 74
     0
 49
-0.25
 74
     0
  0
LTYPE
  5
8C
100
AcDbSymbolTableRecord
100
AcDbLinetypeTableRecord
  2
_STRICHPUNKTIERT
 70
    64
  3

 72
    65
 73
     4
 40
8.0
 49
5.0
 74
     0
 49
-1.0
 74
     0
 49
1.0
 74
     0
 49
-1.0
 74
     0
  0
LTYPE
  5
8D
100
AcDbSymbolTableRecord
100
AcDbLinetypeTableRecord
  2
_STRICH-PUNKT-PUNKT
 70
    64
  3

 72
    65
 73
     6
 40
10.0
 49
5.0
 74
     0
 49
-1.0
 74
     0
 49
1.0
 74
     0
 49
-1.0
 74
     0
 49
1.0
 74
     0
 49
-1.0
 74
     0
  0
LTYPE
  5
8E
100
AcDbSymbolTableRecord
100
AcDbLinetypeTableRecord
  2
_STARTPFEIL
 70
    64
  3

 72
    65
 73
     0
 40
0.0
  0
LTYPE
  5
8F
100
AcDbSymbolTableRecord
100
AcDbLinetypeTableRecord
  2
_ENDPFEIL
 70
    64
  3

 72
    65
 73
     0
 40
0.0
  0
LTYPE
  5
90
100
AcDbSymbolTableRecord
100
AcDbLinetypeTableRecord
  2
_ENDPUNKT
 70
    64
  3

 72
    65
 73
     0
 40
0.0
  0
LTYPE
  5
91
100
AcDbSymbolTableRecord
100
AcDbLinetypeTableRecord
  2
_PFEIL
 70
    64
  3

 72
    65
 73
     0
 40
0.0
  0
LTYPE
  5
92
100
AcDbSymbolTableRecord
100
AcDbLinetypeTableRecord
  2
_STITCHLINE
 70
    64
  3

 72
    65
 73
     2
 40
6.0
 49
3.0
 74
     0
 49
-3.0
 74
     0
  0
LTYPE
  5
93
100
AcDbSymbolTableRecord
100
AcDbLinetypeTableRecord
  2
_MITTELLINIE_2
 70
    64
  3

 72
    65
 73
     4
 40
17.0
 49
10.0
 74
     0
 49
-2.0
 74
     0
 49
3.0
 74
     0
 49
-2.0
 74
     0
  0
LTYPE
  5
94
100
AcDbSymbolTableRecord
100
AcDbLinetypeTableRecord
  2
_VERDECKTE_LINIE
 70
    64
  3

 72
    65
 73
     2
 40
4.0
 49
2.0
 74
     0
 49
-2.0
 74
     0
  0
LTYPE
  5
95
100
AcDbSymbolTableRecord
100
AcDbLinetypeTableRecord
  2
_PHANTOMLINIE
 70
    64
  3

 72
    65
 73
     6
 40
21.0
 49
10.0
 74
     0
 49
-2.0
 74
     0
 49
3.0
 74
     0
 49
-1.0
 74
     0
 49
3.0
 74
     0
 49
-2.0
 74
     0
  0
LTYPE
  5
96
100
AcDbSymbolTableRecord
100
AcDbLinetypeTableRecord
  2
_BRUCHLINIE_1
 70
    64
  3

 72
    65
 73
     0
 40
0.0
  0
LTYPE
  5
97
100
AcDbSymbolTableRecord
100
AcDbLinetypeTableRecord
  2
_BRUCHLINIE_2
 70
    64
  3

 72
    65
 73
     0
 40
0.0
  0
LTYPE
  5
98
100
AcDbSymbolTableRecord
100
AcDbLinetypeTableRecord
  2
_DURCHGEHEND
 70
    64
  3

 72
    65
 73
     0
 40
0.0
  0
LTYPE
  5
99
100
AcDbSymbolTableRecord
100
AcDbLinetypeTableRecord
  2
_GESTRICHELT
 70
    64
  3

 72
    65
 73
     2
 40
10.0
 49
5.0
 74
     0
 49
-5.0
 74
     0
  0
LTYPE
  5
9A
100
AcDbSymbolTableRecord
100
AcDbLinetypeTableRecord
  2
_MITTELLINIE
 70
    64
  3

 72
    65
 73
     4
 40
20.0
 49
10.0
 74
     0
 49
-2.0
 74
     0
 49
5.0
 74
     0
 49
-3.0
 74
     0
  0
LTYPE
  5
9B
100
AcDbSymbolTableRecord
100
AcDbLinetypeTableRecord
  2
_PUNKTIERT
 70
    64
  3

 72
    65
 73
     2
 40
0.25
 49
0.0
 74
     0
 49
-0.25
 74
     0
  0
LTYPE
  5
9C
100
AcDbSymbolTableRecord
100
AcDbLinetypeTableRecord
  2
_STRICHPUNKTIERT
 70
    64
  3

 72
    65
 73
     4
 40
8.0
 49
5.0
 74
     0
 49
-1.0
 74
     0
 49
1.0
 74
     0
 49
-1.0
 74
     0
  0
LTYPE
  5
9D
100
AcDbSymbolTableRecord
100
AcDbLinetypeTableRecord
  2
_STRICH-PUNKT-PUNKT
 70
    64
  3

 72
    65
 73
     6
 40
10.0
 49
5.0
 74
     0
 49
-1.0
 74
     0
 49
1.0
 74
     0
 49
-1.0
 74
     0
 49
1.0
 74
     0
 49
-1.0
 74
     0
  0
LTYPE
  5
9E
100
AcDbSymbolTableRecord
100
AcDbLinetypeTableRecord
  2
_STARTPFEIL
 70
    64
  3

 72
    65
 73
     0
 40
0.0
  0
LTYPE
  5
9F
100
AcDbSymbolTableRecord
100
AcDbLinetypeTableRecord
  2
_ENDPFEIL
 70
    64
  3

 72
    65
 73
     0
 40
0.0
  0
LTYPE
  5
A0
100
AcDbSymbolTableRecord
100
AcDbLinetypeTableRecord
  2
_ENDPUNKT
 70
    64
  3

 72
    65
 73
     0
 40
0.0
  0
LTYPE
  5
A1
100
AcDbSymbolTableRecord
100
AcDbLinetypeTableRecord
  2
_PFEIL
 70
    64
  3

 72
    65
 73
     0
 40
0.0
  0
LTYPE
  5
A2
100
AcDbSymbolTableRecord
100
AcDbLinetypeTableRecord
  2
_STITCHLINE
 70
    64
  3

 72
    65
 73
     2
 40
6.0
 49
3.0
 74
     0
 49
-3.0
 74
     0
  0
LTYPE
  5
A3
100
AcDbSymbolTableRecord
100
AcDbLinetypeTableRecord
  2
_MITTELLINIE_2
 70
    64
  3

 72
    65
 73
     4
 40
17.0
 49
10.0
 74
     0
 49
-2.0
 74
     0
 49
3.0
 74
     0
 49
-2.0
 74
     0
  0
LTYPE
  5
A4
100
AcDbSymbolTableRecord
100
AcDbLinetypeTableRecord
  2
_VERDECKTE_LINIE
 70
    64
  3

 72
    65
 73
     2
 40
4.0
 49
2.0
 74
     0
 49
-2.0
 74
     0
  0
LTYPE
  5
A5
100
AcDbSymbolTableRecord
100
AcDbLinetypeTableRecord
  2
_PHANTOMLINIE
 70
    64
  3

 72
    65
 73
     6
 40
21.0
 49
10.0
 74
     0
 49
-2.0
 74
     0
 49
3.0
 74
     0
 49
-1.0
 74
     0
 49
3.0
 74
     0
 49
-2.0
 74
     0
  0
LTYPE
  5
A6
100
AcDbSymbolTableRecord
100
AcDbLinetypeTableRecord
  2
_BRUCHLINIE_1
 70
    64
  3

 72
    65
 73
     0
 40
0.0
  0
LTYPE
  5
A7
100
AcDbSymbolTableRecord
100
AcDbLinetypeTableRecord
  2
_BRUCHLINIE_2
 70
    64
  3

 72
    65
 73
     0
 40
0.0
  0
LTYPE
  5
A8
100
AcDbSymbolTableRecord
100
AcDbLinetypeTableRecord
  2
_DURCHGEHEND
 70
    64
  3

 72
    65
 73
     0
 40
0.0
  0
LTYPE
  5
A9
100
AcDbSymbolTableRecord
100
AcDbLinetypeTableRecord
  2
_GESTRICHELT
 70
    64
  3

 72
    65
 73
     2
 40
10.0
 49
5.0
 74
     0
 49
-5.0
 74
     0
  0
LTYPE
  5
AA
100
AcDbSymbolTableRecord
100
AcDbLinetypeTableRecord
  2
_MITTELLINIE
 70
    64
  3

 72
    65
 73
     4
 40
20.0
 49
10.0
 74
     0
 49
-2.0
 74
     0
 49
5.0
 74
     0
 49
-3.0
 74
     0
  0
LTYPE
  5
AB
100
AcDbSymbolTableRecord
100
AcDbLinetypeTableRecord
  2
_PUNKTIERT
 70
    64
  3

 72
    65
 73
     2
 40
0.25
 49
0.0
 74
     0
 49
-0.25
 74
     0
  0
LTYPE
  5
AC
100
AcDbSymbolTableRecord
100
AcDbLinetypeTableRecord
  2
_STRICHPUNKTIERT
 70
    64
  3

 72
    65
 73
     4
 40
8.0
 49
5.0
 74
     0
 49
-1.0
 74
     0
 49
1.0
 74
     0
 49
-1.0
 74
     0
  0
LTYPE
  5
AD
100
AcDbSymbolTableRecord
100
AcDbLinetypeTableRecord
  2
_STRICH-PUNKT-PUNKT
 70
    64
  3

 72
    65
 73
     6
 40
10.0
 49
5.0
 74
     0
 49
-1.0
 74
     0
 49
1.0
 74
     0
 49
-1.0
 74
     0
 49
1.0
 74
     0
 49
-1.0
 74
     0
  0
LTYPE
  5
AE
100
AcDbSymbolTableRecord
100
AcDbLinetypeTableRecord
  2
_STARTPFEIL
 70
    64
  3

 72
    65
 73
     0
 40
0.0
  0
LTYPE
  5
AF
100
AcDbSymbolTableRecord
100
AcDbLinetypeTableRecord
  2
_ENDPFEIL
 70
    64
  3

 72
    65
 73
     0
 40
0.0
  0
LTYPE
  5
B0
100
AcDbSymbolTableRecord
100
AcDbLinetypeTableRecord
  2
_ENDPUNKT
 70
    64
  3

 72
    65
 73
     0
 40
0.0
  0
LTYPE
  5
B1
100
AcDbSymbolTableRecord
100
AcDbLinetypeTableRecord
  2
_PFEIL
 70
    64
  3

 72
    65
 73
     0
 40
0.0
  0
LTYPE
  5
B2
100
AcDbSymbolTableRecord
100
AcDbLinetypeTableRecord
  2
_STITCHLINE
 70
    64
  3

 72
    65
 73
     2
 40
6.0
 49
3.0
 74
     0
 49
-3.0
 74
     0
  0
LTYPE
  5
B3
100
AcDbSymbolTableRecord
100
AcDbLinetypeTableRecord
  2
_MITTELLINIE_2
 70
    64
  3

 72
    65
 73
     4
 40
17.0
 49
10.0
 74
     0
 49
-2.0
 74
     0
 49
3.0
 74
     0
 49
-2.0
 74
     0
  0
LTYPE
  5
B4
100
AcDbSymbolTableRecord
100
AcDbLinetypeTableRecord
  2
_VERDECKTE_LINIE
 70
    64
  3

 72
    65
 73
     2
 40
4.0
 49
2.0
 74
     0
 49
-2.0
 74
     0
  0
LTYPE
  5
B5
100
AcDbSymbolTableRecord
100
AcDbLinetypeTableRecord
  2
_PHANTOMLINIE
 70
    64
  3

 72
    65
 73
     6
 40
21.0
 49
10.0
 74
     0
 49
-2.0
 74
     0
 49
3.0
 74
     0
 49
-1.0
 74
     0
 49
3.0
 74
     0
 49
-2.0
 74
     0
  0
LTYPE
  5
B6
100
AcDbSymbolTableRecord
100
AcDbLinetypeTableRecord
  2
_BRUCHLINIE_1
 70
    64
  3

 72
    65
 73
     0
 40
0.0
  0
LTYPE
  5
B7
100
AcDbSymbolTableRecord
100
AcDbLinetypeTableRecord
  2
_BRUCHLINIE_2
 70
    64
  3

 72
    65
 73
     0
 40
0.0
  0
LTYPE
  5
B8
100
AcDbSymbolTableRecord
100
AcDbLinetypeTableRecord
  2
4_2-0_7-0_7-0_7
 70
    64
  3

 72
    65
 73
     4
 40
6.35
 49
4.233334
 74
     0
 49
-0.705556
 74
     0
 49
0.705556
 74
     0
 49
-0.705556
 74
     0
  0
LTYPE
  5
B9
100
AcDbSymbolTableRecord
100
AcDbLinetypeTableRecord
  2
0_7-0_7
 70
    64
  3

 72
    65
 73
     2
 40
1.411111
 49
0.705556
 74
     0
 49
-0.705556
 74
     0
  0
LTYPE
  5
BA
100
AcDbSymbolTableRecord
100
AcDbLinetypeTableRecord
  2
_DURCHGEHEND
 70
    64
  3

 72
    65
 73
     0
 40
0.0
  0
LTYPE
  5
BB
100
AcDbSymbolTableRecord
100
AcDbLinetypeTableRecord
  2
_GESTRICHELT
 70
    64
  3

 72
    65
 73
     2
 40
10.0
 49
5.0
 74
     0
 49
-5.0
 74
     0
  0
LTYPE
  5
BC
100
AcDbSymbolTableRecord
100
AcDbLinetypeTableRecord
  2
_MITTELLINIE
 70
    64
  3

 72
    65
 73
     4
 40
20.0
 49
10.0
 74
     0
 49
-2.0
 74
     0
 49
5.0
 74
     0
 49
-3.0
 74
     0
  0
LTYPE
  5
BD
100
AcDbSymbolTableRecord
100
AcDbLinetypeTableRecord
  2
_PUNKTIERT
 70
    64
  3

 72
    65
 73
     2
 40
0.25
 49
0.0
 74
     0
 49
-0.25
 74
     0
  0
LTYPE
  5
BE
100
AcDbSymbolTableRecord
100
AcDbLinetypeTableRecord
  2
_STRICHPUNKTIERT
 70
    64
  3

 72
    65
 73
     4
 40
8.0
 49
5.0
 74
     0
 49
-1.0
 74
     0
 49
1.0
 74
     0
 49
-1.0
 74
     0
  0
LTYPE
  5
BF
100
AcDbSymbolTableRecord
100
AcDbLinetypeTableRecord
  2
_STRICH-PUNKT-PUNKT
 70
    64
  3

 72
    65
 73
     6
 40
10.0
 49
5.0
 74
     0
 49
-1.0
 74
     0
 49
1.0
 74
     0
 49
-1.0
 74
     0
 49
1.0
 74
     0
 49
-1.0
 74
     0
  0
LTYPE
  5
C0
100
AcDbSymbolTableRecord
100
AcDbLinetypeTableRecord
  2
_STARTPFEIL
 70
    64
  3

 72
    65
 73
     0
 40
0.0
  0
LTYPE
  5
C1
100
AcDbSymbolTableRecord
100
AcDbLinetypeTableRecord
  2
_ENDPFEIL
 70
    64
  3

 72
    65
 73
     0
 40
0.0
  0
LTYPE
  5
C2
100
AcDbSymbolTableRecord
100
AcDbLinetypeTableRecord
  2
_ENDPUNKT
 70
    64
  3

 72
    65
 73
     0
 40
0.0
  0
LTYPE
  5
C3
100
AcDbSymbolTableRecord
100
AcDbLinetypeTableRecord
  2
_PFEIL
 70
    64
  3

 72
    65
 73
     0
 40
0.0
  0
LTYPE
  5
C4
100
AcDbSymbolTableRecord
100
AcDbLinetypeTableRecord
  2
_STITCHLINE
 70
    64
  3

 72
    65
 73
     2
 40
6.0
 49
3.0
 74
     0
 49
-3.0
 74
     0
  0
LTYPE
  5
C5
100
AcDbSymbolTableRecord
100
AcDbLinetypeTableRecord
  2
_MITTELLINIE_2
 70
    64
  3

 72
    65
 73
     4
 40
17.0
 49
10.0
 74
     0
 49
-2.0
 74
     0
 49
3.0
 74
     0
 49
-2.0
 74
     0
  0
LTYPE
  5
C6
100
AcDbSymbolTableRecord
100
AcDbLinetypeTableRecord
  2
_VERDECKTE_LINIE
 70
    64
  3

 72
    65
 73
     2
 40
4.0
 49
2.0
 74
     0
 49
-2.0
 74
     0
  0
LTYPE
  5
C7
100
AcDbSymbolTableRecord
100
AcDbLinetypeTableRecord
  2
_PHANTOMLINIE
 70
    64
  3

 72
    65
 73
     6
 40
21.0
 49
10.0
 74
     0
 49
-2.0
 74
     0
 49
3.0
 74
     0
 49
-1.0
 74
     0
 49
3.0
 74
     0
 49
-2.0
 74
     0
  0
LTYPE
  5
C8
100
AcDbSymbolTableRecord
100
AcDbLinetypeTableRecord
  2
_BRUCHLINIE_1
 70
    64
  3

 72
    65
 73
     0
 40
0.0
  0
LTYPE
  5
C9
100
AcDbSymbolTableRecord
100
AcDbLinetypeTableRecord
  2
_BRUCHLINIE_2
 70
    64
  3

 72
    65
 73
     0
 40
0.0
  0
LTYPE
  5
CA
100
AcDbSymbolTableRecord
100
AcDbLinetypeTableRecord
  2
_DURCHGEHEND
 70
    64
  3

 72
    65
 73
     0
 40
0.0
  0
LTYPE
  5
CB
100
AcDbSymbolTableRecord
100
AcDbLinetypeTableRecord
  2
_GESTRICHELT
 70
    64
  3

 72
    65
 73
     2
 40
10.0
 49
5.0
 74
     0
 49
-5.0
 74
     0
  0
LTYPE
  5
CC
100
AcDbSymbolTableRecord
100
AcDbLinetypeTableRecord
  2
_MITTELLINIE
 70
    64
  3

 72
    65
 73
     4
 40
20.0
 49
10.0
 74
     0
 49
-2.0
 74
     0
 49
5.0
 74
     0
 49
-3.0
 74
     0
  0
LTYPE
  5
CD
100
AcDbSymbolTableRecord
100
AcDbLinetypeTableRecord
  2
_PUNKTIERT
 70
    64
  3

 72
    65
 73
     2
 40
0.25
 49
0.0
 74
     0
 49
-0.25
 74
     0
  0
LTYPE
  5
CE
100
AcDbSymbolTableRecord
100
AcDbLinetypeTableRecord
  2
_STRICHPUNKTIERT
 70
    64
  3

 72
    65
 73
     4
 40
8.0
 49
5.0
 74
     0
 49
-1.0
 74
     0
 49
1.0
 74
     0
 49
-1.0
 74
     0
  0
LTYPE
  5
CF
100
AcDbSymbolTableRecord
100
AcDbLinetypeTableRecord
  2
_STRICH-PUNKT-PUNKT
 70
    64
  3

 72
    65
 73
     6
 40
10.0
 49
5.0
 74
     0
 49
-1.0
 74
     0
 49
1.0
 74
     0
 49
-1.0
 74
     0
 49
1.0
 74
     0
 49
-1.0
 74
     0
  0
LTYPE
  5
D0
100
AcDbSymbolTableRecord
100
AcDbLinetypeTableRecord
  2
_STARTPFEIL
 70
    64
  3

 72
    65
 73
     0
 40
0.0
  0
LTYPE
  5
D1
100
AcDbSymbolTableRecord
100
AcDbLinetypeTableRecord
  2
_ENDPFEIL
 70
    64
  3

 72
    65
 73
     0
 40
0.0
  0
LTYPE
  5
D2
100
AcDbSymbolTableRecord
100
AcDbLinetypeTableRecord
  2
_ENDPUNKT
 70
    64
  3

 72
    65
 73
     0
 40
0.0
  0
LTYPE
  5
D3
100
AcDbSymbolTableRecord
100
AcDbLinetypeTableRecord
  2
_PFEIL
 70
    64
  3

 72
    65
 73
     0
 40
0.0
  0
LTYPE
  5
D4
100
AcDbSymbolTableRecord
100
AcDbLinetypeTableRecord
  2
_STITCHLINE
 70
    64
  3

 72
    65
 73
     2
 40
6.0
 49
3.0
 74
     0
 49
-3.0
 74
     0
  0
LTYPE
  5
D5
100
AcDbSymbolTableRecord
100
AcDbLinetypeTableRecord
  2
_MITTELLINIE_2
 70
    64
  3

 72
    65
 73
     4
 40
17.0
 49
10.0
 74
     0
 49
-2.0
 74
     0
 49
3.0
 74
     0
 49
-2.0
 74
     0
  0
LTYPE
  5
D6
100
AcDbSymbolTableRecord
100
AcDbLinetypeTableRecord
  2
_VERDECKTE_LINIE
 70
    64
  3

 72
    65
 73
     2
 40
4.0
 49
2.0
 74
     0
 49
-2.0
 74
     0
  0
LTYPE
  5
D7
100
AcDbSymbolTableRecord
100
AcDbLinetypeTableRecord
  2
_PHANTOMLINIE
 70
    64
  3

 72
    65
 73
     6
 40
21.0
 49
10.0
 74
     0
 49
-2.0
 74
     0
 49
3.0
 74
     0
 49
-1.0
 74
     0
 49
3.0
 74
     0
 49
-2.0
 74
     0
  0
LTYPE
  5
D8
100
AcDbSymbolTableRecord
100
AcDbLinetypeTableRecord
  2
_BRUCHLINIE_1
 70
    64
  3

 72
    65
 73
     0
 40
0.0
  0
LTYPE
  5
D9
100
AcDbSymbolTableRecord
100
AcDbLinetypeTableRecord
  2
_BRUCHLINIE_2
 70
    64
  3

 72
    65
 73
     0
 40
0.0
  0
LTYPE
  5
DA
100
AcDbSymbolTableRecord
100
AcDbLinetypeTableRecord
  2
SLDUSER-DASHED0
 70
    64
  3

 72
    65
 73
     2
 40
1.905
 49
1.27
 74
     0
 49
-0.635
 74
     0
  0
ENDTAB
  0
TABLE
  2
LAYER
  5
2
100
AcDbSymbolTable
 70
     7
  0
LAYER
  5
14
100
AcDbSymbolTableRecord
100
AcDbLayerTableRecord
  2
0
 70
     0
 62
     7
  6
Continuous
290
     1
370
    -3
390
1D
  0
LAYER
  5
DB
100
AcDbSymbolTableRecord
100
AcDbLayerTableRecord
  2
STANDARDEBENE
 70
     0
 62
     7
  6
Continuous
290
     1
370
    -3
390
1D
  0
LAYER
  5
DC
100
AcDbSymbolTableRecord
100
AcDbLayerTableRecord
  2
ARMATUR
 70
     0
 62
     7
  6
Continuous
290
     1
370
    -3
390
1D
  0
LAYER
  5
DD
100
AcDbSymbolTableRecord
100
AcDbLayerTableRecord
  2
ACHSEN
 70
     0
 62
     7
  6
Continuous
290
     1
370
    -3
390
1D
  0
LAYER
  5
DE
100
AcDbSymbolTableRecord
100
AcDbLayerTableRecord
  2
BEMASSUNG
 70
     0
 62
     7
  6
Continuous
290
     1
370
    -3
390
1D
  0
LAYER
  5
DF
100
AcDbSymbolTableRecord
100
AcDbLayerTableRecord
  2
WAND
 70
     0
 62
     7
  6
Continuous
290
     1
370
    -3
390
1D
  0
LAYER
  5
E0
100
AcDbSymbolTableRecord
100
AcDbLayerTableRecord
  2
ANSICHT
 70
     0
 62
     7
  6
Continuous
290
     1
370
    -3
390
1D
  0
ENDTAB
  0
TABLE
  2
STYLE
  5
3
100
AcDbSymbolTable
 70
     1
  0
STYLE
  5
17
100
AcDbSymbolTableRecord
100
AcDbTextStyleTableRecord
  2
Standard
 70
     0
 40
0.0
 41
1.0
 50
0.0
 71
     0
 42
0.0
  3
txt
  4

  0
ENDTAB
  0
TABLE
  2
VIEW
  5
5
100
AcDbSymbolTable
 70
     0
  0
ENDTAB
  0
TABLE
  2
UCS
  5
6
100
AcDbSymbolTable
 70
     1
  0
UCS
  5
24
100
AcDbSymbolTableRecord
100
AcDbUCSTableRecord
  2
ISODRAW_6_2
 70
     0
 10
0.0
 20
0.0
 30
0.0
 11
0.0
 21
1.0
 31
0.0
 12
0.0
 22
0.0
 32
1.0
 79
     0
146
0.0
  0
ENDTAB
  0
TABLE
  2
APPID
  5
8
100
AcDbSymbolTable
 70
     1
  0
APPID
  5
16
100
AcDbSymbolTableRecord
100
AcDbRegAppTableRecord
  2
ACAD
 70
     0
  0
ENDTAB
  0
TABLE
  2
DIMSTYLE
  5
9
100
AcDbSymbolTable
 70
     1
100
AcDbDimStyleTable
 71
     0
  0
DIMSTYLE
105
18
100
AcDbSymbolTableRecord
100
AcDbDimStyleTableRecord
  2
Standard
 70
     0
  3

  4

 40
1.0
 41
0.18
 42
0.0625
 43
0.38
 44
0.18
 45
0.0
 46
0.0
 47
0.0
 48
0.0
 71
     0
 72
     0
 73
     1
 74
     1
 75
     0
 76
     0
 77
     0
 78
     0
 79
     0
140
0.18
141
0.09
142
0.0
143
25.4
144
1.0
145
0.0
146
1.0
147
0.09
148
0.0
170
     0
171
     2
172
     0
173
     0
174
     0
175
     0
176
     0
177
     0
178
     0
179
     0
271
     4
272
     4
273
     2
274
     2
275
     0
276
     0
277
     2
278
    46
279
     0
280
     0
281
     0
282
     0
283
     1
284
     0
285
     0
286
     0
288
     0
289
     3
340
17
341
0
342
0
343
0
344
0
371
    -2
372
    -2
  0
ENDTAB
  0
TABLE
  2
BLOCK_RECORD
  5
1
100
AcDbSymbolTable
 70
     0
  0
BLOCK_RECORD
  5
A
100
AcDbSymbolTableRecord
100
AcDbBlockTableRecord
  2
*MODEL_SPACE
340
20
  0
BLOCK_RECORD
  5
B
100
AcDbSymbolTableRecord
100
AcDbBlockTableRecord
  2
*PAPER_SPACE
340
21
  0
ENDTAB
  0
ENDSEC
  0
SECTION
  2
BLOCKS
  0
BLOCK
  5
D
100
AcDbEntity
  8
0
390
0
100
AcDbBlockBegin
  2
*MODEL_SPACE
 70
     0
 10
0.0
 20
0.0
 30
0.0
  3
*MODEL_SPACE
  1

  0
ENDBLK
  5
E
100
AcDbEntity
  8
0
390
0
100
AcDbBlockEnd
  0
BLOCK
  5
F
100
AcDbEntity
 67
     1
  8
0
390
0
100
AcDbBlockBegin
  2
*PAPER_SPACE
 70
     0
 10
0.0
 20
0.0
 30
0.0
  3
*PAPER_SPACE
  1

  0
ENDBLK
  5
10
100
AcDbEntity
 67
     1
  8
0
390
0
100
AcDbBlockEnd
  0
ENDSEC
  0
SECTION
  2
ENTITIES
  0
LINE
  5
E1
100
AcDbEntity
  8
ARMATUR
390
0
  6
DURCHGEHEND
 62
     1
100
AcDbLine
 10
78.633377
 20
133.883911
 30
0.0
 11
78.633377
 21
135.758911
 31
0.0
  0
LINE
  5
E2
100
AcDbEntity
  8
ARMATUR
390
0
  6
DURCHGEHEND
 62
     1
100
AcDbLine
 10
78.833389
 20
133.883911
 30
0.0
 11
78.633377
 21
133.883911
 31
0.0
  0
LINE
  5
E3
100
AcDbEntity
  8
ARMATUR
390
0
  6
DURCHGEHEND
 62
     1
100
AcDbLine
 10
78.833389
 20
135.958923
 30
0.0
 11
92.183395
 21
135.958923
 31
0.0
  0
ARC
  5
E4
100
AcDbEntity
  8
ARMATUR
390
0
  6
DURCHGEHEND
 62
     1
100
AcDbCircle
 10
78.833389
 20
135.758911
 30
0.0
 40
0.2
100
AcDbArc
 50
90.0
 51
180.0
  0
LINE
  5
E5
100
AcDbEntity
  8
ARMATUR
390
0
  6
DURCHGEHEND
 62
     1
100
AcDbLine
 10
92.183395
 20
133.883911
 30
0.0
 11
78.833389
 21
133.883911
 31
0.0
  0
ARC
  5
E6
100
AcDbEntity
  8
ARMATUR
390
0
  6
DURCHGEHEND
 62
     1
100
AcDbCircle
 10
92.183395
 20
135.758911
 30
0.0
 40
0.2
100
AcDbArc
 50
0.0
 51
90.0
  0
LINE
  5
E7
100
AcDbEntity
  8
ARMATUR
390
0
  6
DURCHGEHEND
 62
     1
100
AcDbLine
 10
92.383377
 20
135.758911
 30
0.0
 11
92.383377
 21
133.883911
 31
0.0
  0
LINE
  5
E8
100
AcDbEntity
  8
ARMATUR
390
0
  6
DURCHGEHEND
 62
     1
100
AcDbLine
 10
92.383377
 20
133.883911
 30
0.0
 11
92.183395
 21
133.883911
 31
0.0
  0
ARC
  5
E9
100
AcDbEntity
  8
ARMATUR
390
0
  6
DURCHGEHEND
 62
     1
100
AcDbCircle
 10
89.058395
 20
167.658936
 30
0.0
 40
0.2
100
AcDbArc
 50
0.0
 51
90.0
  0
LINE
  5
EA
100
AcDbEntity
  8
ARMATUR
390
0
  6
DURCHGEHEND
 62
     1
100
AcDbLine
 10
81.958389
 20
167.858917
 30
0.0
 11
89.058395
 21
167.858917
 31
0.0
  0
LINE
  5
EB
100
AcDbEntity
  8
ARMATUR
390
0
  6
DURCHGEHEND
 62
     1
100
AcDbLine
 10
89.258377
 20
167.658936
 30
0.0
 11
89.258377
 21
166.308929
 31
0.0
  0
ARC
  5
EC
100
AcDbEntity
  8
ARMATUR
390
0
  6
DURCHGEHEND
 62
     1
100
AcDbCircle
 10
81.958389
 20
167.658936
 30
0.0
 40
0.2
100
AcDbArc
 50
90.0
 51
180.0
  0
ARC
  5
ED
100
AcDbEntity
  8
ARMATUR
390
0
  6
DURCHGEHEND
 62
     1
100
AcDbCircle
 10
89.058395
 20
166.308929
 30
0.0
 40
0.2
100
AcDbArc
 50
270.0
 51
360.0
  0
LINE
  5
EE
100
AcDbEntity
  8
ARMATUR
390
0
  6
DURCHGEHEND
 62
     1
100
AcDbLine
 10
81.758377
 20
166.308929
 30
0.0
 11
81.758377
 21
167.658936
 31
0.0
  0
LINE
  5
EF
100
AcDbEntity
  8
ARMATUR
390
0
  6
DURCHGEHEND
 62
     1
100
AcDbLine
 10
89.058395
 20
166.108917
 30
0.0
 11
81.958389
 21
166.108917
 31
0.0
  0
ARC
  5
F0
100
AcDbEntity
  8
ARMATUR
390
0
  6
DURCHGEHEND
 62
     1
100
AcDbCircle
 10
81.958389
 20
166.308929
 30
0.0
 40
0.2
100
AcDbArc
 50
180.0
 51
270.0
  0
LINE
  5
F1
100
AcDbEntity
  8
ARMATUR
390
0
  6
DURCHGEHEND
 62
     1
100
AcDbLine
 10
89.258377
 20
165.908936
 30
0.0
 11
89.258377
 21
166.308929
 31
0.0
  0
LINE
  5
F2
100
AcDbEntity
  8
ARMATUR
390
0
  6
DURCHGEHEND
 62
     1
100
AcDbLine
 10
81.758377
 20
166.308929
 30
0.0
 11
81.758377
 21
165.908936
 31
0.0
  0
LINE
  5
F3
100
AcDbEntity
  8
ARMATUR
390
0
  6
DURCHGEHEND
 62
     1
100
AcDbLine
 10
81.958389
 20
158.358948
 30
0.0
 11
81.758377
 21
158.358948
 31
0.0
  0
LINE
  5
F4
100
AcDbEntity
  8
ARMATUR
390
0
  6
DURCHGEHEND
 62
     1
100
AcDbLine
 10
81.758377
 20
158.358948
 30
0.0
 11
81.758377
 21
165.908936
 31
0.0
  0
LINE
  5
F5
100
AcDbEntity
  8
ARMATUR
390
0
  6
DURCHGEHEND
 62
     1
100
AcDbLine
 10
81.958389
 20
158.358948
 30
0.0
 11
89.058395
 21
158.358948
 31
0.0
  0
LINE
  5
F6
100
AcDbEntity
  8
ARMATUR
390
0
  6
DURCHGEHEND
 62
     1
100
AcDbLine
 10
89.258377
 20
158.358948
 30
0.0
 11
89.058395
 21
158.358948
 31
0.0
  0
LINE
  5
F7
100
AcDbEntity
  8
ARMATUR
390
0
  6
DURCHGEHEND
 62
     1
100
AcDbLine
 10
89.258377
 20
165.908936
 30
0.0
 11
89.258377
 21
158.358948
 31
0.0
  0
ARC
  5
F8
100
AcDbEntity
  8
ARMATUR
390
0
  6
DURCHGEHEND
 62
     1
100
AcDbCircle
 10
89.058395
 20
155.758911
 30
0.0
 40
0.2
100
AcDbArc
 50
0.0
 51
90.0
  0
LINE
  5
F9
100
AcDbEntity
  8
ARMATUR
390
0
  6
DURCHGEHEND
 62
     1
100
AcDbLine
 10
81.758377
 20
135.958923
 30
0.0
 11
81.758377
 21
155.758911
 31
0.0
  0
ARC
  5
FA
100
AcDbEntity
  8
ARMATUR
390
0
  6
DURCHGEHEND
 62
     1
100
AcDbCircle
 10
81.958389
 20
155.758911
 30
0.0
 40
0.2
100
AcDbArc
 50
90.0
 51
180.0
  0
LINE
  5
FB
100
AcDbEntity
  8
ARMATUR
390
0
  6
DURCHGEHEND
 62
     1
100
AcDbLine
 10
89.258377
 20
155.758911
 30
0.0
 11
89.258377
 21
135.958923
 31
0.0
  0
LINE
  5
FC
100
AcDbEntity
  8
ARMATUR
390
0
  6
DURCHGEHEND
 62
     1
100
AcDbLine
 10
81.958389
 20
155.958923
 30
0.0
 11
89.058395
 21
155.958923
 31
0.0
  0
LINE
  5
FD
100
AcDbEntity
  8
ARMATUR
390
0
  6
DURCHGEHEND
 62
     1
100
AcDbLine
 10
88.683395
 20
158.358948
 30
0.0
 11
88.683395
 21
155.958923
 31
0.0
  0
LINE
  5
FE
100
AcDbEntity
  8
ARMATUR
390
0
  6
DURCHGEHEND
 62
     1
100
AcDbLine
 10
82.333389
 20
155.958923
 30
0.0
 11
82.333389
 21
158.358948
 31
0.0
  0
ARC
  5
FF
100
AcDbEntity
  8
ARMATUR
390
0
  6
DURCHGEHEND
 62
     1
100
AcDbCircle
 10
166.711746
 20
135.764267
 30
0.0
 40
0.2
100
AcDbArc
 50
90.0
 51
180.0
  0
LINE
  5
100
100
AcDbEntity
  8
ARMATUR
390
0
  6
DURCHGEHEND
 62
     1
100
AcDbLine
 10
166.511765
 20
133.889267
 30
0.0
 11
166.511765
 21
135.764267
 31
0.0
  0
LINE
  5
101
100
AcDbEntity
  8
ARMATUR
390
0
  6
DURCHGEHEND
 62
     1
100
AcDbLine
 10
166.711746
 20
133.889267
 30
0.0
 11
166.511765
 21
133.889267
 31
0.0
  0
LINE
  5
102
100
AcDbEntity
  8
ARMATUR
390
0
  6
DURCHGEHEND
 62
     1
100
AcDbLine
 10
166.711746
 20
135.964279
 30
0.0
 11
180.061752
 21
135.964279
 31
0.0
  0
LINE
  5
103
100
AcDbEntity
  8
ARMATUR
390
0
  6
DURCHGEHEND
 62
     1
100
AcDbLine
 10
180.061752
 20
133.889267
 30
0.0
 11
166.711746
 21
133.889267
 31
0.0
  0
ARC
  5
104
100
AcDbEntity
  8
ARMATUR
390
0
  6
DURCHGEHEND
 62
     1
100
AcDbCircle
 10
180.061752
 20
135.764267
 30
0.0
 40
0.2
100
AcDbArc
 50
0.0
 51
90.0
  0
LINE
  5
105
100
AcDbEntity
  8
ARMATUR
390
0
  6
DURCHGEHEND
 62
     1
100
AcDbLine
 10
180.261765
 20
135.764267
 30
0.0
 11
180.261765
 21
133.889267
 31
0.0
  0
LINE
  5
106
100
AcDbEntity
  8
ARMATUR
390
0
  6
DURCHGEHEND
 62
     1
100
AcDbLine
 10
180.261765
 20
133.889267
 30
0.0
 11
180.061752
 21
133.889267
 31
0.0
  0
LINE
  5
107
100
AcDbEntity
  8
ARMATUR
390
0
  6
DURCHGEHEND
 62
     1
100
AcDbLine
 10
168.836746
 20
167.864273
 30
0.0
 11
203.249252
 21
167.864273
 31
0.0
  0
ARC
  5
108
100
AcDbEntity
  8
ARMATUR
390
0
  6
DURCHGEHEND
 62
     1
100
AcDbCircle
 10
168.836746
 20
167.664291
 30
0.0
 40
0.2
100
AcDbArc
 50
90.0
 51
180.0
  0
LINE
  5
109
100
AcDbEntity
  8
ARMATUR
390
0
  6
DURCHGEHEND
 62
     1
100
AcDbLine
 10
168.636765
 20
158.364304
 30
0.0
 11
168.636765
 21
167.664291
 31
0.0
  0
LINE
  5
10A
100
AcDbEntity
  8
ARMATUR
390
0
  6
DURCHGEHEND
 62
     1
100
AcDbLine
 10
168.836746
 20
158.364304
 30
0.0
 11
168.636765
 21
158.364304
 31
0.0
  0
LINE
  5
10B
100
AcDbEntity
  8
ARMATUR
390
0
  6
DURCHGEHEND
 62
     1
100
AcDbLine
 10
168.836746
 20
158.364304
 30
0.0
 11
177.936752
 21
158.364304
 31
0.0
  0
ARC
  5
10C
100
AcDbEntity
  8
ARMATUR
390
0
  6
DURCHGEHEND
 62
     1
100
AcDbCircle
 10
178.336746
 20
165.914291
 30
0.0
 40
0.2
100
AcDbArc
 50
90.0
 51
180.0
  0
LINE
  5
10D
100
AcDbEntity
  8
ARMATUR
390
0
  6
DURCHGEHEND
 62
     1
100
AcDbLine
 10
178.136765
 20
165.914291
 30
0.0
 11
178.136765
 21
158.364304
 31
0.0
  0
LINE
  5
10E
100
AcDbEntity
  8
ARMATUR
390
0
  6
DURCHGEHEND
 62
     1
100
AcDbLine
 10
178.136765
 20
158.364304
 30
0.0
 11
177.936752
 21
158.364304
 31
0.0
  0
LINE
  5
10F
100
AcDbEntity
  8
ARMATUR
390
0
  6
DURCHGEHEND
 62
     1
100
AcDbLine
 10
203.249252
 20
166.114273
 30
0.0
 11
178.336746
 21
166.114273
 31
0.0
  0
ARC
  5
110
100
AcDbEntity
  8
ARMATUR
390
0
  6
DURCHGEHEND
 62
     1
100
AcDbCircle
 10
203.249252
 20
166.314285
 30
0.0
 40
0.2
100
AcDbArc
 50
270.0
 51
360.0
  0
LINE
  5
111
100
AcDbEntity
  8
ARMATUR
390
0
  6
DURCHGEHEND
 62
     1
100
AcDbLine
 10
203.449265
 20
167.664291
 30
0.0
 11
203.449265
 21
166.314285
 31
0.0
  0
ARC
  5
112
100
AcDbEntity
  8
ARMATUR
390
0
  6
DURCHGEHEND
 62
     1
100
AcDbCircle
 10
203.249252
 20
167.664291
 30
0.0
 40
0.2
100
AcDbArc
 50
0.0
 51
90.0
  0
LINE
  5
113
100
AcDbEntity
  8
ARMATUR
390
0
  6
DURCHGEHEND
 62
     1
100
AcDbLine
 10
168.636765
 20
135.964279
 30
0.0
 11
168.636765
 21
155.764267
 31
0.0
  0
ARC
  5
114
100
AcDbEntity
  8
ARMATUR
390
0
  6
DURCHGEHEND
 62
     1
100
AcDbCircle
 10
168.836746
 20
155.764267
 30
0.0
 40
0.2
100
AcDbArc
 50
90.0
 51
180.0
  0
LINE
  5
115
100
AcDbEntity
  8
ARMATUR
390
0
  6
DURCHGEHEND
 62
     1
100
AcDbLine
 10
168.836746
 20
155.964279
 30
0.0
 11
177.936752
 21
155.964279
 31
0.0
  0
ARC
  5
116
100
AcDbEntity
  8
ARMATUR
390
0
  6
DURCHGEHEND
 62
     1
100
AcDbCircle
 10
177.936752
 20
155.764267
 30
0.0
 40
0.2
100
AcDbArc
 50
0.0
 51
90.0
  0
LINE
  5
117
100
AcDbEntity
  8
ARMATUR
390
0
  6
DURCHGEHEND
 62
     1
100
AcDbLine
 10
178.136765
 20
155.764267
 30
0.0
 11
178.136765
 21
135.964279
 31
0.0
  0
LINE
  5
118
100
AcDbEntity
  8
ARMATUR
390
0
  6
DURCHGEHEND
 62
     1
100
AcDbLine
 10
169.211746
 20
155.964279
 30
0.0
 11
169.211746
 21
158.364304
 31
0.0
  0
LINE
  5
119
100
AcDbEntity
  8
ARMATUR
390
0
  6
DURCHGEHEND
 62
     1
100
AcDbLine
 10
177.561752
 20
158.364304
 30
0.0
 11
177.561752
 21
155.964279
 31
0.0
  0
LINE
  5
11A
100
AcDbEntity
  8
ARMATUR
390
0
  6
DURCHGEHEND
 62
     1
100
AcDbLine
 10
83.693893
 20
113.889282
 30
0.0
 11
83.693893
 21
107.439262
 31
0.0
  0
LINE
  5
11B
100
AcDbEntity
  8
ARMATUR
390
0
  6
DURCHGEHEND
 62
     1
100
AcDbLine
 10
87.239273
 20
107.439262
 30
0.0
 11
87.239273
 21
113.889282
 31
0.0
  0
LINE
  5
11C
100
AcDbEntity
  8
ARMATUR
390
0
  6
DURCHGEHEND
 62
     1
100
AcDbLine
 10
83.415176
 20
113.889282
 30
0.0
 11
83.415176
 21
107.439262
 31
0.0
  0
LINE
  5
11D
100
AcDbEntity
  8
ARMATUR
390
0
  6
DURCHGEHEND
 62
     1
100
AcDbLine
 10
87.518448
 20
107.439262
 30
0.0
 11
87.518448
 21
113.889282
 31
0.0
  0
LINE
  5
11E
100
AcDbEntity
  8
ARMATUR
390
0
  6
DURCHGEHEND
 62
     1
100
AcDbLine
 10
83.160385
 20
113.889282
 30
0.0
 11
83.160385
 21
107.439262
 31
0.0
  0
LINE
  5
11F
100
AcDbEntity
  8
ARMATUR
390
0
  6
DURCHGEHEND
 62
     1
100
AcDbLine
 10
87.773727
 20
107.439262
 30
0.0
 11
87.773727
 21
113.889282
 31
0.0
  0
LINE
  5
120
100
AcDbEntity
  8
ARMATUR
390
0
  6
DURCHGEHEND
 62
     1
100
AcDbLine
 10
82.932755
 20
113.889282
 30
0.0
 11
82.932755
 21
107.439262
 31
0.0
  0
LINE
  5
121
100
AcDbEntity
  8
ARMATUR
390
0
  6
DURCHGEHEND
 62
     1
100
AcDbLine
 10
88.001907
 20
107.439262
 30
0.0
 11
88.001907
 21
113.889282
 31
0.0
  0
LINE
  5
122
100
AcDbEntity
  8
ARMATUR
390
0
  6
DURCHGEHEND
 62
     1
100
AcDbLine
 10
82.735123
 20
113.889282
 30
0.0
 11
82.735123
 21
107.439262
 31
0.0
  0
LINE
  5
123
100
AcDbEntity
  8
ARMATUR
390
0
  6
DURCHGEHEND
 62
     1
100
AcDbLine
 10
88.200119
 20
107.439262
 30
0.0
 11
88.200119
 21
113.889282
 31
0.0
  0
LINE
  5
124
100
AcDbEntity
  8
ARMATUR
390
0
  6
DURCHGEHEND
 62
     1
100
AcDbLine
 10
82.569992
 20
113.889282
 30
0.0
 11
82.569992
 21
107.439262
 31
0.0
  0
LINE
  5
125
100
AcDbEntity
  8
ARMATUR
390
0
  6
DURCHGEHEND
 62
     1
100
AcDbLine
 10
88.365891
 20
107.439262
 30
0.0
 11
88.365891
 21
113.889282
 31
0.0
  0
LINE
  5
126
100
AcDbEntity
  8
ARMATUR
390
0
  6
DURCHGEHEND
 62
     1
100
AcDbLine
 10
82.439438
 20
113.889282
 30
0.0
 11
82.439438
 21
107.439262
 31
0.0
  0
LINE
  5
127
100
AcDbEntity
  8
ARMATUR
390
0
  6
DURCHGEHEND
 62
     1
100
AcDbLine
 10
88.497116
 20
107.439262
 30
0.0
 11
88.497116
 21
113.889282
 31
0.0
  0
LINE
  5
128
100
AcDbEntity
  8
ARMATUR
390
0
  6
DURCHGEHEND
 62
     1
100
AcDbLine
 10
82.345108
 20
113.889282
 30
0.0
 11
82.345108
 21
107.439262
 31
0.0
  0
LINE
  5
129
100
AcDbEntity
  8
ARMATUR
390
0
  6
DURCHGEHEND
 62
     1
100
AcDbLine
 10
88.592148
 20
107.439262
 30
0.0
 11
88.592148
 21
113.889282
 31
0.0
  0
LINE
  5
12A
100
AcDbEntity
  8
ARMATUR
390
0
  6
DURCHGEHEND
 62
     1
100
AcDbLine
 10
82.288162
 20
113.889282
 30
0.0
 11
82.288162
 21
107.439262
 31
0.0
  0
LINE
  5
12B
100
AcDbEntity
  8
ARMATUR
390
0
  6
DURCHGEHEND
 62
     1
100
AcDbLine
 10
88.649796
 20
107.439262
 30
0.0
 11
88.649796
 21
113.889282
 31
0.0
  0
LINE
  5
12C
100
AcDbEntity
  8
ARMATUR
390
0
  6
DURCHGEHEND
 62
     1
100
AcDbLine
 10
82.269363
 20
113.889282
 30
0.0
 11
82.269363
 21
107.439262
 31
0.0
  0
LINE
  5
12D
100
AcDbEntity
  8
ARMATUR
390
0
  6
DURCHGEHEND
 62
     1
100
AcDbLine
 10
88.669357
 20
107.439262
 30
0.0
 11
88.669357
 21
113.889282
 31
0.0
  0
ARC
  5
12E
100
AcDbEntity
  8
ARMATUR
390
0
  6
DURCHGEHEND
 62
     1
100
AcDbCircle
 10
78.469345
 20
69.439262
 30
0.0
 40
1.25
100
AcDbArc
 50
180.0
 51
270.0
  0
ARC
  5
12F
100
AcDbEntity
  8
ARMATUR
390
0
  6
DURCHGEHEND
 62
     1
100
AcDbCircle
 10
92.469345
 20
69.439262
 30
0.0
 40
1.25
100
AcDbArc
 50
270.0
 51
360.0
  0
ARC
  5
130
100
AcDbEntity
  8
ARMATUR
390
0
  6
DURCHGEHEND
 62
     1
100
AcDbCircle
 10
78.469345
 20
104.465141
 30
0.0
 40
1.25
100
AcDbArc
 50
104.999001
 51
179.998993
  0
ARC
  5
131
100
AcDbEntity
  8
ARMATUR
390
0
  6
DURCHGEHEND
 62
     1
100
AcDbCircle
 10
92.469345
 20
104.465141
 30
0.0
 40
1.25
100
AcDbArc
 50
0.0
 51
75.0
  0
LINE
  5
132
100
AcDbEntity
  8
ARMATUR
390
0
  6
DURCHGEHEND
 62
     1
100
AcDbLine
 10
77.219345
 20
104.465141
 30
0.0
 11
77.219345
 21
69.439262
 31
0.0
  0
LINE
  5
133
100
AcDbEntity
  8
ARMATUR
390
0
  6
DURCHGEHEND
 62
     1
100
AcDbLine
 10
93.719345
 20
69.439262
 30
0.0
 11
93.719345
 21
104.465141
 31
0.0
  0
LINE
  5
134
100
AcDbEntity
  8
ARMATUR
390
0
  6
DURCHGEHEND
 62
     1
100
AcDbLine
 10
92.792862
 20
105.672539
 30
0.0
 11
88.624496
 21
106.789452
 31
0.0
  0
LINE
  5
135
100
AcDbEntity
  8
ARMATUR
390
0
  6
DURCHGEHEND
 62
     1
100
AcDbLine
 10
82.314194
 20
106.789452
 30
0.0
 11
78.145828
 21
105.672539
 31
0.0
  0
ARC
  5
136
100
AcDbEntity
  8
ARMATUR
390
0
  6
DURCHGEHEND
 62
     1
100
AcDbCircle
 10
82.281845
 20
106.91021
 30
0.0
 40
0.125
100
AcDbArc
 50
284.970001
 51
359.970001
  0
ARC
  5
137
100
AcDbEntity
  8
ARMATUR
390
0
  6
DURCHGEHEND
 62
     1
100
AcDbCircle
 10
88.656845
 20
106.91021
 30
0.0
 40
0.125
100
AcDbArc
 50
180.0
 51
255.0
  0
ARC
  5
138
100
AcDbEntity
  8
ARMATUR
390
0
  6
DURCHGEHEND
 62
     1
100
AcDbCircle
 10
82.531845
 20
107.314262
 30
0.0
 40
0.125
100
AcDbArc
 50
90.0
 51
180.0
  0
ARC
  5
139
100
AcDbEntity
  8
ARMATUR
390
0
  6
DURCHGEHEND
 62
     1
100
AcDbCircle
 10
88.406845
 20
107.314262
 30
0.0
 40
0.125
100
AcDbArc
 50
0.0
 51
90.0
  0
LINE
  5
13A
100
AcDbEntity
  8
ARMATUR
390
0
  6
DURCHGEHEND
 62
     1
100
AcDbLine
 10
82.406845
 20
107.314262
 30
0.0
 11
82.406845
 21
106.91021
 31
0.0
  0
LINE
  5
13B
100
AcDbEntity
  8
ARMATUR
390
0
  6
DURCHGEHEND
 62
     1
100
AcDbLine
 10
88.531845
 20
106.91021
 30
0.0
 11
88.531845
 21
107.314262
 31
0.0
  0
ARC
  5
13C
100
AcDbEntity
  8
ARMATUR
390
0
  6
DURCHGEHEND
 62
     1
100
AcDbCircle
 10
79.919357
 20
123.064255
 30
0.0
 40
0.075
100
AcDbArc
 50
90.0
 51
180.0
  0
ARC
  5
13D
100
AcDbEntity
  8
ARMATUR
390
0
  6
DURCHGEHEND
 62
     1
100
AcDbCircle
 10
91.019363
 20
123.064255
 30
0.0
 40
0.075
100
AcDbArc
 50
0.0
 51
90.0
  0
ARC
  5
13E
100
AcDbEntity
  8
ARMATUR
390
0
  6
DURCHGEHEND
 62
     1
100
AcDbCircle
 10
91.019363
 20
122.464279
 30
0.0
 40
0.075
100
AcDbArc
 50
270.0
 51
360.0
  0
ARC
  5
13F
100
AcDbEntity
  8
ARMATUR
390
0
  6
DURCHGEHEND
 62
     1
100
AcDbCircle
 10
79.919357
 20
122.464279
 30
0.0
 40
0.075
100
AcDbArc
 50
180.0
 51
270.0
  0
LINE
  5
140
100
AcDbEntity
  8
ARMATUR
390
0
  6
DURCHGEHEND
 62
     1
100
AcDbLine
 10
79.844345
 20
123.064255
 30
0.0
 11
79.844345
 21
122.464264
 31
0.0
  0
LINE
  5
141
100
AcDbEntity
  8
ARMATUR
390
0
  6
DURCHGEHEND
 62
     1
100
AcDbLine
 10
91.094345
 20
122.464279
 30
0.0
 11
91.094345
 21
123.06424
 31
0.0
  0
ARC
  5
142
100
AcDbEntity
  8
ARMATUR
390
0
  6
DURCHGEHEND
 62
     1
100
AcDbCircle
 10
88.975143
 20
119.639267
 30
0.0
 40
0.075
100
AcDbArc
 50
90.0
 51
150.0
  0
ARC
  5
143
100
AcDbEntity
  8
ARMATUR
390
0
  6
DURCHGEHEND
 62
     1
100
AcDbCircle
 10
81.963547
 20
119.639267
 30
0.0
 40
0.075
100
AcDbArc
 50
30.02
 51
90.019997
  0
LINE
  5
144
100
AcDbEntity
  8
ARMATUR
390
0
  6
DURCHGEHEND
 62
     1
100
AcDbLine
 10
82.028488
 20
119.676743
 30
0.0
 11
82.24501
 21
119.301727
 31
0.0
  0
LINE
  5
145
100
AcDbEntity
  8
ARMATUR
390
0
  6
DURCHGEHEND
 62
     1
100
AcDbLine
 10
88.69368
 20
119.301743
 30
0.0
 11
88.910202
 21
119.676727
 31
0.0
  0
ARC
  5
146
100
AcDbEntity
  8
ARMATUR
390
0
  6
DURCHGEHEND
 62
     1
100
AcDbCircle
 10
88.628738
 20
119.339279
 30
0.0
 40
0.075
100
AcDbArc
 50
270.0
 51
330.0
  0
ARC
  5
147
100
AcDbEntity
  8
ARMATUR
390
0
  6
DURCHGEHEND
 62
     1
100
AcDbCircle
 10
82.309952
 20
119.339279
 30
0.0
 40
0.075
100
AcDbArc
 50
210.020004
 51
270.019989
  0
LINE
  5
148
100
AcDbEntity
  8
ARMATUR
390
0
  6
DURCHGEHEND
 62
     1
100
AcDbLine
 10
91.469345
 20
123.139267
 30
0.0
 11
91.469345
 21
123.889252
 31
0.0
  0
LINE
  5
149
100
AcDbEntity
  8
ARMATUR
390
0
  6
DURCHGEHEND
 62
     1
100
AcDbLine
 10
79.469345
 20
123.889267
 30
0.0
 11
79.469345
 21
123.139252
 31
0.0
  0
LINE
  5
14A
100
AcDbEntity
  8
ARMATUR
390
0
  6
DURCHGEHEND
 62
     1
100
AcDbLine
 10
82.469345
 20
133.714279
 30
0.0
 11
82.469345
 21
123.889252
 31
0.0
  0
LINE
  5
14B
100
AcDbEntity
  8
ARMATUR
390
0
  6
DURCHGEHEND
 62
     1
100
AcDbLine
 10
82.469345
 20
119.264282
 30
0.0
 11
82.469345
 21
114.639282
 31
0.0
  0
LINE
  5
14C
100
AcDbEntity
  8
ARMATUR
390
0
  6
DURCHGEHEND
 62
     1
100
AcDbLine
 10
88.469345
 20
114.639282
 30
0.0
 11
88.469345
 21
119.264282
 31
0.0
  0
LINE
  5
14D
100
AcDbEntity
  8
ARMATUR
390
0
  6
DURCHGEHEND
 62
     1
100
AcDbLine
 10
88.469345
 20
123.889267
 30
0.0
 11
88.469345
 21
133.714264
 31
0.0
  0
LINE
  5
14E
100
AcDbEntity
  8
ARMATUR
390
0
  6
DURCHGEHEND
 62
     1
100
AcDbLine
 10
82.719345
 20
114.639282
 30
0.0
 11
82.719345
 21
114.014282
 31
0.0
  0
LINE
  5
14F
100
AcDbEntity
  8
ARMATUR
390
0
  6
DURCHGEHEND
 62
     1
100
AcDbLine
 10
88.219345
 20
114.014282
 30
0.0
 11
88.219345
 21
114.639282
 31
0.0
  0
ARC
  5
150
100
AcDbEntity
  8
ARMATUR
390
0
  6
DURCHGEHEND
 62
     1
100
AcDbCircle
 10
82.844345
 20
114.014282
 30
0.0
 40
0.125
100
AcDbArc
 50
180.0
 51
270.0
  0
ARC
  5
151
100
AcDbEntity
  8
ARMATUR
390
0
  6
DURCHGEHEND
 62
     1
100
AcDbCircle
 10
88.094345
 20
114.014282
 30
0.0
 40
0.125
100
AcDbArc
 50
270.0
 51
360.0
  0
LINE
  5
152
100
AcDbEntity
  8
ARMATUR
390
0
  6
DURCHGEHEND
 62
     1
100
AcDbLine
 10
85.597488
 20
107.439262
 30
0.0
 11
85.597488
 21
113.889282
 31
0.0
  0
LINE
  5
153
100
AcDbEntity
  8
ARMATUR
390
0
  6
DURCHGEHEND
 62
     1
100
AcDbLine
 10
85.334549
 20
107.439262
 30
0.0
 11
85.334549
 21
113.889282
 31
0.0
  0
LINE
  5
154
100
AcDbEntity
  8
ARMATUR
390
0
  6
DURCHGEHEND
 62
     1
100
AcDbLine
 10
85.334549
 20
113.889282
 30
0.0
 11
85.597488
 21
113.889282
 31
0.0
  0
LINE
  5
155
100
AcDbEntity
  8
ARMATUR
390
0
  6
DURCHGEHEND
 62
     1
100
AcDbLine
 10
85.334549
 20
107.439262
 30
0.0
 11
85.597488
 21
107.439262
 31
0.0
  0
LINE
  5
156
100
AcDbEntity
  8
ARMATUR
390
0
  6
DURCHGEHEND
 62
     1
100
AcDbLine
 10
85.247086
 20
107.439262
 30
0.0
 11
85.247086
 21
113.889282
 31
0.0
  0
LINE
  5
157
100
AcDbEntity
  8
ARMATUR
390
0
  6
DURCHGEHEND
 62
     1
100
AcDbLine
 10
84.985855
 20
107.439262
 30
0.0
 11
84.985855
 21
113.889282
 31
0.0
  0
LINE
  5
158
100
AcDbEntity
  8
ARMATUR
390
0
  6
DURCHGEHEND
 62
     1
100
AcDbLine
 10
84.985855
 20
113.889282
 30
0.0
 11
85.247086
 21
113.889282
 31
0.0
  0
LINE
  5
159
100
AcDbEntity
  8
ARMATUR
390
0
  6
DURCHGEHEND
 62
     1
100
AcDbLine
 10
84.985855
 20
107.439262
 30
0.0
 11
85.247086
 21
107.439262
 31
0.0
  0
LINE
  5
15A
100
AcDbEntity
  8
ARMATUR
390
0
  6
DURCHGEHEND
 62
     1
100
AcDbLine
 10
85.946274
 20
107.439262
 30
0.0
 11
85.946274
 21
113.889282
 31
0.0
  0
LINE
  5
15B
100
AcDbEntity
  8
ARMATUR
390
0
  6
DURCHGEHEND
 62
     1
100
AcDbLine
 10
85.684952
 20
107.439262
 30
0.0
 11
85.684952
 21
113.889282
 31
0.0
  0
LINE
  5
15C
100
AcDbEntity
  8
ARMATUR
390
0
  6
DURCHGEHEND
 62
     1
100
AcDbLine
 10
85.684952
 20
113.889282
 30
0.0
 11
85.946274
 21
113.889282
 31
0.0
  0
LINE
  5
15D
100
AcDbEntity
  8
ARMATUR
390
0
  6
DURCHGEHEND
 62
     1
100
AcDbLine
 10
85.684952
 20
107.439262
 30
0.0
 11
85.946274
 21
107.439262
 31
0.0
  0
LINE
  5
15E
100
AcDbEntity
  8
ARMATUR
390
0
  6
DURCHGEHEND
 62
     1
100
AcDbLine
 10
84.89949
 20
107.439262
 30
0.0
 11
84.89949
 21
113.889282
 31
0.0
  0
LINE
  5
15F
100
AcDbEntity
  8
ARMATUR
390
0
  6
DURCHGEHEND
 62
     1
100
AcDbLine
 10
84.643204
 20
107.439262
 30
0.0
 11
84.643204
 21
113.889282
 31
0.0
  0
LINE
  5
160
100
AcDbEntity
  8
ARMATUR
390
0
  6
DURCHGEHEND
 62
     1
100
AcDbLine
 10
84.643204
 20
113.889282
 30
0.0
 11
84.89949
 21
113.889282
 31
0.0
  0
LINE
  5
161
100
AcDbEntity
  8
ARMATUR
390
0
  6
DURCHGEHEND
 62
     1
100
AcDbLine
 10
84.643204
 20
107.439262
 30
0.0
 11
84.89949
 21
107.439262
 31
0.0
  0
LINE
  5
162
100
AcDbEntity
  8
ARMATUR
390
0
  6
DURCHGEHEND
 62
     1
100
AcDbLine
 10
86.289078
 20
107.439262
 30
0.0
 11
86.289078
 21
113.889282
 31
0.0
  0
LINE
  5
163
100
AcDbEntity
  8
ARMATUR
390
0
  6
DURCHGEHEND
 62
     1
100
AcDbLine
 10
86.032669
 20
107.439262
 30
0.0
 11
86.032669
 21
113.889282
 31
0.0
  0
LINE
  5
164
100
AcDbEntity
  8
ARMATUR
390
0
  6
DURCHGEHEND
 62
     1
100
AcDbLine
 10
86.032669
 20
113.889282
 30
0.0
 11
86.289078
 21
113.889282
 31
0.0
  0
LINE
  5
165
100
AcDbEntity
  8
ARMATUR
390
0
  6
DURCHGEHEND
 62
     1
100
AcDbLine
 10
86.032669
 20
107.439262
 30
0.0
 11
86.289078
 21
107.439262
 31
0.0
  0
LINE
  5
166
100
AcDbEntity
  8
ARMATUR
390
0
  6
DURCHGEHEND
 62
     1
100
AcDbLine
 10
85.247086
 20
113.889282
 30
0.0
 11
85.334549
 21
113.889282
 31
0.0
  0
LINE
  5
167
100
AcDbEntity
  8
ARMATUR
390
0
  6
DURCHGEHEND
 62
     1
100
AcDbLine
 10
85.247086
 20
107.439262
 30
0.0
 11
85.334549
 21
107.439262
 31
0.0
  0
LINE
  5
168
100
AcDbEntity
  8
ARMATUR
390
0
  6
DURCHGEHEND
 62
     1
100
AcDbLine
 10
85.597488
 20
113.889282
 30
0.0
 11
85.684952
 21
113.889282
 31
0.0
  0
LINE
  5
169
100
AcDbEntity
  8
ARMATUR
390
0
  6
DURCHGEHEND
 62
     1
100
AcDbLine
 10
85.597488
 20
107.439262
 30
0.0
 11
85.684952
 21
107.439262
 31
0.0
  0
LINE
  5
16A
100
AcDbEntity
  8
ARMATUR
390
0
  6
DURCHGEHEND
 62
     1
100
AcDbLine
 10
84.89949
 20
113.889282
 30
0.0
 11
84.985855
 21
113.889282
 31
0.0
  0
LINE
  5
16B
100
AcDbEntity
  8
ARMATUR
390
0
  6
DURCHGEHEND
 62
     1
100
AcDbLine
 10
84.89949
 20
107.439262
 30
0.0
 11
84.985855
 21
107.439262
 31
0.0
  0
LINE
  5
16C
100
AcDbEntity
  8
ARMATUR
390
0
  6
DURCHGEHEND
 62
     1
100
AcDbLine
 10
85.946274
 20
113.889282
 30
0.0
 11
86.032669
 21
113.889282
 31
0.0
  0
LINE
  5
16D
100
AcDbEntity
  8
ARMATUR
390
0
  6
DURCHGEHEND
 62
     1
100
AcDbLine
 10
85.946274
 20
107.439262
 30
0.0
 11
86.032669
 21
107.439262
 31
0.0
  0
LINE
  5
16E
100
AcDbEntity
  8
ARMATUR
390
0
  6
DURCHGEHEND
 62
     1
100
AcDbLine
 10
84.559036
 20
107.439262
 30
0.0
 11
84.559036
 21
113.889282
 31
0.0
  0
LINE
  5
16F
100
AcDbEntity
  8
ARMATUR
390
0
  6
DURCHGEHEND
 62
     1
100
AcDbLine
 10
84.310959
 20
107.439262
 30
0.0
 11
84.310959
 21
113.889282
 31
0.0
  0
LINE
  5
170
100
AcDbEntity
  8
ARMATUR
390
0
  6
DURCHGEHEND
 62
     1
100
AcDbLine
 10
84.310959
 20
113.889282
 30
0.0
 11
84.559036
 21
113.889282
 31
0.0
  0
LINE
  5
171
100
AcDbEntity
  8
ARMATUR
390
0
  6
DURCHGEHEND
 62
     1
100
AcDbLine
 10
84.310959
 20
107.439262
 30
0.0
 11
84.559036
 21
107.439262
 31
0.0
  0
LINE
  5
172
100
AcDbEntity
  8
ARMATUR
390
0
  6
DURCHGEHEND
 62
     1
100
AcDbLine
 10
86.621536
 20
107.439262
 30
0.0
 11
86.621536
 21
113.889282
 31
0.0
  0
LINE
  5
173
100
AcDbEntity
  8
ARMATUR
390
0
  6
DURCHGEHEND
 62
     1
100
AcDbLine
 10
86.373276
 20
107.439262
 30
0.0
 11
86.373276
 21
113.889282
 31
0.0
  0
LINE
  5
174
100
AcDbEntity
  8
ARMATUR
390
0
  6
DURCHGEHEND
 62
     1
100
AcDbLine
 10
86.373276
 20
113.889282
 30
0.0
 11
86.621536
 21
113.889282
 31
0.0
  0
LINE
  5
175
100
AcDbEntity
  8
ARMATUR
390
0
  6
DURCHGEHEND
 62
     1
100
AcDbLine
 10
86.373276
 20
107.439262
 30
0.0
 11
86.621536
 21
107.439262
 31
0.0
  0
LINE
  5
176
100
AcDbEntity
  8
ARMATUR
390
0
  6
DURCHGEHEND
 62
     1
100
AcDbLine
 10
84.559036
 20
113.889282
 30
0.0
 11
84.643204
 21
113.889282
 31
0.0
  0
LINE
  5
177
100
AcDbEntity
  8
ARMATUR
390
0
  6
DURCHGEHEND
 62
     1
100
AcDbLine
 10
84.559036
 20
107.439262
 30
0.0
 11
84.643204
 21
107.439262
 31
0.0
  0
LINE
  5
178
100
AcDbEntity
  8
ARMATUR
390
0
  6
DURCHGEHEND
 62
     1
100
AcDbLine
 10
86.289078
 20
113.889282
 30
0.0
 11
86.373276
 21
113.889282
 31
0.0
  0
LINE
  5
179
100
AcDbEntity
  8
ARMATUR
390
0
  6
DURCHGEHEND
 62
     1
100
AcDbLine
 10
86.289078
 20
107.439262
 30
0.0
 11
86.373276
 21
107.439262
 31
0.0
  0
LINE
  5
17A
100
AcDbEntity
  8
ARMATUR
390
0
  6
DURCHGEHEND
 62
     1
100
AcDbLine
 10
84.230057
 20
107.439262
 30
0.0
 11
84.230057
 21
113.889282
 31
0.0
  0
LINE
  5
17B
100
AcDbEntity
  8
ARMATUR
390
0
  6
DURCHGEHEND
 62
     1
100
AcDbLine
 10
83.993271
 20
107.439262
 30
0.0
 11
83.993271
 21
113.889282
 31
0.0
  0
LINE
  5
17C
100
AcDbEntity
  8
ARMATUR
390
0
  6
DURCHGEHEND
 62
     1
100
AcDbLine
 10
83.993271
 20
113.889282
 30
0.0
 11
84.230057
 21
113.889282
 31
0.0
  0
LINE
  5
17D
100
AcDbEntity
  8
ARMATUR
390
0
  6
DURCHGEHEND
 62
     1
100
AcDbLine
 10
83.993271
 20
107.439262
 30
0.0
 11
84.230057
 21
107.439262
 31
0.0
  0
LINE
  5
17E
100
AcDbEntity
  8
ARMATUR
390
0
  6
DURCHGEHEND
 62
     1
100
AcDbLine
 10
84.230057
 20
113.889282
 30
0.0
 11
84.310959
 21
113.889282
 31
0.0
  0
LINE
  5
17F
100
AcDbEntity
  8
ARMATUR
390
0
  6
DURCHGEHEND
 62
     1
100
AcDbLine
 10
84.230057
 20
107.439262
 30
0.0
 11
84.310959
 21
107.439262
 31
0.0
  0
LINE
  5
180
100
AcDbEntity
  8
ARMATUR
390
0
  6
DURCHGEHEND
 62
     1
100
AcDbLine
 10
86.939529
 20
107.439262
 30
0.0
 11
86.939529
 21
113.889282
 31
0.0
  0
LINE
  5
181
100
AcDbEntity
  8
ARMATUR
390
0
  6
DURCHGEHEND
 62
     1
100
AcDbLine
 10
86.70253
 20
107.439262
 30
0.0
 11
86.70253
 21
113.889282
 31
0.0
  0
LINE
  5
182
100
AcDbEntity
  8
ARMATUR
390
0
  6
DURCHGEHEND
 62
     1
100
AcDbLine
 10
86.70253
 20
113.889282
 30
0.0
 11
86.939529
 21
113.889282
 31
0.0
  0
LINE
  5
183
100
AcDbEntity
  8
ARMATUR
390
0
  6
DURCHGEHEND
 62
     1
100
AcDbLine
 10
86.70253
 20
107.439262
 30
0.0
 11
86.939529
 21
107.439262
 31
0.0
  0
LINE
  5
184
100
AcDbEntity
  8
ARMATUR
390
0
  6
DURCHGEHEND
 62
     1
100
AcDbLine
 10
86.621536
 20
113.889282
 30
0.0
 11
86.70253
 21
113.889282
 31
0.0
  0
LINE
  5
185
100
AcDbEntity
  8
ARMATUR
390
0
  6
DURCHGEHEND
 62
     1
100
AcDbLine
 10
86.621536
 20
107.439262
 30
0.0
 11
86.70253
 21
107.439262
 31
0.0
  0
LINE
  5
186
100
AcDbEntity
  8
ARMATUR
390
0
  6
DURCHGEHEND
 62
     1
100
AcDbLine
 10
83.916641
 20
107.439262
 30
0.0
 11
83.916641
 21
113.889282
 31
0.0
  0
LINE
  5
187
100
AcDbEntity
  8
ARMATUR
390
0
  6
DURCHGEHEND
 62
     1
100
AcDbLine
 10
83.916641
 20
113.889282
 30
0.0
 11
83.993271
 21
113.889282
 31
0.0
  0
LINE
  5
188
100
AcDbEntity
  8
ARMATUR
390
0
  6
DURCHGEHEND
 62
     1
100
AcDbLine
 10
83.916641
 20
107.439262
 30
0.0
 11
83.993271
 21
107.439262
 31
0.0
  0
LINE
  5
189
100
AcDbEntity
  8
ARMATUR
390
0
  6
DURCHGEHEND
 62
     1
100
AcDbLine
 10
87.016281
 20
107.439262
 30
0.0
 11
87.016281
 21
113.889282
 31
0.0
  0
LINE
  5
18A
100
AcDbEntity
  8
ARMATUR
390
0
  6
DURCHGEHEND
 62
     1
100
AcDbLine
 10
86.939529
 20
113.889282
 30
0.0
 11
87.016281
 21
113.889282
 31
0.0
  0
LINE
  5
18B
100
AcDbEntity
  8
ARMATUR
390
0
  6
DURCHGEHEND
 62
     1
100
AcDbLine
 10
86.939529
 20
107.439262
 30
0.0
 11
87.016281
 21
107.439262
 31
0.0
  0
LINE
  5
18C
100
AcDbEntity
  8
ARMATUR
390
0
  6
DURCHGEHEND
 62
     1
100
AcDbLine
 10
83.693893
 20
113.889282
 30
0.0
 11
83.916641
 21
113.889282
 31
0.0
  0
LINE
  5
18D
100
AcDbEntity
  8
ARMATUR
390
0
  6
DURCHGEHEND
 62
     1
100
AcDbLine
 10
83.693893
 20
107.439262
 30
0.0
 11
83.916641
 21
107.439262
 31
0.0
  0
LINE
  5
18E
100
AcDbEntity
  8
ARMATUR
390
0
  6
DURCHGEHEND
 62
     1
100
AcDbLine
 10
87.016281
 20
113.889282
 30
0.0
 11
87.239273
 21
113.889282
 31
0.0
  0
LINE
  5
18F
100
AcDbEntity
  8
ARMATUR
390
0
  6
DURCHGEHEND
 62
     1
100
AcDbLine
 10
87.016281
 20
107.439262
 30
0.0
 11
87.239273
 21
107.439262
 31
0.0
  0
LINE
  5
190
100
AcDbEntity
  8
ARMATUR
390
0
  6
DURCHGEHEND
 62
     1
100
AcDbLine
 10
83.622757
 20
107.439262
 30
0.0
 11
83.622757
 21
113.889282
 31
0.0
  0
LINE
  5
191
100
AcDbEntity
  8
ARMATUR
390
0
  6
DURCHGEHEND
 62
     1
100
AcDbLine
 10
83.622757
 20
113.889282
 30
0.0
 11
83.694168
 21
113.889282
 31
0.0
  0
LINE
  5
192
100
AcDbEntity
  8
ARMATUR
390
0
  6
DURCHGEHEND
 62
     1
100
AcDbLine
 10
83.622757
 20
107.439262
 30
0.0
 11
83.694168
 21
107.439262
 31
0.0
  0
LINE
  5
193
100
AcDbEntity
  8
ARMATUR
390
0
  6
DURCHGEHEND
 62
     1
100
AcDbLine
 10
87.310562
 20
107.439262
 30
0.0
 11
87.310562
 21
113.889282
 31
0.0
  0
LINE
  5
194
100
AcDbEntity
  8
ARMATUR
390
0
  6
DURCHGEHEND
 62
     1
100
AcDbLine
 10
87.239029
 20
113.889282
 30
0.0
 11
87.310562
 21
113.889282
 31
0.0
  0
LINE
  5
195
100
AcDbEntity
  8
ARMATUR
390
0
  6
DURCHGEHEND
 62
     1
100
AcDbLine
 10
87.239029
 20
107.439262
 30
0.0
 11
87.310562
 21
107.439262
 31
0.0
  0
LINE
  5
196
100
AcDbEntity
  8
ARMATUR
390
0
  6
DURCHGEHEND
 62
     1
100
AcDbLine
 10
83.415176
 20
113.889282
 30
0.0
 11
83.622757
 21
113.889282
 31
0.0
  0
LINE
  5
197
100
AcDbEntity
  8
ARMATUR
390
0
  6
DURCHGEHEND
 62
     1
100
AcDbLine
 10
83.415176
 20
107.439262
 30
0.0
 11
83.622757
 21
107.439262
 31
0.0
  0
LINE
  5
198
100
AcDbEntity
  8
ARMATUR
390
0
  6
DURCHGEHEND
 62
     1
100
AcDbLine
 10
87.310562
 20
113.889282
 30
0.0
 11
87.518448
 21
113.889282
 31
0.0
  0
LINE
  5
199
100
AcDbEntity
  8
ARMATUR
390
0
  6
DURCHGEHEND
 62
     1
100
AcDbLine
 10
87.310562
 20
107.439262
 30
0.0
 11
87.518448
 21
107.439262
 31
0.0
  0
LINE
  5
19A
100
AcDbEntity
  8
ARMATUR
390
0
  6
DURCHGEHEND
 62
     1
100
AcDbLine
 10
83.352097
 20
107.439262
 30
0.0
 11
83.352097
 21
113.889282
 31
0.0
  0
LINE
  5
19B
100
AcDbEntity
  8
ARMATUR
390
0
  6
DURCHGEHEND
 62
     1
100
AcDbLine
 10
83.352097
 20
113.889282
 30
0.0
 11
83.417374
 21
113.889282
 31
0.0
  0
LINE
  5
19C
100
AcDbEntity
  8
ARMATUR
390
0
  6
DURCHGEHEND
 62
     1
100
AcDbLine
 10
83.352097
 20
107.439262
 30
0.0
 11
83.417374
 21
107.439262
 31
0.0
  0
LINE
  5
19D
100
AcDbEntity
  8
ARMATUR
390
0
  6
DURCHGEHEND
 62
     1
100
AcDbLine
 10
87.58168
 20
107.439262
 30
0.0
 11
87.58168
 21
113.889282
 31
0.0
  0
LINE
  5
19E
100
AcDbEntity
  8
ARMATUR
390
0
  6
DURCHGEHEND
 62
     1
100
AcDbLine
 10
87.516312
 20
113.889282
 30
0.0
 11
87.58168
 21
113.889282
 31
0.0
  0
LINE
  5
19F
100
AcDbEntity
  8
ARMATUR
390
0
  6
DURCHGEHEND
 62
     1
100
AcDbLine
 10
87.516312
 20
107.439262
 30
0.0
 11
87.58168
 21
107.439262
 31
0.0
  0
LINE
  5
1A0
100
AcDbEntity
  8
ARMATUR
390
0
  6
DURCHGEHEND
 62
     1
100
AcDbLine
 10
83.160385
 20
113.889282
 30
0.0
 11
83.352097
 21
113.889282
 31
0.0
  0
LINE
  5
1A1
100
AcDbEntity
  8
ARMATUR
390
0
  6
DURCHGEHEND
 62
     1
100
AcDbLine
 10
83.160385
 20
107.439262
 30
0.0
 11
83.352097
 21
107.439262
 31
0.0
  0
LINE
  5
1A2
100
AcDbEntity
  8
ARMATUR
390
0
  6
DURCHGEHEND
 62
     1
100
AcDbLine
 10
87.58168
 20
113.889282
 30
0.0
 11
87.773727
 21
113.889282
 31
0.0
  0
LINE
  5
1A3
100
AcDbEntity
  8
ARMATUR
390
0
  6
DURCHGEHEND
 62
     1
100
AcDbLine
 10
87.58168
 20
107.439262
 30
0.0
 11
87.773727
 21
107.439262
 31
0.0
  0
LINE
  5
1A4
100
AcDbEntity
  8
ARMATUR
390
0
  6
DURCHGEHEND
 62
     1
100
AcDbLine
 10
83.108078
 20
107.439262
 30
0.0
 11
83.108078
 21
113.889282
 31
0.0
  0
LINE
  5
1A5
100
AcDbEntity
  8
ARMATUR
390
0
  6
DURCHGEHEND
 62
     1
100
AcDbLine
 10
83.108078
 20
113.889282
 30
0.0
 11
83.166397
 21
113.889282
 31
0.0
  0
LINE
  5
1A6
100
AcDbEntity
  8
ARMATUR
390
0
  6
DURCHGEHEND
 62
     1
100
AcDbLine
 10
83.108078
 20
107.439262
 30
0.0
 11
83.166397
 21
107.439262
 31
0.0
  0
LINE
  5
1A7
100
AcDbEntity
  8
ARMATUR
390
0
  6
DURCHGEHEND
 62
     1
100
AcDbLine
 10
87.826248
 20
107.439262
 30
0.0
 11
87.826248
 21
113.889282
 31
0.0
  0
LINE
  5
1A8
100
AcDbEntity
  8
ARMATUR
390
0
  6
DURCHGEHEND
 62
     1
100
AcDbLine
 10
87.767807
 20
113.889282
 30
0.0
 11
87.826248
 21
113.889282
 31
0.0
  0
LINE
  5
1A9
100
AcDbEntity
  8
ARMATUR
390
0
  6
DURCHGEHEND
 62
     1
100
AcDbLine
 10
87.767807
 20
107.439262
 30
0.0
 11
87.826248
 21
107.439262
 31
0.0
  0
LINE
  5
1AA
100
AcDbEntity
  8
ARMATUR
390
0
  6
DURCHGEHEND
 62
     1
100
AcDbLine
 10
82.932755
 20
113.889282
 30
0.0
 11
83.108078
 21
113.889282
 31
0.0
  0
LINE
  5
1AB
100
AcDbEntity
  8
ARMATUR
390
0
  6
DURCHGEHEND
 62
     1
100
AcDbLine
 10
82.932755
 20
107.439262
 30
0.0
 11
83.108078
 21
107.439262
 31
0.0
  0
LINE
  5
1AC
100
AcDbEntity
  8
ARMATUR
390
0
  6
DURCHGEHEND
 62
     1
100
AcDbLine
 10
87.826248
 20
113.889282
 30
0.0
 11
88.001907
 21
113.889282
 31
0.0
  0
LINE
  5
1AD
100
AcDbEntity
  8
ARMATUR
390
0
  6
DURCHGEHEND
 62
     1
100
AcDbLine
 10
87.826248
 20
107.439262
 30
0.0
 11
88.001907
 21
107.439262
 31
0.0
  0
LINE
  5
1AE
100
AcDbEntity
  8
ARMATUR
390
0
  6
DURCHGEHEND
 62
     1
100
AcDbLine
 10
88.041183
 20
107.439262
 30
0.0
 11
88.041183
 21
113.889282
 31
0.0
  0
LINE
  5
1AF
100
AcDbEntity
  8
ARMATUR
390
0
  6
DURCHGEHEND
 62
     1
100
AcDbLine
 10
87.990402
 20
113.889282
 30
0.0
 11
88.041183
 21
113.889282
 31
0.0
  0
LINE
  5
1B0
100
AcDbEntity
  8
ARMATUR
390
0
  6
DURCHGEHEND
 62
     1
100
AcDbLine
 10
87.990402
 20
107.439262
 30
0.0
 11
88.041183
 21
107.439262
 31
0.0
  0
LINE
  5
1B1
100
AcDbEntity
  8
ARMATUR
390
0
  6
DURCHGEHEND
 62
     1
100
AcDbLine
 10
82.893723
 20
107.439262
 30
0.0
 11
82.893723
 21
113.889282
 31
0.0
  0
LINE
  5
1B2
100
AcDbEntity
  8
ARMATUR
390
0
  6
DURCHGEHEND
 62
     1
100
AcDbLine
 10
82.893723
 20
113.889282
 30
0.0
 11
82.944351
 21
113.889282
 31
0.0
  0
LINE
  5
1B3
100
AcDbEntity
  8
ARMATUR
390
0
  6
DURCHGEHEND
 62
     1
100
AcDbLine
 10
82.893723
 20
107.439262
 30
0.0
 11
82.944351
 21
107.439262
 31
0.0
  0
LINE
  5
1B4
100
AcDbEntity
  8
ARMATUR
390
0
  6
DURCHGEHEND
 62
     1
100
AcDbLine
 10
82.735123
 20
113.889282
 30
0.0
 11
82.893723
 21
113.889282
 31
0.0
  0
LINE
  5
1B5
100
AcDbEntity
  8
ARMATUR
390
0
  6
DURCHGEHEND
 62
     1
100
AcDbLine
 10
82.735123
 20
107.439262
 30
0.0
 11
82.893723
 21
107.439262
 31
0.0
  0
LINE
  5
1B6
100
AcDbEntity
  8
ARMATUR
390
0
  6
DURCHGEHEND
 62
     1
100
AcDbLine
 10
88.041183
 20
113.889282
 30
0.0
 11
88.200119
 21
113.889282
 31
0.0
  0
LINE
  5
1B7
100
AcDbEntity
  8
ARMATUR
390
0
  6
DURCHGEHEND
 62
     1
100
AcDbLine
 10
88.041183
 20
107.439262
 30
0.0
 11
88.200119
 21
107.439262
 31
0.0
  0
LINE
  5
1B8
100
AcDbEntity
  8
ARMATUR
390
0
  6
DURCHGEHEND
 62
     1
100
AcDbLine
 10
88.22377
 20
107.439262
 30
0.0
 11
88.22377
 21
113.889282
 31
0.0
  0
LINE
  5
1B9
100
AcDbEntity
  8
ARMATUR
390
0
  6
DURCHGEHEND
 62
     1
100
AcDbLine
 10
88.18129
 20
113.889282
 30
0.0
 11
88.22377
 21
113.889282
 31
0.0
  0
LINE
  5
1BA
100
AcDbEntity
  8
ARMATUR
390
0
  6
DURCHGEHEND
 62
     1
100
AcDbLine
 10
88.18129
 20
107.439262
 30
0.0
 11
88.22377
 21
107.439262
 31
0.0
  0
LINE
  5
1BB
100
AcDbEntity
  8
ARMATUR
390
0
  6
DURCHGEHEND
 62
     1
100
AcDbLine
 10
82.711777
 20
107.439262
 30
0.0
 11
82.711777
 21
113.889282
 31
0.0
  0
LINE
  5
1BC
100
AcDbEntity
  8
ARMATUR
390
0
  6
DURCHGEHEND
 62
     1
100
AcDbLine
 10
82.711777
 20
113.889282
 30
0.0
 11
82.754074
 21
113.889282
 31
0.0
  0
LINE
  5
1BD
100
AcDbEntity
  8
ARMATUR
390
0
  6
DURCHGEHEND
 62
     1
100
AcDbLine
 10
82.711777
 20
107.439262
 30
0.0
 11
82.754074
 21
107.439262
 31
0.0
  0
LINE
  5
1BE
100
AcDbEntity
  8
ARMATUR
390
0
  6
DURCHGEHEND
 62
     1
100
AcDbLine
 10
82.569992
 20
113.889282
 30
0.0
 11
82.711777
 21
113.889282
 31
0.0
  0
LINE
  5
1BF
100
AcDbEntity
  8
ARMATUR
390
0
  6
DURCHGEHEND
 62
     1
100
AcDbLine
 10
82.569992
 20
107.439262
 30
0.0
 11
82.711777
 21
107.439262
 31
0.0
  0
LINE
  5
1C0
100
AcDbEntity
  8
ARMATUR
390
0
  6
DURCHGEHEND
 62
     1
100
AcDbLine
 10
88.22377
 20
113.889282
 30
0.0
 11
88.365891
 21
113.889282
 31
0.0
  0
LINE
  5
1C1
100
AcDbEntity
  8
ARMATUR
390
0
  6
DURCHGEHEND
 62
     1
100
AcDbLine
 10
88.22377
 20
107.439262
 30
0.0
 11
88.365891
 21
107.439262
 31
0.0
  0
LINE
  5
1C2
100
AcDbEntity
  8
ARMATUR
390
0
  6
DURCHGEHEND
 62
     1
100
AcDbLine
 10
88.371719
 20
107.439262
 30
0.0
 11
88.371719
 21
113.889282
 31
0.0
  0
LINE
  5
1C3
100
AcDbEntity
  8
ARMATUR
390
0
  6
DURCHGEHEND
 62
     1
100
AcDbLine
 10
82.564529
 20
107.439262
 30
0.0
 11
82.564529
 21
113.889282
 31
0.0
  0
LINE
  5
1C4
100
AcDbEntity
  8
ARMATUR
390
0
  6
DURCHGEHEND
 62
     1
100
AcDbLine
 10
82.439438
 20
113.889282
 30
0.0
 11
82.564529
 21
113.889282
 31
0.0
  0
LINE
  5
1C5
100
AcDbEntity
  8
ARMATUR
390
0
  6
DURCHGEHEND
 62
     1
100
AcDbLine
 10
82.439438
 20
107.439262
 30
0.0
 11
82.564529
 21
107.439262
 31
0.0
  0
LINE
  5
1C6
100
AcDbEntity
  8
ARMATUR
390
0
  6
DURCHGEHEND
 62
     1
100
AcDbLine
 10
88.371719
 20
113.889282
 30
0.0
 11
88.497116
 21
113.889282
 31
0.0
  0
LINE
  5
1C7
100
AcDbEntity
  8
ARMATUR
390
0
  6
DURCHGEHEND
 62
     1
100
AcDbLine
 10
88.371719
 20
107.439262
 30
0.0
 11
88.497116
 21
107.439262
 31
0.0
  0
LINE
  5
1C8
100
AcDbEntity
  8
ARMATUR
390
0
  6
DURCHGEHEND
 62
     1
100
AcDbLine
 10
82.345108
 20
113.889282
 30
0.0
 11
82.441574
 21
113.889282
 31
0.0
  0
LINE
  5
1C9
100
AcDbEntity
  8
ARMATUR
390
0
  6
DURCHGEHEND
 62
     1
100
AcDbLine
 10
82.345108
 20
107.439262
 30
0.0
 11
82.441574
 21
107.439262
 31
0.0
  0
LINE
  5
1CA
100
AcDbEntity
  8
ARMATUR
390
0
  6
DURCHGEHEND
 62
     1
100
AcDbLine
 10
88.499283
 20
113.889282
 30
0.0
 11
88.592148
 21
113.889282
 31
0.0
  0
LINE
  5
1CB
100
AcDbEntity
  8
ARMATUR
390
0
  6
DURCHGEHEND
 62
     1
100
AcDbLine
 10
88.499283
 20
107.439262
 30
0.0
 11
88.592148
 21
107.439262
 31
0.0
  0
LINE
  5
1CC
100
AcDbEntity
  8
ARMATUR
390
0
  6
DURCHGEHEND
 62
     1
100
AcDbLine
 10
82.288162
 20
113.889282
 30
0.0
 11
82.346542
 21
113.889282
 31
0.0
  0
LINE
  5
1CD
100
AcDbEntity
  8
ARMATUR
390
0
  6
DURCHGEHEND
 62
     1
100
AcDbLine
 10
82.288162
 20
107.439262
 30
0.0
 11
82.346542
 21
107.439262
 31
0.0
  0
LINE
  5
1CE
100
AcDbEntity
  8
ARMATUR
390
0
  6
DURCHGEHEND
 62
     1
100
AcDbLine
 10
88.593582
 20
113.889282
 30
0.0
 11
88.649796
 21
113.889282
 31
0.0
  0
LINE
  5
1CF
100
AcDbEntity
  8
ARMATUR
390
0
  6
DURCHGEHEND
 62
     1
100
AcDbLine
 10
88.593582
 20
107.439262
 30
0.0
 11
88.649796
 21
107.439262
 31
0.0
  0
LINE
  5
1D0
100
AcDbEntity
  8
ARMATUR
390
0
  6
DURCHGEHEND
 62
     1
100
AcDbLine
 10
82.269363
 20
113.889282
 30
0.0
 11
82.288895
 21
113.889282
 31
0.0
  0
LINE
  5
1D1
100
AcDbEntity
  8
ARMATUR
390
0
  6
DURCHGEHEND
 62
     1
100
AcDbLine
 10
82.269363
 20
107.439262
 30
0.0
 11
82.288895
 21
107.439262
 31
0.0
  0
LINE
  5
1D2
100
AcDbEntity
  8
ARMATUR
390
0
  6
DURCHGEHEND
 62
     1
100
AcDbLine
 10
88.650528
 20
113.889282
 30
0.0
 11
88.669357
 21
113.889282
 31
0.0
  0
LINE
  5
1D3
100
AcDbEntity
  8
ARMATUR
390
0
  6
DURCHGEHEND
 62
     1
100
AcDbLine
 10
88.650528
 20
107.439262
 30
0.0
 11
88.669357
 21
107.439262
 31
0.0
  0
LINE
  5
1D4
100
AcDbEntity
  8
ARMATUR
390
0
  6
DURCHGEHEND
 62
     1
100
AcDbLine
 10
92.174332
 20
68.189262
 30
0.0
 11
92.469345
 21
68.189262
 31
0.0
  0
LINE
  5
1D5
100
AcDbEntity
  8
ARMATUR
390
0
  6
DURCHGEHEND
 62
     1
100
AcDbLine
 10
78.469345
 20
68.189262
 30
0.0
 11
92.174332
 21
68.189262
 31
0.0
  0
LINE
  5
1D6
100
AcDbEntity
  8
ARMATUR
390
0
  6
DURCHGEHEND
 62
     1
100
AcDbLine
 10
91.019363
 20
122.389267
 30
0.0
 11
79.919357
 21
122.389252
 31
0.0
  0
LINE
  5
1D7
100
AcDbEntity
  8
ARMATUR
390
0
  6
DURCHGEHEND
 62
     1
100
AcDbLine
 10
85.694351
 20
119.714279
 30
0.0
 11
85.244339
 21
119.714264
 31
0.0
  0
ARC
  5
1D8
100
AcDbEntity
  8
ARMATUR
390
0
  6
DURCHGEHEND
 62
     1
100
AcDbCircle
 10
85.694351
 20
119.789291
 30
0.0
 40
0.075
100
AcDbArc
 50
270.0
 51
360.0
  0
LINE
  5
1D9
100
AcDbEntity
  8
ARMATUR
390
0
  6
DURCHGEHEND
 62
     1
100
AcDbLine
 10
85.769363
 20
122.389267
 30
0.0
 11
85.769363
 21
119.789276
 31
0.0
  0
ARC
  5
1DA
100
AcDbEntity
  8
ARMATUR
390
0
  6
DURCHGEHEND
 62
     1
100
AcDbCircle
 10
85.244339
 20
119.789291
 30
0.0
 40
0.075
100
AcDbArc
 50
180.0
 51
270.0
  0
LINE
  5
1DB
100
AcDbEntity
  8
ARMATUR
390
0
  6
DURCHGEHEND
 62
     1
100
AcDbLine
 10
85.169357
 20
119.789291
 30
0.0
 11
85.169357
 21
122.389252
 31
0.0
  0
LINE
  5
1DC
100
AcDbEntity
  8
ARMATUR
390
0
  6
DURCHGEHEND
 62
     1
100
AcDbLine
 10
85.694351
 20
119.714279
 30
0.0
 11
85.830338
 21
119.714264
 31
0.0
  0
LINE
  5
1DD
100
AcDbEntity
  8
ARMATUR
390
0
  6
DURCHGEHEND
 62
     1
100
AcDbLine
 10
85.108353
 20
119.714279
 30
0.0
 11
85.244339
 21
119.714264
 31
0.0
  0
LINE
  5
1DE
100
AcDbEntity
  8
ARMATUR
390
0
  6
DURCHGEHEND
 62
     1
100
AcDbLine
 10
89.314957
 20
119.714279
 30
0.0
 11
85.830338
 21
119.714264
 31
0.0
  0
LINE
  5
1DF
100
AcDbEntity
  8
ARMATUR
390
0
  6
DURCHGEHEND
 62
     1
100
AcDbLine
 10
85.108353
 20
119.714279
 30
0.0
 11
81.623764
 21
119.714264
 31
0.0
  0
LINE
  5
1E0
100
AcDbEntity
  8
ARMATUR
390
0
  6
DURCHGEHEND
 62
     1
100
AcDbLine
 10
88.628738
 20
119.264282
 30
0.0
 11
82.309952
 21
119.264282
 31
0.0
  0
LINE
  5
1E1
100
AcDbEntity
  8
ARMATUR
390
0
  6
DURCHGEHEND
 62
     1
100
AcDbLine
 10
89.314957
 20
119.714279
 30
0.0
 11
89.464279
 21
119.714264
 31
0.0
  0
LINE
  5
1E2
100
AcDbEntity
  8
ARMATUR
390
0
  6
DURCHGEHEND
 62
     1
100
AcDbLine
 10
81.474411
 20
119.714279
 30
0.0
 11
81.623764
 21
119.714264
 31
0.0
  0
LINE
  5
1E3
100
AcDbEntity
  8
ARMATUR
390
0
  6
DURCHGEHEND
 62
     1
100
AcDbLine
 10
90.969345
 20
122.389267
 30
0.0
 11
90.969345
 21
119.789276
 31
0.0
  0
ARC
  5
1E4
100
AcDbEntity
  8
ARMATUR
390
0
  6
DURCHGEHEND
 62
     1
100
AcDbCircle
 10
90.894363
 20
119.789291
 30
0.0
 40
0.075
100
AcDbArc
 50
270.0
 51
360.0
  0
LINE
  5
1E5
100
AcDbEntity
  8
ARMATUR
390
0
  6
DURCHGEHEND
 62
     1
100
AcDbLine
 10
90.894363
 20
119.714279
 30
0.0
 11
89.464279
 21
119.714264
 31
0.0
  0
LINE
  5
1E6
100
AcDbEntity
  8
ARMATUR
390
0
  6
DURCHGEHEND
 62
     1
100
AcDbLine
 10
81.474411
 20
119.714279
 30
0.0
 11
80.044357
 21
119.714264
 31
0.0
  0
ARC
  5
1E7
100
AcDbEntity
  8
ARMATUR
390
0
  6
DURCHGEHEND
 62
     1
100
AcDbCircle
 10
80.044357
 20
119.789291
 30
0.0
 40
0.075
100
AcDbArc
 50
180.0
 51
270.0
  0
LINE
  5
1E8
100
AcDbEntity
  8
ARMATUR
390
0
  6
DURCHGEHEND
 62
     1
100
AcDbLine
 10
79.969345
 20
119.789291
 30
0.0
 11
79.969345
 21
122.389252
 31
0.0
  0
LINE
  5
1E9
100
AcDbEntity
  8
ARMATUR
390
0
  6
DURCHGEHEND
 62
     1
100
AcDbLine
 10
91.469345
 20
123.889267
 30
0.0
 11
79.469345
 21
123.889252
 31
0.0
  0
LINE
  5
1EA
100
AcDbEntity
  8
ARMATUR
390
0
  6
DURCHGEHEND
 62
     1
100
AcDbLine
 10
91.469345
 20
123.139267
 30
0.0
 11
79.469345
 21
123.139252
 31
0.0
  0
LINE
  5
1EB
100
AcDbEntity
  8
ARMATUR
390
0
  6
DURCHGEHEND
 62
     1
100
AcDbLine
 10
86.668289
 20
114.639282
 30
0.0
 11
88.469345
 21
114.639282
 31
0.0
  0
LINE
  5
1EC
100
AcDbEntity
  8
ARMATUR
390
0
  6
DURCHGEHEND
 62
     1
100
AcDbLine
 10
86.668289
 20
114.639282
 30
0.0
 11
86.668289
 21
119.264282
 31
0.0
  0
LINE
  5
1ED
100
AcDbEntity
  8
ARMATUR
390
0
  6
DURCHGEHEND
 62
     1
100
AcDbLine
 10
86.668289
 20
123.889267
 30
0.0
 11
86.668289
 21
133.639252
 31
0.0
  0
LINE
  5
1EE
100
AcDbEntity
  8
ARMATUR
390
0
  6
DURCHGEHEND
 62
     1
100
AcDbLine
 10
84.270401
 20
133.639267
 30
0.0
 11
84.270401
 21
123.889252
 31
0.0
  0
LINE
  5
1EF
100
AcDbEntity
  8
ARMATUR
390
0
  6
DURCHGEHEND
 62
     1
100
AcDbLine
 10
84.270401
 20
119.264282
 30
0.0
 11
84.270401
 21
114.639282
 31
0.0
  0
LINE
  5
1F0
100
AcDbEntity
  8
ARMATUR
390
0
  6
DURCHGEHEND
 62
     1
100
AcDbLine
 10
82.469345
 20
114.639282
 30
0.0
 11
84.270401
 21
114.639282
 31
0.0
  0
LINE
  5
1F1
100
AcDbEntity
  8
ARMATUR
390
0
  6
DURCHGEHEND
 62
     1
100
AcDbLine
 10
84.270401
 20
114.639282
 30
0.0
 11
85.469345
 21
114.639282
 31
0.0
  0
LINE
  5
1F2
100
AcDbEntity
  8
ARMATUR
390
0
  6
DURCHGEHEND
 62
     1
100
AcDbLine
 10
85.469345
 20
114.639282
 30
0.0
 11
86.668289
 21
114.639282
 31
0.0
  0
LINE
  5
1F3
100
AcDbEntity
  8
ARMATUR
390
0
  6
DURCHGEHEND
 62
     1
100
AcDbLine
 10
92.484207
 20
105.672539
 30
0.0
 11
92.792862
 21
105.672539
 31
0.0
  0
LINE
  5
1F4
100
AcDbEntity
  8
ARMATUR
390
0
  6
DURCHGEHEND
 62
     1
100
AcDbLine
 10
78.145828
 20
105.672539
 30
0.0
 11
92.484207
 21
105.672539
 31
0.0
  0
LINE
  5
1F5
100
AcDbEntity
  8
ARMATUR
390
0
  6
DURCHGEHEND
 62
     1
100
AcDbLine
 10
88.624496
 20
106.789452
 30
0.0
 11
82.314194
 21
106.789452
 31
0.0
  0
LINE
  5
1F6
100
AcDbEntity
  8
ARMATUR
390
0
  6
DURCHGEHEND
 62
     1
100
AcDbLine
 10
89.389603
 20
119.789291
 30
0.0
 11
89.389603
 21
122.389252
 31
0.0
  0
ARC
  5
1F7
100
AcDbEntity
  8
ARMATUR
390
0
  6
DURCHGEHEND
 62
     1
100
AcDbCircle
 10
89.314774
 20
119.789108
 30
0.0
 40
0.0748
100
AcDbArc
 50
270.153015
 51
360.0
  0
ARC
  5
1F8
100
AcDbEntity
  8
ARMATUR
390
0
  6
DURCHGEHEND
 62
     1
100
AcDbCircle
 10
81.623917
 20
119.789108
 30
0.0
 40
0.0748
100
AcDbArc
 50
179.847
 51
269.846008
  0
LINE
  5
1F9
100
AcDbEntity
  8
ARMATUR
390
0
  6
DURCHGEHEND
 62
     1
100
AcDbLine
 10
81.549088
 20
122.389267
 30
0.0
 11
81.549088
 21
119.789276
 31
0.0
  0
LINE
  5
1FA
100
AcDbEntity
  8
ARMATUR
390
0
  6
DURCHGEHEND
 62
     1
100
AcDbLine
 10
171.544388
 20
113.889282
 30
0.0
 11
171.544388
 21
107.439262
 31
0.0
  0
LINE
  5
1FB
100
AcDbEntity
  8
ARMATUR
390
0
  6
DURCHGEHEND
 62
     1
100
AcDbLine
 10
175.089798
 20
107.439262
 30
0.0
 11
175.089798
 21
113.889282
 31
0.0
  0
LINE
  5
1FC
100
AcDbEntity
  8
ARMATUR
390
0
  6
DURCHGEHEND
 62
     1
100
AcDbLine
 10
171.26564
 20
113.889282
 30
0.0
 11
171.26564
 21
107.439262
 31
0.0
  0
LINE
  5
1FD
100
AcDbEntity
  8
ARMATUR
390
0
  6
DURCHGEHEND
 62
     1
100
AcDbLine
 10
175.368942
 20
107.439262
 30
0.0
 11
175.368942
 21
113.889282
 31
0.0
  0
LINE
  5
1FE
100
AcDbEntity
  8
ARMATUR
390
0
  6
DURCHGEHEND
 62
     1
100
AcDbLine
 10
171.01088
 20
113.889282
 30
0.0
 11
171.01088
 21
107.439262
 31
0.0
  0
LINE
  5
1FF
100
AcDbEntity
  8
ARMATUR
390
0
  6
DURCHGEHEND
 62
     1
100
AcDbLine
 10
175.624222
 20
107.439262
 30
0.0
 11
175.624222
 21
113.889282
 31
0.0
  0
LINE
  5
200
100
AcDbEntity
  8
ARMATUR
390
0
  6
DURCHGEHEND
 62
     1
100
AcDbLine
 10
170.783218
 20
113.889282
 30
0.0
 11
170.783218
 21
107.439262
 31
0.0
  0
LINE
  5
201
100
AcDbEntity
  8
ARMATUR
390
0
  6
DURCHGEHEND
 62
     1
100
AcDbLine
 10
175.852402
 20
107.439262
 30
0.0
 11
175.852402
 21
113.889282
 31
0.0
  0
LINE
  5
202
100
AcDbEntity
  8
ARMATUR
390
0
  6
DURCHGEHEND
 62
     1
100
AcDbLine
 10
170.585587
 20
113.889282
 30
0.0
 11
170.585587
 21
107.439262
 31
0.0
  0
LINE
  5
203
100
AcDbEntity
  8
ARMATUR
390
0
  6
DURCHGEHEND
 62
     1
100
AcDbLine
 10
176.050613
 20
107.439262
 30
0.0
 11
176.050613
 21
113.889282
 31
0.0
  0
LINE
  5
204
100
AcDbEntity
  8
ARMATUR
390
0
  6
DURCHGEHEND
 62
     1
100
AcDbLine
 10
170.420486
 20
113.889282
 30
0.0
 11
170.420486
 21
107.439262
 31
0.0
  0
LINE
  5
205
100
AcDbEntity
  8
ARMATUR
390
0
  6
DURCHGEHEND
 62
     1
100
AcDbLine
 10
176.216385
 20
107.439262
 30
0.0
 11
176.216385
 21
113.889282
 31
0.0
  0
LINE
  5
206
100
AcDbEntity
  8
ARMATUR
390
0
  6
DURCHGEHEND
 62
     1
100
AcDbLine
 10
170.289932
 20
113.889282
 30
0.0
 11
170.289932
 21
107.439262
 31
0.0
  0
LINE
  5
207
100
AcDbEntity
  8
ARMATUR
390
0
  6
DURCHGEHEND
 62
     1
100
AcDbLine
 10
176.34761
 20
107.439262
 30
0.0
 11
176.34761
 21
113.889282
 31
0.0
  0
LINE
  5
208
100
AcDbEntity
  8
ARMATUR
390
0
  6
DURCHGEHEND
 62
     1
100
AcDbLine
 10
170.195572
 20
113.889282
 30
0.0
 11
170.195572
 21
107.439262
 31
0.0
  0
LINE
  5
209
100
AcDbEntity
  8
ARMATUR
390
0
  6
DURCHGEHEND
 62
     1
100
AcDbLine
 10
176.442642
 20
107.439262
 30
0.0
 11
176.442642
 21
113.889282
 31
0.0
  0
LINE
  5
20A
100
AcDbEntity
  8
ARMATUR
390
0
  6
DURCHGEHEND
 62
     1
100
AcDbLine
 10
170.138657
 20
113.889282
 30
0.0
 11
170.138657
 21
107.439262
 31
0.0
  0
LINE
  5
20B
100
AcDbEntity
  8
ARMATUR
390
0
  6
DURCHGEHEND
 62
     1
100
AcDbLine
 10
176.50029
 20
107.439262
 30
0.0
 11
176.50029
 21
113.889282
 31
0.0
  0
LINE
  5
20C
100
AcDbEntity
  8
ARMATUR
390
0
  6
DURCHGEHEND
 62
     1
100
AcDbLine
 10
170.119827
 20
113.889282
 30
0.0
 11
170.119827
 21
107.439262
 31
0.0
  0
LINE
  5
20D
100
AcDbEntity
  8
ARMATUR
390
0
  6
DURCHGEHEND
 62
     1
100
AcDbLine
 10
176.519852
 20
107.439262
 30
0.0
 11
176.519852
 21
113.889282
 31
0.0
  0
ARC
  5
20E
100
AcDbEntity
  8
ARMATUR
390
0
  6
DURCHGEHEND
 62
     1
100
AcDbCircle
 10
166.319839
 20
104.465141
 30
0.0
 40
1.25
100
AcDbArc
 50
104.999001
 51
179.998993
  0
ARC
  5
20F
100
AcDbEntity
  8
ARMATUR
390
0
  6
DURCHGEHEND
 62
     1
100
AcDbCircle
 10
180.319839
 20
104.465141
 30
0.0
 40
1.25
100
AcDbArc
 50
0.0
 51
75.0
  0
LINE
  5
210
100
AcDbEntity
  8
ARMATUR
390
0
  6
DURCHGEHEND
 62
     1
100
AcDbLine
 10
165.069839
 20
104.465141
 30
0.0
 11
165.069839
 21
69.439262
 31
0.0
  0
LINE
  5
211
100
AcDbEntity
  8
ARMATUR
390
0
  6
DURCHGEHEND
 62
     1
100
AcDbLine
 10
181.569839
 20
69.439262
 30
0.0
 11
181.569839
 21
104.465141
 31
0.0
  0
ARC
  5
212
100
AcDbEntity
  8
ARMATUR
390
0
  6
DURCHGEHEND
 62
     1
100
AcDbCircle
 10
166.319839
 20
69.439262
 30
0.0
 40
1.25
100
AcDbArc
 50
180.0
 51
270.0
  0
ARC
  5
213
100
AcDbEntity
  8
ARMATUR
390
0
  6
DURCHGEHEND
 62
     1
100
AcDbCircle
 10
180.319839
 20
69.439262
 30
0.0
 40
1.25
100
AcDbArc
 50
270.0
 51
360.0
  0
LINE
  5
214
100
AcDbEntity
  8
ARMATUR
390
0
  6
DURCHGEHEND
 62
     1
100
AcDbLine
 10
180.643356
 20
105.672539
 30
0.0
 11
176.474991
 21
106.789452
 31
0.0
  0
LINE
  5
215
100
AcDbEntity
  8
ARMATUR
390
0
  6
DURCHGEHEND
 62
     1
100
AcDbLine
 10
170.164688
 20
106.789452
 30
0.0
 11
165.996323
 21
105.672539
 31
0.0
  0
ARC
  5
216
100
AcDbEntity
  8
ARMATUR
390
0
  6
DURCHGEHEND
 62
     1
100
AcDbCircle
 10
170.132339
 20
106.91021
 30
0.0
 40
0.125
100
AcDbArc
 50
284.970001
 51
359.970001
  0
ARC
  5
217
100
AcDbEntity
  8
ARMATUR
390
0
  6
DURCHGEHEND
 62
     1
100
AcDbCircle
 10
176.507339
 20
106.91021
 30
0.0
 40
0.125
100
AcDbArc
 50
180.0
 51
255.0
  0
LINE
  5
218
100
AcDbEntity
  8
ARMATUR
390
0
  6
DURCHGEHEND
 62
     1
100
AcDbLine
 10
170.257339
 20
107.314262
 30
0.0
 11
170.257339
 21
106.91021
 31
0.0
  0
LINE
  5
219
100
AcDbEntity
  8
ARMATUR
390
0
  6
DURCHGEHEND
 62
     1
100
AcDbLine
 10
176.382339
 20
106.91021
 30
0.0
 11
176.382339
 21
107.314262
 31
0.0
  0
ARC
  5
21A
100
AcDbEntity
  8
ARMATUR
390
0
  6
DURCHGEHEND
 62
     1
100
AcDbCircle
 10
170.382339
 20
107.314262
 30
0.0
 40
0.125
100
AcDbArc
 50
90.0
 51
180.0
  0
ARC
  5
21B
100
AcDbEntity
  8
ARMATUR
390
0
  6
DURCHGEHEND
 62
     1
100
AcDbCircle
 10
176.257339
 20
107.314262
 30
0.0
 40
0.125
100
AcDbArc
 50
0.0
 51
90.0
  0
ARC
  5
21C
100
AcDbEntity
  8
ARMATUR
390
0
  6
DURCHGEHEND
 62
     1
100
AcDbCircle
 10
178.869827
 20
122.464279
 30
0.0
 40
0.075
100
AcDbArc
 50
270.0
 51
360.0
  0
ARC
  5
21D
100
AcDbEntity
  8
ARMATUR
390
0
  6
DURCHGEHEND
 62
     1
100
AcDbCircle
 10
167.769852
 20
122.464279
 30
0.0
 40
0.075
100
AcDbArc
 50
180.0
 51
270.0
  0
ARC
  5
21E
100
AcDbEntity
  8
ARMATUR
390
0
  6
DURCHGEHEND
 62
     1
100
AcDbCircle
 10
167.769852
 20
123.064255
 30
0.0
 40
0.075
100
AcDbArc
 50
90.0
 51
180.0
  0
ARC
  5
21F
100
AcDbEntity
  8
ARMATUR
390
0
  6
DURCHGEHEND
 62
     1
100
AcDbCircle
 10
178.869827
 20
123.064255
 30
0.0
 40
0.075
100
AcDbArc
 50
0.0
 51
90.0
  0
LINE
  5
220
100
AcDbEntity
  8
ARMATUR
390
0
  6
DURCHGEHEND
 62
     1
100
AcDbLine
 10
167.694839
 20
123.064255
 30
0.0
 11
167.694839
 21
122.464264
 31
0.0
  0
LINE
  5
221
100
AcDbEntity
  8
ARMATUR
390
0
  6
DURCHGEHEND
 62
     1
100
AcDbLine
 10
178.944839
 20
122.464279
 30
0.0
 11
178.944839
 21
123.06424
 31
0.0
  0
ARC
  5
222
100
AcDbEntity
  8
ARMATUR
390
0
  6
DURCHGEHEND
 62
     1
100
AcDbCircle
 10
176.825638
 20
119.639267
 30
0.0
 40
0.075
100
AcDbArc
 50
90.0
 51
150.0
  0
ARC
  5
223
100
AcDbEntity
  8
ARMATUR
390
0
  6
DURCHGEHEND
 62
     1
100
AcDbCircle
 10
169.814041
 20
119.639267
 30
0.0
 40
0.075
100
AcDbArc
 50
30.02
 51
90.019997
  0
LINE
  5
224
100
AcDbEntity
  8
ARMATUR
390
0
  6
DURCHGEHEND
 62
     1
100
AcDbLine
 10
169.878983
 20
119.676743
 30
0.0
 11
170.095474
 21
119.301727
 31
0.0
  0
LINE
  5
225
100
AcDbEntity
  8
ARMATUR
390
0
  6
DURCHGEHEND
 62
     1
100
AcDbLine
 10
176.544205
 20
119.301743
 30
0.0
 11
176.760696
 21
119.676727
 31
0.0
  0
ARC
  5
226
100
AcDbEntity
  8
ARMATUR
390
0
  6
DURCHGEHEND
 62
     1
100
AcDbCircle
 10
176.479233
 20
119.339279
 30
0.0
 40
0.075
100
AcDbArc
 50
270.0
 51
330.0
  0
ARC
  5
227
100
AcDbEntity
  8
ARMATUR
390
0
  6
DURCHGEHEND
 62
     1
100
AcDbCircle
 10
170.160446
 20
119.339279
 30
0.0
 40
0.075
100
AcDbArc
 50
209.981995
 51
269.981995
  0
LINE
  5
228
100
AcDbEntity
  8
ARMATUR
390
0
  6
DURCHGEHEND
 62
     1
100
AcDbLine
 10
179.319839
 20
123.139267
 30
0.0
 11
179.319839
 21
123.889252
 31
0.0
  0
LINE
  5
229
100
AcDbEntity
  8
ARMATUR
390
0
  6
DURCHGEHEND
 62
     1
100
AcDbLine
 10
167.319839
 20
123.889267
 30
0.0
 11
167.319839
 21
123.139252
 31
0.0
  0
ARC
  5
22A
100
AcDbEntity
  8
ARMATUR
390
0
  6
DURCHGEHEND
 62
     1
100
AcDbCircle
 10
170.694839
 20
114.014282
 30
0.0
 40
0.125
100
AcDbArc
 50
180.0
 51
270.0
  0
ARC
  5
22B
100
AcDbEntity
  8
ARMATUR
390
0
  6
DURCHGEHEND
 62
     1
100
AcDbCircle
 10
175.944839
 20
114.014282
 30
0.0
 40
0.125
100
AcDbArc
 50
270.0
 51
360.0
  0
LINE
  5
22C
100
AcDbEntity
  8
ARMATUR
390
0
  6
DURCHGEHEND
 62
     1
100
AcDbLine
 10
170.569839
 20
114.639282
 30
0.0
 11
170.569839
 21
114.014282
 31
0.0
  0
LINE
  5
22D
100
AcDbEntity
  8
ARMATUR
390
0
  6
DURCHGEHEND
 62
     1
100
AcDbLine
 10
176.069839
 20
114.014282
 30
0.0
 11
176.069839
 21
114.639282
 31
0.0
  0
LINE
  5
22E
100
AcDbEntity
  8
ARMATUR
390
0
  6
DURCHGEHEND
 62
     1
100
AcDbLine
 10
173.447952
 20
107.439262
 30
0.0
 11
173.447952
 21
113.889282
 31
0.0
  0
LINE
  5
22F
100
AcDbEntity
  8
ARMATUR
390
0
  6
DURCHGEHEND
 62
     1
100
AcDbLine
 10
173.185043
 20
107.439262
 30
0.0
 11
173.185043
 21
113.889282
 31
0.0
  0
LINE
  5
230
100
AcDbEntity
  8
ARMATUR
390
0
  6
DURCHGEHEND
 62
     1
100
AcDbLine
 10
173.185043
 20
113.889282
 30
0.0
 11
173.447952
 21
113.889282
 31
0.0
  0
LINE
  5
231
100
AcDbEntity
  8
ARMATUR
390
0
  6
DURCHGEHEND
 62
     1
100
AcDbLine
 10
173.185043
 20
107.439262
 30
0.0
 11
173.447952
 21
107.439262
 31
0.0
  0
LINE
  5
232
100
AcDbEntity
  8
ARMATUR
390
0
  6
DURCHGEHEND
 62
     1
100
AcDbLine
 10
173.09758
 20
107.439262
 30
0.0
 11
173.09758
 21
113.889282
 31
0.0
  0
LINE
  5
233
100
AcDbEntity
  8
ARMATUR
390
0
  6
DURCHGEHEND
 62
     1
100
AcDbLine
 10
172.836319
 20
107.439262
 30
0.0
 11
172.836319
 21
113.889282
 31
0.0
  0
LINE
  5
234
100
AcDbEntity
  8
ARMATUR
390
0
  6
DURCHGEHEND
 62
     1
100
AcDbLine
 10
172.836319
 20
113.889282
 30
0.0
 11
173.09758
 21
113.889282
 31
0.0
  0
LINE
  5
235
100
AcDbEntity
  8
ARMATUR
390
0
  6
DURCHGEHEND
 62
     1
100
AcDbLine
 10
172.836319
 20
107.439262
 30
0.0
 11
173.09758
 21
107.439262
 31
0.0
  0
LINE
  5
236
100
AcDbEntity
  8
ARMATUR
390
0
  6
DURCHGEHEND
 62
     1
100
AcDbLine
 10
173.796768
 20
107.439262
 30
0.0
 11
173.796768
 21
113.889282
 31
0.0
  0
LINE
  5
237
100
AcDbEntity
  8
ARMATUR
390
0
  6
DURCHGEHEND
 62
     1
100
AcDbLine
 10
173.535477
 20
107.439262
 30
0.0
 11
173.535477
 21
113.889282
 31
0.0
  0
LINE
  5
238
100
AcDbEntity
  8
ARMATUR
390
0
  6
DURCHGEHEND
 62
     1
100
AcDbLine
 10
173.535477
 20
113.889282
 30
0.0
 11
173.796768
 21
113.889282
 31
0.0
  0
LINE
  5
239
100
AcDbEntity
  8
ARMATUR
390
0
  6
DURCHGEHEND
 62
     1
100
AcDbLine
 10
173.535477
 20
107.439262
 30
0.0
 11
173.796768
 21
107.439262
 31
0.0
  0
LINE
  5
23A
100
AcDbEntity
  8
ARMATUR
390
0
  6
DURCHGEHEND
 62
     1
100
AcDbLine
 10
172.749954
 20
107.439262
 30
0.0
 11
172.749954
 21
113.889282
 31
0.0
  0
LINE
  5
23B
100
AcDbEntity
  8
ARMATUR
390
0
  6
DURCHGEHEND
 62
     1
100
AcDbLine
 10
172.493698
 20
107.439262
 30
0.0
 11
172.493698
 21
113.889282
 31
0.0
  0
LINE
  5
23C
100
AcDbEntity
  8
ARMATUR
390
0
  6
DURCHGEHEND
 62
     1
100
AcDbLine
 10
172.493698
 20
113.889282
 30
0.0
 11
172.749954
 21
113.889282
 31
0.0
  0
LINE
  5
23D
100
AcDbEntity
  8
ARMATUR
390
0
  6
DURCHGEHEND
 62
     1
100
AcDbLine
 10
172.493698
 20
107.439262
 30
0.0
 11
172.749954
 21
107.439262
 31
0.0
  0
LINE
  5
23E
100
AcDbEntity
  8
ARMATUR
390
0
  6
DURCHGEHEND
 62
     1
100
AcDbLine
 10
174.139542
 20
107.439262
 30
0.0
 11
174.139542
 21
113.889282
 31
0.0
  0
LINE
  5
23F
100
AcDbEntity
  8
ARMATUR
390
0
  6
DURCHGEHEND
 62
     1
100
AcDbLine
 10
173.883163
 20
107.439262
 30
0.0
 11
173.883163
 21
113.889282
 31
0.0
  0
LINE
  5
240
100
AcDbEntity
  8
ARMATUR
390
0
  6
DURCHGEHEND
 62
     1
100
AcDbLine
 10
173.883163
 20
113.889282
 30
0.0
 11
174.139542
 21
113.889282
 31
0.0
  0
LINE
  5
241
100
AcDbEntity
  8
ARMATUR
390
0
  6
DURCHGEHEND
 62
     1
100
AcDbLine
 10
173.883163
 20
107.439262
 30
0.0
 11
174.139542
 21
107.439262
 31
0.0
  0
LINE
  5
242
100
AcDbEntity
  8
ARMATUR
390
0
  6
DURCHGEHEND
 62
     1
100
AcDbLine
 10
173.09758
 20
113.889282
 30
0.0
 11
173.185043
 21
113.889282
 31
0.0
  0
LINE
  5
243
100
AcDbEntity
  8
ARMATUR
390
0
  6
DURCHGEHEND
 62
     1
100
AcDbLine
 10
173.09758
 20
107.439262
 30
0.0
 11
173.185043
 21
107.439262
 31
0.0
  0
LINE
  5
244
100
AcDbEntity
  8
ARMATUR
390
0
  6
DURCHGEHEND
 62
     1
100
AcDbLine
 10
173.447952
 20
113.889282
 30
0.0
 11
173.535477
 21
113.889282
 31
0.0
  0
LINE
  5
245
100
AcDbEntity
  8
ARMATUR
390
0
  6
DURCHGEHEND
 62
     1
100
AcDbLine
 10
173.447952
 20
107.439262
 30
0.0
 11
173.535477
 21
107.439262
 31
0.0
  0
LINE
  5
246
100
AcDbEntity
  8
ARMATUR
390
0
  6
DURCHGEHEND
 62
     1
100
AcDbLine
 10
172.749954
 20
113.889282
 30
0.0
 11
172.836319
 21
113.889282
 31
0.0
  0
LINE
  5
247
100
AcDbEntity
  8
ARMATUR
390
0
  6
DURCHGEHEND
 62
     1
100
AcDbLine
 10
172.749954
 20
107.439262
 30
0.0
 11
172.836319
 21
107.439262
 31
0.0
  0
LINE
  5
248
100
AcDbEntity
  8
ARMATUR
390
0
  6
DURCHGEHEND
 62
     1
100
AcDbLine
 10
173.796768
 20
113.889282
 30
0.0
 11
173.883163
 21
113.889282
 31
0.0
  0
LINE
  5
249
100
AcDbEntity
  8
ARMATUR
390
0
  6
DURCHGEHEND
 62
     1
100
AcDbLine
 10
173.796768
 20
107.439262
 30
0.0
 11
173.883163
 21
107.439262
 31
0.0
  0
LINE
  5
24A
100
AcDbEntity
  8
ARMATUR
390
0
  6
DURCHGEHEND
 62
     1
100
AcDbLine
 10
172.409531
 20
107.439262
 30
0.0
 11
172.409531
 21
113.889282
 31
0.0
  0
LINE
  5
24B
100
AcDbEntity
  8
ARMATUR
390
0
  6
DURCHGEHEND
 62
     1
100
AcDbLine
 10
172.161453
 20
107.439262
 30
0.0
 11
172.161453
 21
113.889282
 31
0.0
  0
LINE
  5
24C
100
AcDbEntity
  8
ARMATUR
390
0
  6
DURCHGEHEND
 62
     1
100
AcDbLine
 10
172.161453
 20
113.889282
 30
0.0
 11
172.409531
 21
113.889282
 31
0.0
  0
LINE
  5
24D
100
AcDbEntity
  8
ARMATUR
390
0
  6
DURCHGEHEND
 62
     1
100
AcDbLine
 10
172.161453
 20
107.439262
 30
0.0
 11
172.409531
 21
107.439262
 31
0.0
  0
LINE
  5
24E
100
AcDbEntity
  8
ARMATUR
390
0
  6
DURCHGEHEND
 62
     1
100
AcDbLine
 10
174.472031
 20
107.439262
 30
0.0
 11
174.472031
 21
113.889282
 31
0.0
  0
LINE
  5
24F
100
AcDbEntity
  8
ARMATUR
390
0
  6
DURCHGEHEND
 62
     1
100
AcDbLine
 10
174.22377
 20
107.439262
 30
0.0
 11
174.22377
 21
113.889282
 31
0.0
  0
LINE
  5
250
100
AcDbEntity
  8
ARMATUR
390
0
  6
DURCHGEHEND
 62
     1
100
AcDbLine
 10
174.22377
 20
113.889282
 30
0.0
 11
174.472031
 21
113.889282
 31
0.0
  0
LINE
  5
251
100
AcDbEntity
  8
ARMATUR
390
0
  6
DURCHGEHEND
 62
     1
100
AcDbLine
 10
174.22377
 20
107.439262
 30
0.0
 11
174.472031
 21
107.439262
 31
0.0
  0
LINE
  5
252
100
AcDbEntity
  8
ARMATUR
390
0
  6
DURCHGEHEND
 62
     1
100
AcDbLine
 10
172.409531
 20
113.889282
 30
0.0
 11
172.493698
 21
113.889282
 31
0.0
  0
LINE
  5
253
100
AcDbEntity
  8
ARMATUR
390
0
  6
DURCHGEHEND
 62
     1
100
AcDbLine
 10
172.409531
 20
107.439262
 30
0.0
 11
172.493698
 21
107.439262
 31
0.0
  0
LINE
  5
254
100
AcDbEntity
  8
ARMATUR
390
0
  6
DURCHGEHEND
 62
     1
100
AcDbLine
 10
174.139542
 20
113.889282
 30
0.0
 11
174.22377
 21
113.889282
 31
0.0
  0
LINE
  5
255
100
AcDbEntity
  8
ARMATUR
390
0
  6
DURCHGEHEND
 62
     1
100
AcDbLine
 10
174.139542
 20
107.439262
 30
0.0
 11
174.22377
 21
107.439262
 31
0.0
  0
LINE
  5
256
100
AcDbEntity
  8
ARMATUR
390
0
  6
DURCHGEHEND
 62
     1
100
AcDbLine
 10
172.080521
 20
107.439262
 30
0.0
 11
172.080521
 21
113.889282
 31
0.0
  0
LINE
  5
257
100
AcDbEntity
  8
ARMATUR
390
0
  6
DURCHGEHEND
 62
     1
100
AcDbLine
 10
171.843765
 20
107.439262
 30
0.0
 11
171.843765
 21
113.889282
 31
0.0
  0
LINE
  5
258
100
AcDbEntity
  8
ARMATUR
390
0
  6
DURCHGEHEND
 62
     1
100
AcDbLine
 10
171.843765
 20
113.889282
 30
0.0
 11
172.080521
 21
113.889282
 31
0.0
  0
LINE
  5
259
100
AcDbEntity
  8
ARMATUR
390
0
  6
DURCHGEHEND
 62
     1
100
AcDbLine
 10
171.843765
 20
107.439262
 30
0.0
 11
172.080521
 21
107.439262
 31
0.0
  0
LINE
  5
25A
100
AcDbEntity
  8
ARMATUR
390
0
  6
DURCHGEHEND
 62
     1
100
AcDbLine
 10
172.080521
 20
113.889282
 30
0.0
 11
172.161453
 21
113.889282
 31
0.0
  0
LINE
  5
25B
100
AcDbEntity
  8
ARMATUR
390
0
  6
DURCHGEHEND
 62
     1
100
AcDbLine
 10
172.080521
 20
107.439262
 30
0.0
 11
172.161453
 21
107.439262
 31
0.0
  0
LINE
  5
25C
100
AcDbEntity
  8
ARMATUR
390
0
  6
DURCHGEHEND
 62
     1
100
AcDbLine
 10
174.790024
 20
107.439262
 30
0.0
 11
174.790024
 21
113.889282
 31
0.0
  0
LINE
  5
25D
100
AcDbEntity
  8
ARMATUR
390
0
  6
DURCHGEHEND
 62
     1
100
AcDbLine
 10
174.553024
 20
107.439262
 30
0.0
 11
174.553024
 21
113.889282
 31
0.0
  0
LINE
  5
25E
100
AcDbEntity
  8
ARMATUR
390
0
  6
DURCHGEHEND
 62
     1
100
AcDbLine
 10
174.553024
 20
113.889282
 30
0.0
 11
174.790024
 21
113.889282
 31
0.0
  0
LINE
  5
25F
100
AcDbEntity
  8
ARMATUR
390
0
  6
DURCHGEHEND
 62
     1
100
AcDbLine
 10
174.553024
 20
107.439262
 30
0.0
 11
174.790024
 21
107.439262
 31
0.0
  0
LINE
  5
260
100
AcDbEntity
  8
ARMATUR
390
0
  6
DURCHGEHEND
 62
     1
100
AcDbLine
 10
174.472031
 20
113.889282
 30
0.0
 11
174.553024
 21
113.889282
 31
0.0
  0
LINE
  5
261
100
AcDbEntity
  8
ARMATUR
390
0
  6
DURCHGEHEND
 62
     1
100
AcDbLine
 10
174.472031
 20
107.439262
 30
0.0
 11
174.553024
 21
107.439262
 31
0.0
  0
LINE
  5
262
100
AcDbEntity
  8
ARMATUR
390
0
  6
DURCHGEHEND
 62
     1
100
AcDbLine
 10
171.767136
 20
107.439262
 30
0.0
 11
171.767136
 21
113.889282
 31
0.0
  0
LINE
  5
263
100
AcDbEntity
  8
ARMATUR
390
0
  6
DURCHGEHEND
 62
     1
100
AcDbLine
 10
171.767136
 20
113.889282
 30
0.0
 11
171.843765
 21
113.889282
 31
0.0
  0
LINE
  5
264
100
AcDbEntity
  8
ARMATUR
390
0
  6
DURCHGEHEND
 62
     1
100
AcDbLine
 10
171.767136
 20
107.439262
 30
0.0
 11
171.843765
 21
107.439262
 31
0.0
  0
LINE
  5
265
100
AcDbEntity
  8
ARMATUR
390
0
  6
DURCHGEHEND
 62
     1
100
AcDbLine
 10
174.866776
 20
107.439262
 30
0.0
 11
174.866776
 21
113.889282
 31
0.0
  0
LINE
  5
266
100
AcDbEntity
  8
ARMATUR
390
0
  6
DURCHGEHEND
 62
     1
100
AcDbLine
 10
174.790024
 20
113.889282
 30
0.0
 11
174.866776
 21
113.889282
 31
0.0
  0
LINE
  5
267
100
AcDbEntity
  8
ARMATUR
390
0
  6
DURCHGEHEND
 62
     1
100
AcDbLine
 10
174.790024
 20
107.439262
 30
0.0
 11
174.866776
 21
107.439262
 31
0.0
  0
LINE
  5
268
100
AcDbEntity
  8
ARMATUR
390
0
  6
DURCHGEHEND
 62
     1
100
AcDbLine
 10
171.544388
 20
113.889282
 30
0.0
 11
171.767136
 21
113.889282
 31
0.0
  0
LINE
  5
269
100
AcDbEntity
  8
ARMATUR
390
0
  6
DURCHGEHEND
 62
     1
100
AcDbLine
 10
171.544388
 20
107.439262
 30
0.0
 11
171.767136
 21
107.439262
 31
0.0
  0
LINE
  5
26A
100
AcDbEntity
  8
ARMATUR
390
0
  6
DURCHGEHEND
 62
     1
100
AcDbLine
 10
174.866776
 20
113.889282
 30
0.0
 11
175.089798
 21
113.889282
 31
0.0
  0
LINE
  5
26B
100
AcDbEntity
  8
ARMATUR
390
0
  6
DURCHGEHEND
 62
     1
100
AcDbLine
 10
174.866776
 20
107.439262
 30
0.0
 11
175.089798
 21
107.439262
 31
0.0
  0
LINE
  5
26C
100
AcDbEntity
  8
ARMATUR
390
0
  6
DURCHGEHEND
 62
     1
100
AcDbLine
 10
171.473251
 20
107.439262
 30
0.0
 11
171.473251
 21
113.889282
 31
0.0
  0
LINE
  5
26D
100
AcDbEntity
  8
ARMATUR
390
0
  6
DURCHGEHEND
 62
     1
100
AcDbLine
 10
171.473251
 20
113.889282
 30
0.0
 11
171.544662
 21
113.889282
 31
0.0
  0
LINE
  5
26E
100
AcDbEntity
  8
ARMATUR
390
0
  6
DURCHGEHEND
 62
     1
100
AcDbLine
 10
171.473251
 20
107.439262
 30
0.0
 11
171.544662
 21
107.439262
 31
0.0
  0
LINE
  5
26F
100
AcDbEntity
  8
ARMATUR
390
0
  6
DURCHGEHEND
 62
     1
100
AcDbLine
 10
175.161026
 20
107.439262
 30
0.0
 11
175.161026
 21
113.889282
 31
0.0
  0
LINE
  5
270
100
AcDbEntity
  8
ARMATUR
390
0
  6
DURCHGEHEND
 62
     1
100
AcDbLine
 10
175.089554
 20
113.889282
 30
0.0
 11
175.161026
 21
113.889282
 31
0.0
  0
LINE
  5
271
100
AcDbEntity
  8
ARMATUR
390
0
  6
DURCHGEHEND
 62
     1
100
AcDbLine
 10
175.089554
 20
107.439262
 30
0.0
 11
175.161026
 21
107.439262
 31
0.0
  0
LINE
  5
272
100
AcDbEntity
  8
ARMATUR
390
0
  6
DURCHGEHEND
 62
     1
100
AcDbLine
 10
171.26564
 20
113.889282
 30
0.0
 11
171.473251
 21
113.889282
 31
0.0
  0
LINE
  5
273
100
AcDbEntity
  8
ARMATUR
390
0
  6
DURCHGEHEND
 62
     1
100
AcDbLine
 10
171.26564
 20
107.439262
 30
0.0
 11
171.473251
 21
107.439262
 31
0.0
  0
LINE
  5
274
100
AcDbEntity
  8
ARMATUR
390
0
  6
DURCHGEHEND
 62
     1
100
AcDbLine
 10
175.161026
 20
113.889282
 30
0.0
 11
175.368942
 21
113.889282
 31
0.0
  0
LINE
  5
275
100
AcDbEntity
  8
ARMATUR
390
0
  6
DURCHGEHEND
 62
     1
100
AcDbLine
 10
175.161026
 20
107.439262
 30
0.0
 11
175.368942
 21
107.439262
 31
0.0
  0
LINE
  5
276
100
AcDbEntity
  8
ARMATUR
390
0
  6
DURCHGEHEND
 62
     1
100
AcDbLine
 10
171.202591
 20
107.439262
 30
0.0
 11
171.202591
 21
113.889282
 31
0.0
  0
LINE
  5
277
100
AcDbEntity
  8
ARMATUR
390
0
  6
DURCHGEHEND
 62
     1
100
AcDbLine
 10
171.202591
 20
113.889282
 30
0.0
 11
171.267868
 21
113.889282
 31
0.0
  0
LINE
  5
278
100
AcDbEntity
  8
ARMATUR
390
0
  6
DURCHGEHEND
 62
     1
100
AcDbLine
 10
171.202591
 20
107.439262
 30
0.0
 11
171.267868
 21
107.439262
 31
0.0
  0
LINE
  5
279
100
AcDbEntity
  8
ARMATUR
390
0
  6
DURCHGEHEND
 62
     1
100
AcDbLine
 10
175.432175
 20
107.439262
 30
0.0
 11
175.432175
 21
113.889282
 31
0.0
  0
LINE
  5
27A
100
AcDbEntity
  8
ARMATUR
390
0
  6
DURCHGEHEND
 62
     1
100
AcDbLine
 10
175.366776
 20
113.889282
 30
0.0
 11
175.432175
 21
113.889282
 31
0.0
  0
LINE
  5
27B
100
AcDbEntity
  8
ARMATUR
390
0
  6
DURCHGEHEND
 62
     1
100
AcDbLine
 10
175.366776
 20
107.439262
 30
0.0
 11
175.432175
 21
107.439262
 31
0.0
  0
LINE
  5
27C
100
AcDbEntity
  8
ARMATUR
390
0
  6
DURCHGEHEND
 62
     1
100
AcDbLine
 10
171.01088
 20
113.889282
 30
0.0
 11
171.202591
 21
113.889282
 31
0.0
  0
LINE
  5
27D
100
AcDbEntity
  8
ARMATUR
390
0
  6
DURCHGEHEND
 62
     1
100
AcDbLine
 10
171.01088
 20
107.439262
 30
0.0
 11
171.202591
 21
107.439262
 31
0.0
  0
LINE
  5
27E
100
AcDbEntity
  8
ARMATUR
390
0
  6
DURCHGEHEND
 62
     1
100
AcDbLine
 10
175.432175
 20
113.889282
 30
0.0
 11
175.624222
 21
113.889282
 31
0.0
  0
LINE
  5
27F
100
AcDbEntity
  8
ARMATUR
390
0
  6
DURCHGEHEND
 62
     1
100
AcDbLine
 10
175.432175
 20
107.439262
 30
0.0
 11
175.624222
 21
107.439262
 31
0.0
  0
LINE
  5
280
100
AcDbEntity
  8
ARMATUR
390
0
  6
DURCHGEHEND
 62
     1
100
AcDbLine
 10
170.958572
 20
107.439262
 30
0.0
 11
170.958572
 21
113.889282
 31
0.0
  0
LINE
  5
281
100
AcDbEntity
  8
ARMATUR
390
0
  6
DURCHGEHEND
 62
     1
100
AcDbLine
 10
170.958572
 20
113.889282
 30
0.0
 11
171.016861
 21
113.889282
 31
0.0
  0
LINE
  5
282
100
AcDbEntity
  8
ARMATUR
390
0
  6
DURCHGEHEND
 62
     1
100
AcDbLine
 10
170.958572
 20
107.439262
 30
0.0
 11
171.016861
 21
107.439262
 31
0.0
  0
LINE
  5
283
100
AcDbEntity
  8
ARMATUR
390
0
  6
DURCHGEHEND
 62
     1
100
AcDbLine
 10
175.676743
 20
107.439262
 30
0.0
 11
175.676743
 21
113.889282
 31
0.0
  0
LINE
  5
284
100
AcDbEntity
  8
ARMATUR
390
0
  6
DURCHGEHEND
 62
     1
100
AcDbLine
 10
175.618301
 20
113.889282
 30
0.0
 11
175.676743
 21
113.889282
 31
0.0
  0
LINE
  5
285
100
AcDbEntity
  8
ARMATUR
390
0
  6
DURCHGEHEND
 62
     1
100
AcDbLine
 10
175.618301
 20
107.439262
 30
0.0
 11
175.676743
 21
107.439262
 31
0.0
  0
LINE
  5
286
100
AcDbEntity
  8
ARMATUR
390
0
  6
DURCHGEHEND
 62
     1
100
AcDbLine
 10
170.783218
 20
113.889282
 30
0.0
 11
170.958572
 21
113.889282
 31
0.0
  0
LINE
  5
287
100
AcDbEntity
  8
ARMATUR
390
0
  6
DURCHGEHEND
 62
     1
100
AcDbLine
 10
170.783218
 20
107.439262
 30
0.0
 11
170.958572
 21
107.439262
 31
0.0
  0
LINE
  5
288
100
AcDbEntity
  8
ARMATUR
390
0
  6
DURCHGEHEND
 62
     1
100
AcDbLine
 10
175.676743
 20
113.889282
 30
0.0
 11
175.852402
 21
113.889282
 31
0.0
  0
LINE
  5
289
100
AcDbEntity
  8
ARMATUR
390
0
  6
DURCHGEHEND
 62
     1
100
AcDbLine
 10
175.676743
 20
107.439262
 30
0.0
 11
175.852402
 21
107.439262
 31
0.0
  0
LINE
  5
28A
100
AcDbEntity
  8
ARMATUR
390
0
  6
DURCHGEHEND
 62
     1
100
AcDbLine
 10
175.891678
 20
107.439262
 30
0.0
 11
175.891678
 21
113.889282
 31
0.0
  0
LINE
  5
28B
100
AcDbEntity
  8
ARMATUR
390
0
  6
DURCHGEHEND
 62
     1
100
AcDbLine
 10
175.840897
 20
113.889282
 30
0.0
 11
175.891678
 21
113.889282
 31
0.0
  0
LINE
  5
28C
100
AcDbEntity
  8
ARMATUR
390
0
  6
DURCHGEHEND
 62
     1
100
AcDbLine
 10
175.840897
 20
107.439262
 30
0.0
 11
175.891678
 21
107.439262
 31
0.0
  0
LINE
  5
28D
100
AcDbEntity
  8
ARMATUR
390
0
  6
DURCHGEHEND
 62
     1
100
AcDbLine
 10
170.744217
 20
107.439262
 30
0.0
 11
170.744217
 21
113.889282
 31
0.0
  0
LINE
  5
28E
100
AcDbEntity
  8
ARMATUR
390
0
  6
DURCHGEHEND
 62
     1
100
AcDbLine
 10
170.744217
 20
113.889282
 30
0.0
 11
170.794846
 21
113.889282
 31
0.0
  0
LINE
  5
28F
100
AcDbEntity
  8
ARMATUR
390
0
  6
DURCHGEHEND
 62
     1
100
AcDbLine
 10
170.744217
 20
107.439262
 30
0.0
 11
170.794846
 21
107.439262
 31
0.0
  0
LINE
  5
290
100
AcDbEntity
  8
ARMATUR
390
0
  6
DURCHGEHEND
 62
     1
100
AcDbLine
 10
170.585587
 20
113.889282
 30
0.0
 11
170.744217
 21
113.889282
 31
0.0
  0
LINE
  5
291
100
AcDbEntity
  8
ARMATUR
390
0
  6
DURCHGEHEND
 62
     1
100
AcDbLine
 10
170.585587
 20
107.439262
 30
0.0
 11
170.744217
 21
107.439262
 31
0.0
  0
LINE
  5
292
100
AcDbEntity
  8
ARMATUR
390
0
  6
DURCHGEHEND
 62
     1
100
AcDbLine
 10
175.891678
 20
113.889282
 30
0.0
 11
176.050613
 21
113.889282
 31
0.0
  0
LINE
  5
293
100
AcDbEntity
  8
ARMATUR
390
0
  6
DURCHGEHEND
 62
     1
100
AcDbLine
 10
175.891678
 20
107.439262
 30
0.0
 11
176.050613
 21
107.439262
 31
0.0
  0
LINE
  5
294
100
AcDbEntity
  8
ARMATUR
390
0
  6
DURCHGEHEND
 62
     1
100
AcDbLine
 10
176.074265
 20
107.439262
 30
0.0
 11
176.074265
 21
113.889282
 31
0.0
  0
LINE
  5
295
100
AcDbEntity
  8
ARMATUR
390
0
  6
DURCHGEHEND
 62
     1
100
AcDbLine
 10
176.031815
 20
113.889282
 30
0.0
 11
176.074265
 21
113.889282
 31
0.0
  0
LINE
  5
296
100
AcDbEntity
  8
ARMATUR
390
0
  6
DURCHGEHEND
 62
     1
100
AcDbLine
 10
176.031815
 20
107.439262
 30
0.0
 11
176.074265
 21
107.439262
 31
0.0
  0
LINE
  5
297
100
AcDbEntity
  8
ARMATUR
390
0
  6
DURCHGEHEND
 62
     1
100
AcDbLine
 10
170.562271
 20
107.439262
 30
0.0
 11
170.562271
 21
113.889282
 31
0.0
  0
LINE
  5
298
100
AcDbEntity
  8
ARMATUR
390
0
  6
DURCHGEHEND
 62
     1
100
AcDbLine
 10
170.562271
 20
113.889282
 30
0.0
 11
170.604568
 21
113.889282
 31
0.0
  0
LINE
  5
299
100
AcDbEntity
  8
ARMATUR
390
0
  6
DURCHGEHEND
 62
     1
100
AcDbLine
 10
170.562271
 20
107.439262
 30
0.0
 11
170.604568
 21
107.439262
 31
0.0
  0
LINE
  5
29A
100
AcDbEntity
  8
ARMATUR
390
0
  6
DURCHGEHEND
 62
     1
100
AcDbLine
 10
170.420486
 20
113.889282
 30
0.0
 11
170.562271
 21
113.889282
 31
0.0
  0
LINE
  5
29B
100
AcDbEntity
  8
ARMATUR
390
0
  6
DURCHGEHEND
 62
     1
100
AcDbLine
 10
170.420486
 20
107.439262
 30
0.0
 11
170.562271
 21
107.439262
 31
0.0
  0
LINE
  5
29C
100
AcDbEntity
  8
ARMATUR
390
0
  6
DURCHGEHEND
 62
     1
100
AcDbLine
 10
176.074265
 20
113.889282
 30
0.0
 11
176.216385
 21
113.889282
 31
0.0
  0
LINE
  5
29D
100
AcDbEntity
  8
ARMATUR
390
0
  6
DURCHGEHEND
 62
     1
100
AcDbLine
 10
176.074265
 20
107.439262
 30
0.0
 11
176.216385
 21
107.439262
 31
0.0
  0
LINE
  5
29E
100
AcDbEntity
  8
ARMATUR
390
0
  6
DURCHGEHEND
 62
     1
100
AcDbLine
 10
176.222214
 20
107.439262
 30
0.0
 11
176.222214
 21
113.889282
 31
0.0
  0
LINE
  5
29F
100
AcDbEntity
  8
ARMATUR
390
0
  6
DURCHGEHEND
 62
     1
100
AcDbLine
 10
170.414993
 20
107.439262
 30
0.0
 11
170.414993
 21
113.889282
 31
0.0
  0
LINE
  5
2A0
100
AcDbEntity
  8
ARMATUR
390
0
  6
DURCHGEHEND
 62
     1
100
AcDbLine
 10
170.289932
 20
113.889282
 30
0.0
 11
170.414993
 21
113.889282
 31
0.0
  0
LINE
  5
2A1
100
AcDbEntity
  8
ARMATUR
390
0
  6
DURCHGEHEND
 62
     1
100
AcDbLine
 10
170.289932
 20
107.439262
 30
0.0
 11
170.414993
 21
107.439262
 31
0.0
  0
LINE
  5
2A2
100
AcDbEntity
  8
ARMATUR
390
0
  6
DURCHGEHEND
 62
     1
100
AcDbLine
 10
176.222214
 20
113.889282
 30
0.0
 11
176.34761
 21
113.889282
 31
0.0
  0
LINE
  5
2A3
100
AcDbEntity
  8
ARMATUR
390
0
  6
DURCHGEHEND
 62
     1
100
AcDbLine
 10
176.222214
 20
107.439262
 30
0.0
 11
176.34761
 21
107.439262
 31
0.0
  0
LINE
  5
2A4
100
AcDbEntity
  8
ARMATUR
390
0
  6
DURCHGEHEND
 62
     1
100
AcDbLine
 10
170.195572
 20
113.889282
 30
0.0
 11
170.292068
 21
113.889282
 31
0.0
  0
LINE
  5
2A5
100
AcDbEntity
  8
ARMATUR
390
0
  6
DURCHGEHEND
 62
     1
100
AcDbLine
 10
170.195572
 20
107.439262
 30
0.0
 11
170.292068
 21
107.439262
 31
0.0
  0
LINE
  5
2A6
100
AcDbEntity
  8
ARMATUR
390
0
  6
DURCHGEHEND
 62
     1
100
AcDbLine
 10
176.349747
 20
113.889282
 30
0.0
 11
176.442642
 21
113.889282
 31
0.0
  0
LINE
  5
2A7
100
AcDbEntity
  8
ARMATUR
390
0
  6
DURCHGEHEND
 62
     1
100
AcDbLine
 10
176.349747
 20
107.439262
 30
0.0
 11
176.442642
 21
107.439262
 31
0.0
  0
LINE
  5
2A8
100
AcDbEntity
  8
ARMATUR
390
0
  6
DURCHGEHEND
 62
     1
100
AcDbLine
 10
170.138657
 20
113.889282
 30
0.0
 11
170.197037
 21
113.889282
 31
0.0
  0
LINE
  5
2A9
100
AcDbEntity
  8
ARMATUR
390
0
  6
DURCHGEHEND
 62
     1
100
AcDbLine
 10
170.138657
 20
107.439262
 30
0.0
 11
170.197037
 21
107.439262
 31
0.0
  0
LINE
  5
2AA
100
AcDbEntity
  8
ARMATUR
390
0
  6
DURCHGEHEND
 62
     1
100
AcDbLine
 10
176.444107
 20
113.889282
 30
0.0
 11
176.50029
 21
113.889282
 31
0.0
  0
LINE
  5
2AB
100
AcDbEntity
  8
ARMATUR
390
0
  6
DURCHGEHEND
 62
     1
100
AcDbLine
 10
176.444107
 20
107.439262
 30
0.0
 11
176.50029
 21
107.439262
 31
0.0
  0
LINE
  5
2AC
100
AcDbEntity
  8
ARMATUR
390
0
  6
DURCHGEHEND
 62
     1
100
AcDbLine
 10
170.119827
 20
113.889282
 30
0.0
 11
170.139389
 21
113.889282
 31
0.0
  0
LINE
  5
2AD
100
AcDbEntity
  8
ARMATUR
390
0
  6
DURCHGEHEND
 62
     1
100
AcDbLine
 10
170.119827
 20
107.439262
 30
0.0
 11
170.139389
 21
107.439262
 31
0.0
  0
LINE
  5
2AE
100
AcDbEntity
  8
ARMATUR
390
0
  6
DURCHGEHEND
 62
     1
100
AcDbLine
 10
176.501022
 20
113.889282
 30
0.0
 11
176.519852
 21
113.889282
 31
0.0
  0
LINE
  5
2AF
100
AcDbEntity
  8
ARMATUR
390
0
  6
DURCHGEHEND
 62
     1
100
AcDbLine
 10
176.501022
 20
107.439262
 30
0.0
 11
176.519852
 21
107.439262
 31
0.0
  0
LINE
  5
2B0
100
AcDbEntity
  8
ARMATUR
390
0
  6
DURCHGEHEND
 62
     1
100
AcDbLine
 10
166.319839
 20
68.189262
 30
0.0
 11
180.319839
 21
68.189262
 31
0.0
  0
LINE
  5
2B1
100
AcDbEntity
  8
ARMATUR
390
0
  6
DURCHGEHEND
 62
     1
100
AcDbLine
 10
178.869827
 20
122.389267
 30
0.0
 11
167.769852
 21
122.389252
 31
0.0
  0
LINE
  5
2B2
100
AcDbEntity
  8
ARMATUR
390
0
  6
DURCHGEHEND
 62
     1
100
AcDbLine
 10
173.544846
 20
119.714279
 30
0.0
 11
173.094833
 21
119.714264
 31
0.0
  0
LINE
  5
2B3
100
AcDbEntity
  8
ARMATUR
390
0
  6
DURCHGEHEND
 62
     1
100
AcDbLine
 10
173.619827
 20
122.389267
 30
0.0
 11
173.619827
 21
119.789276
 31
0.0
  0
ARC
  5
2B4
100
AcDbEntity
  8
ARMATUR
390
0
  6
DURCHGEHEND
 62
     1
100
AcDbCircle
 10
173.544846
 20
119.789291
 30
0.0
 40
0.075
100
AcDbArc
 50
270.0
 51
360.0
  0
LINE
  5
2B5
100
AcDbEntity
  8
ARMATUR
390
0
  6
DURCHGEHEND
 62
     1
100
AcDbLine
 10
173.019852
 20
119.789291
 30
0.0
 11
173.019852
 21
122.389252
 31
0.0
  0
ARC
  5
2B6
100
AcDbEntity
  8
ARMATUR
390
0
  6
DURCHGEHEND
 62
     1
100
AcDbCircle
 10
173.094833
 20
119.789291
 30
0.0
 40
0.075
100
AcDbArc
 50
180.0
 51
270.0
  0
LINE
  5
2B7
100
AcDbEntity
  8
ARMATUR
390
0
  6
DURCHGEHEND
 62
     1
100
AcDbLine
 10
173.544846
 20
119.714279
 30
0.0
 11
173.680801
 21
119.714264
 31
0.0
  0
LINE
  5
2B8
100
AcDbEntity
  8
ARMATUR
390
0
  6
DURCHGEHEND
 62
     1
100
AcDbLine
 10
172.958878
 20
119.714279
 30
0.0
 11
173.094833
 21
119.714264
 31
0.0
  0
LINE
  5
2B9
100
AcDbEntity
  8
ARMATUR
390
0
  6
DURCHGEHEND
 62
     1
100
AcDbLine
 10
172.958878
 20
119.714279
 30
0.0
 11
169.474258
 21
119.714264
 31
0.0
  0
LINE
  5
2BA
100
AcDbEntity
  8
ARMATUR
390
0
  6
DURCHGEHEND
 62
     1
100
AcDbLine
 10
177.165421
 20
119.714279
 30
0.0
 11
173.680801
 21
119.714264
 31
0.0
  0
LINE
  5
2BB
100
AcDbEntity
  8
ARMATUR
390
0
  6
DURCHGEHEND
 62
     1
100
AcDbLine
 10
176.479233
 20
119.264282
 30
0.0
 11
170.160446
 21
119.264282
 31
0.0
  0
LINE
  5
2BC
100
AcDbEntity
  8
ARMATUR
390
0
  6
DURCHGEHEND
 62
     1
100
AcDbLine
 10
177.165421
 20
119.714279
 30
0.0
 11
177.314774
 21
119.714264
 31
0.0
  0
LINE
  5
2BD
100
AcDbEntity
  8
ARMATUR
390
0
  6
DURCHGEHEND
 62
     1
100
AcDbLine
 10
169.324905
 20
119.714279
 30
0.0
 11
169.474258
 21
119.714264
 31
0.0
  0
LINE
  5
2BE
100
AcDbEntity
  8
ARMATUR
390
0
  6
DURCHGEHEND
 62
     1
100
AcDbLine
 10
178.744827
 20
119.714279
 30
0.0
 11
177.314774
 21
119.714264
 31
0.0
  0
LINE
  5
2BF
100
AcDbEntity
  8
ARMATUR
390
0
  6
DURCHGEHEND
 62
     1
100
AcDbLine
 10
178.819839
 20
122.389267
 30
0.0
 11
178.819839
 21
119.789276
 31
0.0
  0
ARC
  5
2C0
100
AcDbEntity
  8
ARMATUR
390
0
  6
DURCHGEHEND
 62
     1
100
AcDbCircle
 10
178.744827
 20
119.789291
 30
0.0
 40
0.075
100
AcDbArc
 50
270.0
 51
360.0
  0
LINE
  5
2C1
100
AcDbEntity
  8
ARMATUR
390
0
  6
DURCHGEHEND
 62
     1
100
AcDbLine
 10
169.324905
 20
119.714279
 30
0.0
 11
167.894852
 21
119.714264
 31
0.0
  0
ARC
  5
2C2
100
AcDbEntity
  8
ARMATUR
390
0
  6
DURCHGEHEND
 62
     1
100
AcDbCircle
 10
167.894852
 20
119.789291
 30
0.0
 40
0.075
100
AcDbArc
 50
180.0
 51
270.0
  0
LINE
  5
2C3
100
AcDbEntity
  8
ARMATUR
390
0
  6
DURCHGEHEND
 62
     1
100
AcDbLine
 10
167.819839
 20
119.789291
 30
0.0
 11
167.819839
 21
122.389252
 31
0.0
  0
LINE
  5
2C4
100
AcDbEntity
  8
ARMATUR
390
0
  6
DURCHGEHEND
 62
     1
100
AcDbLine
 10
179.319839
 20
123.889267
 30
0.0
 11
167.319839
 21
123.889252
 31
0.0
  0
LINE
  5
2C5
100
AcDbEntity
  8
ARMATUR
390
0
  6
DURCHGEHEND
 62
     1
100
AcDbLine
 10
179.319839
 20
123.139267
 30
0.0
 11
167.319839
 21
123.139252
 31
0.0
  0
LINE
  5
2C6
100
AcDbEntity
  8
ARMATUR
390
0
  6
DURCHGEHEND
 62
     1
100
AcDbLine
 10
176.069839
 20
133.639267
 30
0.0
 11
176.069839
 21
123.889252
 31
0.0
  0
LINE
  5
2C7
100
AcDbEntity
  8
ARMATUR
390
0
  6
DURCHGEHEND
 62
     1
100
AcDbLine
 10
176.069839
 20
119.264282
 30
0.0
 11
176.069839
 21
114.639282
 31
0.0
  0
LINE
  5
2C8
100
AcDbEntity
  8
ARMATUR
390
0
  6
DURCHGEHEND
 62
     1
100
AcDbLine
 10
170.569839
 20
114.639282
 30
0.0
 11
176.069839
 21
114.639282
 31
0.0
  0
LINE
  5
2C9
100
AcDbEntity
  8
ARMATUR
390
0
  6
DURCHGEHEND
 62
     1
100
AcDbLine
 10
170.569839
 20
114.639282
 30
0.0
 11
170.569839
 21
119.264282
 31
0.0
  0
LINE
  5
2CA
100
AcDbEntity
  8
ARMATUR
390
0
  6
DURCHGEHEND
 62
     1
100
AcDbLine
 10
170.569839
 20
123.889267
 30
0.0
 11
170.569839
 21
133.639252
 31
0.0
  0
LINE
  5
2CB
100
AcDbEntity
  8
ARMATUR
390
0
  6
DURCHGEHEND
 62
     1
100
AcDbLine
 10
168.769852
 20
133.889267
 30
0.0
 11
177.869827
 21
133.889252
 31
0.0
  0
LINE
  5
2CC
100
AcDbEntity
  8
ARMATUR
390
0
  6
DURCHGEHEND
 62
     1
100
AcDbLine
 10
165.996323
 20
105.672539
 30
0.0
 11
180.643356
 21
105.672539
 31
0.0
  0
LINE
  5
2CD
100
AcDbEntity
  8
ARMATUR
390
0
  6
DURCHGEHEND
 62
     1
100
AcDbLine
 10
172.413498
 20
106.789452
 30
0.0
 11
170.164688
 21
106.789452
 31
0.0
  0
LINE
  5
2CE
100
AcDbEntity
  8
ARMATUR
390
0
  6
DURCHGEHEND
 62
     1
100
AcDbLine
 10
176.474991
 20
106.789452
 30
0.0
 11
172.413498
 21
106.789452
 31
0.0
  0
LINE
  5
2CF
100
AcDbEntity
  8
ARMATUR
390
0
  6
DURCHGEHEND
 62
     1
100
AcDbLine
 10
173.094833
 20
119.714279
 30
0.0
 11
173.094833
 21
119.789276
 31
0.0
  0
LINE
  5
2D0
100
AcDbEntity
  8
ARMATUR
390
0
  6
DURCHGEHEND
 62
     1
100
AcDbLine
 10
173.544846
 20
119.714279
 30
0.0
 11
173.544846
 21
119.789276
 31
0.0
  0
LINE
  5
2D1
100
AcDbEntity
  8
ARMATUR
390
0
  6
DURCHGEHEND
 62
     1
100
AcDbLine
 10
173.094833
 20
122.389267
 30
0.0
 11
173.094833
 21
119.789276
 31
0.0
  0
LINE
  5
2D2
100
AcDbEntity
  8
ARMATUR
390
0
  6
DURCHGEHEND
 62
     1
100
AcDbLine
 10
173.544846
 20
119.789291
 30
0.0
 11
173.544846
 21
122.389252
 31
0.0
  0
LINE
  5
2D3
100
AcDbEntity
  8
ARMATUR
390
0
  6
DURCHGEHEND
 62
     1
100
AcDbLine
 10
169.399551
 20
122.389267
 30
0.0
 11
169.399551
 21
119.789276
 31
0.0
  0
ARC
  5
2D4
100
AcDbEntity
  8
ARMATUR
390
0
  6
DURCHGEHEND
 62
     1
100
AcDbCircle
 10
169.474411
 20
119.789108
 30
0.0
 40
0.0748
100
AcDbArc
 50
179.847
 51
269.846008
  0
ELLIPSE
  5
2D5
100
AcDbEntity
  8
ARMATUR
390
0
  6
DURCHGEHEND
 62
     1
100
AcDbEllipse
 10
177.165268
 20
119.789108
 30
0.0
 11
0.0748997777700424
 21
0.0001830150471744
 31
0.0
210
0.0
220
0.0
230
1.0
 40
0.998665
 41
4.7123889804000001
 42
6.2831853072000001
  0
LINE
  5
2D6
100
AcDbEntity
  8
ARMATUR
390
0
  6
DURCHGEHEND
 62
     1
100
AcDbLine
 10
177.240128
 20
119.789291
 30
0.0
 11
177.240128
 21
122.389252
 31
0.0
  0
LINE
  5
2D7
100
AcDbEntity
  8
ARMATUR
390
0
  6
DURCHGEHEND
 62
     1
100
AcDbLine
 10
173.319839
 20
114.014282
 30
0.0
 11
176.069839
 21
114.014282
 31
0.0
  0
LINE
  5
2D8
100
AcDbEntity
  8
ARMATUR
390
0
  6
DURCHGEHEND
 62
     1
100
AcDbLine
 10
170.569839
 20
114.014282
 30
0.0
 11
173.319839
 21
114.014282
 31
0.0
  0
LINE
  5
2D9
100
AcDbEntity
  8
ACHSEN
390
0
  6
STRICHPUNKTIERT
 62
     4
100
AcDbLine
 10
173.339615
 20
168.840103
 30
0.0
 11
173.339615
 21
66.386116
 31
0.0
  0
LINE
  5
2DA
100
AcDbEntity
  8
ACHSEN
390
0
  6
STRICHPUNKTIERT
 62
     4
100
AcDbLine
 10
85.555267
 20
168.480087
 30
0.0
 11
85.555267
 21
66.352524
 31
0.0
  0
LINE
  5
2DB
100
AcDbEntity
  8
BEMASSUNG
390
0
  6
DURCHGEHEND
 62
     3
100
AcDbLine
 10
154.380234
 20
180.099701
 30
0.0
 11
181.071762
 21
180.099701
 31
0.0
  0
TEXT
  5
2DC
100
AcDbEntity
  8
BEMASSUNG
390
0
100
AcDbText
 10
152.934265
 20
180.763977
 30
0.0
 40
7.055555
  1
38
100
AcDbText
  0
LINE
  5
2DD
100
AcDbEntity
  8
BEMASSUNG
390
0
  6
DURCHGEHEND
 62
     3
100
AcDbLine
 10
168.379044
 20
190.941315
 30
0.0
 11
168.379044
 21
168.497513
 31
0.0
  0
LINE
  5
2DE
100
AcDbEntity
  8
BEMASSUNG
390
0
  6
DURCHGEHEND
 62
     3
100
AcDbLine
 10
203.382339
 20
191.189346
 30
0.0
 11
203.382339
 21
168.500565
 31
0.0
  0
LINE
  5
2DF
100
AcDbEntity
  8
BEMASSUNG
390
0
  6
DURCHGEHEND
 62
     3
100
AcDbLine
 10
165.764282
 20
188.43541
 30
0.0
 11
206.157425
 21
188.43541
 31
0.0
  0
TEXT
  5
2E0
100
AcDbEntity
  8
BEMASSUNG
390
0
100
AcDbText
 10
177.608627
 20
189.287277
 30
0.0
 40
7.055555
  1
140
100
AcDbText
  0
LINE
  5
2E1
100
AcDbEntity
  8
BEMASSUNG
390
0
  6
DURCHGEHEND
 62
     3
100
AcDbLine
 10
171.170563
 20
133.889267
 30
0.0
 11
220.355911
 21
133.889267
 31
0.0
  0
LINE
  5
2E2
100
AcDbEntity
  8
BEMASSUNG
390
0
  6
DURCHGEHEND
 62
     3
100
AcDbLine
 10
204.556747
 20
167.889267
 30
0.0
 11
220.746613
 21
167.889267
 31
0.0
  0
LINE
  5
2E3
100
AcDbEntity
  8
BEMASSUNG
390
0
  6
DURCHGEHEND
 62
     3
100
AcDbLine
 10
218.355911
 20
94.126694
 30
0.0
 11
218.355911
 21
169.863937
 31
0.0
  0
TEXT
  5
2E4
100
AcDbEntity
  8
BEMASSUNG
390
0
100
AcDbText
 10
217.282104
 20
141.640839
 30
0.0
 40
7.055555
  1
136
 50
90.0
100
AcDbText
  0
LINE
  5
2E5
100
AcDbEntity
  8
BEMASSUNG
390
0
  6
DURCHGEHEND
 62
     3
100
AcDbLine
 10
81.797943
 20
181.616028
 30
0.0
 11
81.797943
 21
168.526505
 31
0.0
  0
LINE
  5
2E6
100
AcDbEntity
  8
BEMASSUNG
390
0
  6
DURCHGEHEND
 62
     3
100
AcDbLine
 10
89.190384
 20
181.954712
 30
0.0
 11
89.190384
 21
168.752304
 31
0.0
  0
LINE
  5
2E7
100
AcDbEntity
  8
BEMASSUNG
390
0
  6
DURCHGEHEND
 62
     3
100
AcDbLine
 10
69.56768
 20
179.823502
 30
0.0
 11
92.711601
 21
179.823502
 31
0.0
  0
TEXT
  5
2E8
100
AcDbEntity
  8
BEMASSUNG
390
0
100
AcDbText
 10
70.899979
 20
180.813614
 30
0.0
 40
7.055555
  1
30
100
AcDbText
  0
LINE
  5
2E9
100
AcDbEntity
  8
BEMASSUNG
390
0
  6
DURCHGEHEND
 62
     3
100
AcDbLine
 10
220.756577
 20
123.931183
 30
0.0
 11
180.20079
 21
123.931183
 31
0.0
  0
TEXT
  5
2EA
100
AcDbEntity
  8
BEMASSUNG
390
0
100
AcDbText
 10
217.46669
 20
93.900818
 30
0.0
 40
7.055555
  1
max.60
 50
90.0
100
AcDbText
  0
LINE
  5
2EB
100
AcDbEntity
  8
BEMASSUNG
390
0
  6
DURCHGEHEND
 62
     3
100
AcDbLine
 10
108.900444
 20
127.856926
 30
0.0
 11
179.181458
 21
127.856926
 31
0.0
  0
TEXT
  5
2EC
100
AcDbEntity
  8
BEMASSUNG
390
0
100
AcDbText
 10
110.465927
 20
129.256012
 30
0.0
 40
7.055555
  1
Bohrung %%c25
100
AcDbText
  0
LINE
  5
2ED
100
AcDbEntity
  8
BEMASSUNG
390
0
  6
DURCHGEHEND
 62
     3
100
AcDbLine
 10
165.069839
 20
66.364494
 30
0.0
 11
165.069839
 21
53.374458
 31
0.0
  0
LINE
  5
2EE
100
AcDbEntity
  8
BEMASSUNG
390
0
  6
DURCHGEHEND
 62
     3
100
AcDbLine
 10
181.569839
 20
66.364494
 30
0.0
 11
181.569839
 21
53.032616
 31
0.0
  0
LINE
  5
2EF
100
AcDbEntity
  8
BEMASSUNG
390
0
  6
DURCHGEHEND
 62
     3
100
AcDbLine
 10
143.146683
 20
56.282608
 30
0.0
 11
185.535202
 21
56.282608
 31
0.0
  0
TEXT
  5
2F0
100
AcDbEntity
  8
BEMASSUNG
390
0
100
AcDbText
 10
144.878601
 20
57.647709
 30
0.0
 40
7.055555
  1
%%c66
100
AcDbText
  0
LINE
  5
2F1
100
AcDbEntity
  8
BEMASSUNG
390
0
  6
DURCHGEHEND
 62
     3
100
AcDbLine
 10
80.738548
 20
167.935089
 30
0.0
 11
55.816452
 21
167.935089
 31
0.0
  0
LINE
  5
2F2
100
AcDbEntity
  8
BEMASSUNG
390
0
  6
DURCHGEHEND
 62
     3
100
AcDbLine
 10
80.233253
 20
68.072006
 30
0.0
 11
56.059929
 21
68.072006
 31
0.0
  0
LINE
  5
2F3
100
AcDbEntity
  8
BEMASSUNG
390
0
  6
DURCHGEHEND
 62
     3
100
AcDbLine
 10
59.150429
 20
171.453506
 30
0.0
 11
59.150429
 21
65.407227
 31
0.0
  0
TEXT
  5
2F4
100
AcDbEntity
  8
BEMASSUNG
390
0
100
AcDbText
 10
57.061893
 20
109.415985
 30
0.0
 40
7.055555
  1
397
 50
90.0
100
AcDbText
  0
LINE
  5
2F5
100
AcDbEntity
  8
BEMASSUNG
390
0
  6
DURCHGEHEND
 62
     3
100
AcDbLine
 10
79.264229
 20
177.293442
 30
0.0
 11
84.567528
 21
182.596741
 31
0.0
  0
LINE
  5
2F6
100
AcDbEntity
  8
BEMASSUNG
390
0
  6
DURCHGEHEND
 62
     3
100
AcDbLine
 10
86.548439
 20
177.140823
 30
0.0
 11
91.851738
 21
182.444122
 31
0.0
  0
LINE
  5
2F7
100
AcDbEntity
  8
BEMASSUNG
390
0
  6
DURCHGEHEND
 62
     3
100
AcDbLine
 10
165.802582
 20
185.819839
 30
0.0
 11
171.105865
 21
191.123138
 31
0.0
  0
LINE
  5
2F8
100
AcDbEntity
  8
BEMASSUNG
390
0
  6
DURCHGEHEND
 62
     3
100
AcDbLine
 10
200.969986
 20
186.060883
 30
0.0
 11
206.27327
 21
191.364182
 31
0.0
  0
LINE
  5
2F9
100
AcDbEntity
  8
BEMASSUNG
390
0
  6
DURCHGEHEND
 62
     3
100
AcDbLine
 10
165.560226
 20
177.290054
 30
0.0
 11
170.863541
 21
182.593353
 31
0.0
  0
LINE
  5
2FA
100
AcDbEntity
  8
BEMASSUNG
390
0
  6
DURCHGEHEND
 62
     3
100
AcDbLine
 10
175.182114
 20
177.312073
 30
0.0
 11
180.485428
 21
182.615372
 31
0.0
  0
LINE
  5
2FB
100
AcDbEntity
  8
BEMASSUNG
390
0
  6
DURCHGEHEND
 62
     3
100
AcDbLine
 10
178.026062
 20
167.033188
 30
0.0
 11
178.026062
 21
182.871979
 31
0.0
  0
LINE
  5
2FC
100
AcDbEntity
  8
BEMASSUNG
390
0
  6
DURCHGEHEND
 62
     3
100
AcDbLine
 10
162.505142
 20
53.749073
 30
0.0
 11
167.808426
 21
59.052372
 31
0.0
  0
LINE
  5
2FD
100
AcDbEntity
  8
BEMASSUNG
390
0
  6
DURCHGEHEND
 62
     3
100
AcDbLine
 10
179.16951
 20
54.025276
 30
0.0
 11
184.472794
 21
59.328575
 31
0.0
  0
LINE
  5
2FE
100
AcDbEntity
  8
BEMASSUNG
390
0
  6
DURCHGEHEND
 62
     3
100
AcDbLine
 10
168.036301
 20
125.269234
 30
0.0
 11
173.339615
 21
130.57251
 31
0.0
  0
LINE
  5
2FF
100
AcDbEntity
  8
BEMASSUNG
390
0
  6
DURCHGEHEND
 62
     3
100
AcDbLine
 10
173.702759
 20
125.396812
 30
0.0
 11
179.006073
 21
130.700104
 31
0.0
  0
LINE
  5
300
100
AcDbEntity
  8
BEMASSUNG
390
0
  6
DURCHGEHEND
 62
     3
100
AcDbLine
 10
56.363079
 20
170.690308
 30
0.0
 11
61.666393
 21
165.386993
 31
0.0
  0
LINE
  5
301
100
AcDbEntity
  8
BEMASSUNG
390
0
  6
DURCHGEHEND
 62
     3
100
AcDbLine
 10
56.450981
 20
70.77021
 30
0.0
 11
61.754295
 21
65.466896
 31
0.0
  0
LINE
  5
302
100
AcDbEntity
  8
BEMASSUNG
390
0
  6
DURCHGEHEND
 62
     3
100
AcDbLine
 10
215.482513
 20
170.749466
 30
0.0
 11
220.785828
 21
165.446152
 31
0.0
  0
LINE
  5
303
100
AcDbEntity
  8
BEMASSUNG
390
0
  6
DURCHGEHEND
 62
     3
100
AcDbLine
 10
215.547852
 20
136.733749
 30
0.0
 11
220.851166
 21
131.430435
 31
0.0
  0
LINE
  5
304
100
AcDbEntity
  8
BEMASSUNG
390
0
  6
DURCHGEHEND
 62
     3
100
AcDbLine
 10
215.593307
 20
126.742188
 30
0.0
 11
220.896622
 21
121.438873
 31
0.0
  0
LINE
  5
305
100
AcDbEntity
  8
BEMASSUNG
390
0
  6
DURCHGEHEND
 62
     3
100
AcDbLine
 10
180.261765
 20
136.826767
 30
0.0
 11
180.261765
 21
153.367737
 31
0.0
  0
LINE
  5
306
100
AcDbEntity
  8
BEMASSUNG
390
0
  6
DURCHGEHEND
 62
     3
100
AcDbLine
 10
166.511765
 20
136.826767
 30
0.0
 11
166.511765
 21
153.541428
 31
0.0
  0
LINE
  5
307
100
AcDbEntity
  8
BEMASSUNG
390
0
  6
DURCHGEHEND
 62
     3
100
AcDbLine
 10
149.177383
 20
150.675568
 30
0.0
 11
182.82074
 21
150.675568
 31
0.0
  0
TEXT
  5
308
100
AcDbEntity
  8
BEMASSUNG
390
0
100
AcDbText
 10
155.031693
 20
151.253525
 30
0.0
 40
7.055555
  1
55
100
AcDbText
  0
LINE
  5
309
100
AcDbEntity
  8
BEMASSUNG
390
0
  6
DURCHGEHEND
 62
     3
100
AcDbLine
 10
164.027451
 20
148.199234
 30
0.0
 11
169.330765
 21
153.502533
 31
0.0
  0
LINE
  5
30A
100
AcDbEntity
  8
BEMASSUNG
390
0
  6
DURCHGEHEND
 62
     3
100
AcDbLine
 10
177.788895
 20
148.232651
 30
0.0
 11
183.092209
 21
153.53595
 31
0.0
  0
POLYLINE
  5
30B
100
AcDbEntity
  8
BEMASSUNG
390
0
  6
DURCHGEHEND
 62
     9
100
AcDb2dPolyline
 66
     1
 10
0.0
 20
0.0
 30
0.0
  0
VERTEX
  5
30C
100
AcDbEntity
  8
0
390
0
100
AcDbVertex
100
AcDb2dVertex
 10
150.136917
 20
152.58606
 30
0.0
  0
VERTEX
  5
30D
100
AcDbEntity
  8
0
390
0
100
AcDbVertex
100
AcDb2dVertex
 10
153.636917
 20
152.58606
 30
0.0
  0
VERTEX
  5
30E
100
AcDbEntity
  8
0
390
0
100
AcDbVertex
100
AcDb2dVertex
 10
153.636917
 20
156.08606
 30
0.0
  0
VERTEX
  5
30F
100
AcDbEntity
  8
0
390
0
100
AcDbVertex
100
AcDb2dVertex
 10
150.136917
 20
156.08606
 30
0.0
  0
VERTEX
  5
310
100
AcDbEntity
  8
0
390
0
100
AcDbVertex
100
AcDb2dVertex
 10
150.136917
 20
152.58606
 30
0.0
  0
SEQEND
  5
311
100
AcDbEntity
  8
0
390
0
  0
LINE
  5
312
100
AcDbEntity
  8
WAND
390
0
  6
DURCHGEHEND
 62
     6
100
AcDbLine
 10
76.607483
 20
133.883911
 30
0.0
 11
94.284042
 21
133.883911
 31
0.0
  0
LINE
  5
313
100
AcDbEntity
  8
WAND
390
0
  6
DURCHGEHEND
 62
     6
100
AcDbLine
 10
163.775314
 20
133.889267
 30
0.0
 11
185.587891
 21
133.889267
 31
0.0
  0
LINE
  5
314
100
AcDbEntity
  8
ANSICHT
390
0
  6
STRICHPUNKTIERT
 62
     4
100
AcDbLine
 10
85.426949
 20
48.087898
 30
0.0
 11
85.426949
 21
6.697929
 31
0.0
  0
LINE
  5
315
100
AcDbEntity
  8
ANSICHT
390
0
  6
STRICHPUNKTIERT
 62
     4
100
AcDbLine
 10
76.169525
 20
38.606495
 30
0.0
 11
94.909477
 21
38.606495
 31
0.0
  0
ARC
  5
316
100
AcDbEntity
  8
ANSICHT
390
0
  6
DURCHGEHEND
 62
     1
100
AcDbCircle
 10
78.751884
 20
45.281483
 30
0.0
 40
0.2
100
AcDbArc
 50
90.0
 51
180.0
  0
LINE
  5
317
100
AcDbEntity
  8
ANSICHT
390
0
  6
DURCHGEHEND
 62
     1
100
AcDbLine
 10
78.751884
 20
45.481495
 30
0.0
 11
92.101891
 21
45.481503
 31
0.0
  0
LINE
  5
318
100
AcDbEntity
  8
ANSICHT
390
0
  6
DURCHGEHEND
 62
     1
100
AcDbLine
 10
78.551872
 20
31.931507
 30
0.0
 11
78.551872
 21
45.28149
 31
0.0
  0
ARC
  5
319
100
AcDbEntity
  8
ANSICHT
390
0
  6
DURCHGEHEND
 62
     1
100
AcDbCircle
 10
92.101891
 20
45.281483
 30
0.0
 40
0.2
100
AcDbArc
 50
0.0
 51
90.0
  0
LINE
  5
31A
100
AcDbEntity
  8
ANSICHT
390
0
  6
DURCHGEHEND
 62
     1
100
AcDbLine
 10
92.301872
 20
45.281483
 30
0.0
 11
92.301872
 21
31.931515
 31
0.0
  0
ARC
  5
31B
100
AcDbEntity
  8
ANSICHT
390
0
  6
DURCHGEHEND
 62
     1
100
AcDbCircle
 10
78.751884
 20
31.931507
 30
0.0
 40
0.2
100
AcDbArc
 50
180.0
 51
270.0
  0
LINE
  5
31C
100
AcDbEntity
  8
ANSICHT
390
0
  6
DURCHGEHEND
 62
     1
100
AcDbLine
 10
92.101891
 20
31.731495
 30
0.0
 11
89.176872
 21
31.731503
 31
0.0
  0
LINE
  5
31D
100
AcDbEntity
  8
ANSICHT
390
0
  6
DURCHGEHEND
 62
     1
100
AcDbLine
 10
81.676872
 20
31.731495
 30
0.0
 11
78.751884
 21
31.731503
 31
0.0
  0
ARC
  5
31E
100
AcDbEntity
  8
ANSICHT
390
0
  6
DURCHGEHEND
 62
     1
100
AcDbCircle
 10
92.101891
 20
31.931507
 30
0.0
 40
0.2
100
AcDbArc
 50
270.0
 51
360.0
  0
ARC
  5
31F
100
AcDbEntity
  8
ANSICHT
390
0
  6
DURCHGEHEND
 62
     1
100
AcDbCircle
 10
85.426872
 20
38.606495
 30
0.0
 40
8.25
100
AcDbArc
 50
146.442001
 51
213.557007
  0
POLYLINE
  5
320
100
AcDbEntity
  8
ANSICHT
390
0
  6
DURCHGEHEND
 62
     1
100
AcDb3dPolyline
 66
     1
 10
0.0
 20
0.0
 30
0.0
 70
    12
 75
     5
  0
VERTEX
  5
321
100
AcDbEntity
  8
0
390
0
100
AcDbVertex
100
AcDb3dPolylineVertex
 10
80.866508
 20
31.731495
 30
0.0
 70
    48
  0
VERTEX
  5
322
100
AcDbEntity
  8
0
390
0
100
AcDbVertex
100
AcDb3dPolylineVertex
 10
80.866508
 20
31.731495
 30
0.0
 70
    40
  0
VERTEX
  5
323
100
AcDbEntity
  8
0
390
0
100
AcDbVertex
100
AcDb3dPolylineVertex
 10
81.016838
 20
31.634151
 30
0.0
 70
    40
  0
VERTEX
  5
324
100
AcDbEntity
  8
0
390
0
100
AcDbVertex
100
AcDb3dPolylineVertex
 10
80.866508
 20
31.731503
 30
0.0
 70
    48
  0
VERTEX
  5
325
100
AcDbEntity
  8
0
390
0
100
AcDbVertex
100
AcDb3dPolylineVertex
 10
81.016838
 20
31.634151
 30
0.0
 70
    48
  0
VERTEX
  5
326
100
AcDbEntity
  8
0
390
0
100
AcDbVertex
100
AcDb3dPolylineVertex
 10
81.016838
 20
31.634151
 30
0.0
 70
    48
  0
VERTEX
  5
327
100
AcDbEntity
  8
0
390
0
100
AcDbVertex
100
AcDb3dPolylineVertex
 10
81.676872
 20
31.258053
 30
0.0
 70
    40
  0
VERTEX
  5
328
100
AcDbEntity
  8
0
390
0
100
AcDbVertex
100
AcDb3dPolylineVertex
 10
81.016838
 20
31.634151
 30
0.0
 70
    48
  0
VERTEX
  5
329
100
AcDbEntity
  8
0
390
0
100
AcDbVertex
100
AcDb3dPolylineVertex
 10
81.676872
 20
31.258053
 30
0.0
 70
    48
  0
VERTEX
  5
32A
100
AcDbEntity
  8
0
390
0
100
AcDbVertex
100
AcDb3dPolylineVertex
 10
81.676872
 20
31.258053
 30
0.0
 70
    48
  0
SEQEND
  5
32B
100
AcDbEntity
  8
0
390
0
  0
POLYLINE
  5
32C
100
AcDbEntity
  8
ANSICHT
390
0
  6
DURCHGEHEND
 62
     1
100
AcDb3dPolyline
 66
     1
 10
0.0
 20
0.0
 30
0.0
 70
    12
 75
     5
  0
VERTEX
  5
32D
100
AcDbEntity
  8
0
390
0
100
AcDbVertex
100
AcDb3dPolylineVertex
 10
89.176872
 20
31.258045
 30
0.0
 70
    48
  0
VERTEX
  5
32E
100
AcDbEntity
  8
0
390
0
100
AcDbVertex
100
AcDb3dPolylineVertex
 10
89.176872
 20
31.258045
 30
0.0
 70
    40
  0
VERTEX
  5
32F
100
AcDbEntity
  8
0
390
0
100
AcDbVertex
100
AcDb3dPolylineVertex
 10
89.260124
 20
31.301113
 30
0.0
 70
    40
  0
VERTEX
  5
330
100
AcDbEntity
  8
0
390
0
100
AcDbVertex
100
AcDb3dPolylineVertex
 10
89.176872
 20
31.258053
 30
0.0
 70
    48
  0
VERTEX
  5
331
100
AcDbEntity
  8
0
390
0
100
AcDbVertex
100
AcDb3dPolylineVertex
 10
89.260124
 20
31.301113
 30
0.0
 70
    48
  0
VERTEX
  5
332
100
AcDbEntity
  8
0
390
0
100
AcDbVertex
100
AcDb3dPolylineVertex
 10
89.260124
 20
31.301113
 30
0.0
 70
    48
  0
VERTEX
  5
333
100
AcDbEntity
  8
0
390
0
100
AcDbVertex
100
AcDb3dPolylineVertex
 10
89.987236
 20
31.731503
 30
0.0
 70
    40
  0
VERTEX
  5
334
100
AcDbEntity
  8
0
390
0
100
AcDbVertex
100
AcDb3dPolylineVertex
 10
89.260124
 20
31.301113
 30
0.0
 70
    48
  0
VERTEX
  5
335
100
AcDbEntity
  8
0
390
0
100
AcDbVertex
100
AcDb3dPolylineVertex
 10
89.987236
 20
31.731503
 30
0.0
 70
    48
  0
VERTEX
  5
336
100
AcDbEntity
  8
0
390
0
100
AcDbVertex
100
AcDb3dPolylineVertex
 10
89.987236
 20
31.731503
 30
0.0
 70
    48
  0
SEQEND
  5
337
100
AcDbEntity
  8
0
390
0
  0
ARC
  5
338
100
AcDbEntity
  8
ANSICHT
390
0
  6
DURCHGEHEND
 62
     1
100
AcDbCircle
 10
85.426872
 20
38.606495
 30
0.0
 40
8.25
100
AcDbArc
 50
0.0
 51
33.556999
  0
ARC
  5
339
100
AcDbEntity
  8
ANSICHT
390
0
  6
DURCHGEHEND
 62
     1
100
AcDbCircle
 10
85.426872
 20
38.606495
 30
0.0
 40
8.25
100
AcDbArc
 50
326.441986
 51
360.0
  0
ARC
  5
33A
100
AcDbEntity
  8
ANSICHT
390
0
  6
DURCHGEHEND
 62
     1
100
AcDbCircle
 10
85.426872
 20
38.606495
 30
0.0
 40
8.25
100
AcDbArc
 50
56.442001
 51
123.556999
  0
LINE
  5
33B
100
AcDbEntity
  8
ANSICHT
390
0
  6
DURCHGEHEND
 62
     1
100
AcDbLine
 10
81.676872
 20
8.744009
 30
0.0
 11
81.676872
 21
43.15649
 31
0.0
  0
LINE
  5
33C
100
AcDbEntity
  8
ANSICHT
390
0
  6
DURCHGEHEND
 62
     1
100
AcDbLine
 10
81.876884
 20
43.356495
 30
0.0
 11
88.976891
 21
43.356503
 31
0.0
  0
ARC
  5
33D
100
AcDbEntity
  8
ANSICHT
390
0
  6
DURCHGEHEND
 62
     1
100
AcDbCircle
 10
88.976891
 20
43.156483
 30
0.0
 40
0.2
100
AcDbArc
 50
0.0
 51
90.0
  0
ARC
  5
33E
100
AcDbEntity
  8
ANSICHT
390
0
  6
DURCHGEHEND
 62
     1
100
AcDbCircle
 10
81.876884
 20
43.156483
 30
0.0
 40
0.2
100
AcDbArc
 50
90.0
 51
180.0
  0
LINE
  5
33F
100
AcDbEntity
  8
ANSICHT
390
0
  6
DURCHGEHEND
 62
     1
100
AcDbLine
 10
89.176872
 20
43.156483
 30
0.0
 11
89.176872
 21
8.744015
 31
0.0
  0
ARC
  5
340
100
AcDbEntity
  8
ANSICHT
390
0
  6
DURCHGEHEND
 62
     1
100
AcDbCircle
 10
81.876884
 20
8.744009
 30
0.0
 40
0.2
100
AcDbArc
 50
180.0
 51
270.0
  0
LINE
  5
341
100
AcDbEntity
  8
ANSICHT
390
0
  6
DURCHGEHEND
 62
     1
100
AcDbLine
 10
88.976891
 20
8.543997
 30
0.0
 11
81.876884
 21
8.544003
 31
0.0
  0
ARC
  5
342
100
AcDbEntity
  8
ANSICHT
390
0
  6
DURCHGEHEND
 62
     1
100
AcDbCircle
 10
88.976891
 20
8.744009
 30
0.0
 40
0.2
100
AcDbArc
 50
270.0
 51
360.0
  0
ARC
  5
343
100
AcDbEntity
  8
ANSICHT
390
0
  6
DURCHGEHEND
 62
     1
100
AcDbCircle
 10
85.426872
 20
38.606495
 30
0.0
 40
7.3235
100
AcDbArc
 50
159.843002
 51
200.156006
  0
ARC
  5
344
100
AcDbEntity
  8
ANSICHT
390
0
  6
DURCHGEHEND
 62
     1
100
AcDbCircle
 10
85.426872
 20
38.606495
 30
0.0
 40
7.3235
100
AcDbArc
 50
0.0
 51
20.156
  0
ARC
  5
345
100
AcDbEntity
  8
ANSICHT
390
0
  6
DURCHGEHEND
 62
     1
100
AcDbCircle
 10
85.426872
 20
38.606495
 30
0.0
 40
7.3235
100
AcDbArc
 50
339.842987
 51
360.0
  0
ARC
  5
346
100
AcDbEntity
  8
ANSICHT
390
0
  6
DURCHGEHEND
 62
     1
100
AcDbCircle
 10
85.426872
 20
38.606495
 30
0.0
 40
7.3235
100
AcDbArc
 50
69.843002
 51
110.155998
  0
ENDSEC
  0
SECTION
  2
OBJECTS
  0
DICTIONARY
  5
19
100
AcDbDictionary
280
     0
281
     1
  3
ACAD_GROUP
350
1A
  3
ACAD_MLINESTYLE
350
1B
  3
ACAD_LAYOUT
350
1E
  3
ACAD_PLOTSETTINGS
350
22
  3
ACAD_PLOTSTYLENAME
350
1F
  3
ACAD_WIPEOUT_VARS
350
23
  0
DICTIONARY
  5
1A
102
{ACAD_REACTORS
330
19
102
}
100
AcDbDictionary
280
     0
281
     1
  0
DICTIONARY
  5
1B
102
{ACAD_REACTORS
330
19
102
}
100
AcDbDictionary
280
     0
281
     1
  3
Standard
350
1C
  0
MLINESTYLE
  5
1C
102
{ACAD_REACTORS
330
1B
102
}
100
AcDbMlineStyle
  2
Standard
 70
     0
  3

 62
     0
 51
90.0
 52
90.0
 71
     2
 49
0.5
 62
   256
  6
ByLayer
 49
-0.5
 62
   256
  6
ByLayer
  0
ACDBDICTIONARYWDFLT
  5
1F
102
{ACAD_REACTORS
330
19
102
}
100
AcDbDictionary
281
     1
  3
Normal
350
1D
100
AcDbDictionaryWithDefault
340
1D
  0
ACDBPLACEHOLDER
  5
1D
102
{ACAD_REACTORS
330
1F
102
}
  0
LAYOUT
  5
20
102
{ACAD_REACTORS
330
1E
102
}
100
AcDbPlotSettings
  1

  2

  4

  6

 40
0.0
 41
0.0
 42
0.0
 43
0.0
 44
0.0
 45
0.0
 46
0.0
 47
0.0
 48
0.0
 49
0.0
140
0.0
141
0.0
142
1.0
143
1.0
 70
  1024
 72
     0
 73
     0
 74
     0
  7

 75
     0
147
1.0
148
0.0
149
0.0
100
AcDbLayout
  1
Model
 70
     0
 71
     0
 10
0.0
 20
0.0
 11
0.0
 21
0.0
 12
0.0
 22
0.0
 32
0.0
 14
0.0
 24
0.0
 34
0.0
 15
0.0
 25
0.0
 35
0.0
146
0.0
 13
0.0
 23
0.0
 33
0.0
 16
0.0
 26
0.0
 36
0.0
 17
0.0
 27
0.0
 37
0.0
 76
     0
330
A
331
0
345
0
346
0
  0
LAYOUT
  5
21
102
{ACAD_REACTORS
330
1E
102
}
100
AcDbPlotSettings
  1

  2

  4

  6

 40
0.0
 41
0.0
 42
0.0
 43
0.0
 44
0.0
 45
0.0
 46
0.0
 47
0.0
 48
0.0
 49
0.0
140
0.0
141
0.0
142
1.0
143
1.0
 70
     0
 72
     0
 73
     0
 74
     0
  7

 75
     0
147
1.0
148
0.0
149
0.0
100
AcDbLayout
  1
Layout1
 70
     0
 71
     0
 10
0.0
 20
0.0
 11
0.0
 21
0.0
 12
0.0
 22
0.0
 32
0.0
 14
0.0
 24
0.0
 34
0.0
 15
0.0
 25
0.0
 35
0.0
146
0.0
 13
0.0
 23
0.0
 33
0.0
 16
0.0
 26
0.0
 36
0.0
 17
0.0
 27
0.0
 37
0.0
 76
     0
330
B
331
0
345
0
346
0
  0
DICTIONARY
  5
1E
102
{ACAD_REACTORS
330
19
102
}
100
AcDbDictionary
280
     0
281
     1
  3
Layout1
350
21
  3
Model
350
20
  0
DICTIONARY
  5
22
102
{ACAD_REACTORS
330
19
102
}
100
AcDbDictionary
280
     0
281
     1
  0
WIPEOUTVARIABLES
  5
23
100
AcDbWipeoutVariables
 70
     1
  0
ENDSEC
  0
EOF
