  0
SECTION
  2
HEADER
  9
$ACADVER
  1
AC1015
  9
$ACADMAINTVER
 70
     6
  9
$DWGCODEPAGE
  3
ANSI_1252
  9
$INSBASE
 10
0.0
 20
0.0
 30
0.0
  9
$EXTMIN
 10
51.16114
 20
3.180404
 30
0.0
  9
$EXTMAX
 10
293.614227
 20
194.823502
 30
0.0
  9
$LIMMIN
 10
0.0
 20
0.0
  9
$LIMMAX
 10
0.0
 20
0.0
  9
$ORTHOMODE
 70
     0
  9
$REGENMODE
 70
     1
  9
$FILLMODE
 70
     1
  9
$QTEXTMODE
 70
     0
  9
$MIRRTEXT
 70
     1
  9
$LTSCALE
 40
1.0
  9
$ATTMODE
 70
     1
  9
$TEXTSIZE
 40
0.2
  9
$TRACEWID
 40
0.05
  9
$TEXTSTYLE
  7
Standard
  9
$CLAYER
  8
0
  9
$CELTYPE
  6
Continuous
  9
$CECOLOR
 62
   256
  9
$CELTSCALE
 40
1.0
  9
$DISPSILH
 70
     0
  9
$DIMSCALE
 40
1.0
  9
$DIMASZ
 40
0.18
  9
$DIMEXO
 40
0.0625
  9
$DIMDLI
 40
0.38
  9
$DIMRND
 40
0.0
  9
$DIMDLE
 40
0.0
  9
$DIMEXE
 40
0.18
  9
$DIMTP
 40
0.0
  9
$DIMTM
 40
0.0
  9
$DIMTXT
 40
0.18
  9
$DIMCEN
 40
0.09
  9
$DIMTSZ
 40
0.0
  9
$DIMTOL
 70
     0
  9
$DIMLIM
 70
     0
  9
$DIMTIH
 70
     1
  9
$DIMTOH
 70
     1
  9
$DIMSE1
 70
     0
  9
$DIMSE2
 70
     0
  9
$DIMTAD
 70
     0
  9
$DIMZIN
 70
     0
  9
$DIMBLK
  1

  9
$DIMASO
 70
     1
  9
$DIMSHO
 70
     1
  9
$DIMPOST
  1

  9
$DIMAPOST
  1

  9
$DIMALT
 70
     0
  9
$DIMALTD
 70
     2
  9
$DIMALTF
 40
25.4
  9
$DIMLFAC
 40
1.0
  9
$DIMTOFL
 70
     0
  9
$DIMTVP
 40
0.0
  9
$DIMTIX
 70
     0
  9
$DIMSOXD
 70
     0
  9
$DIMSAH
 70
     0
  9
$DIMBLK1
  1

  9
$DIMBLK2
  1

  9
$DIMSTYLE
  2
Standard
  9
$DIMCLRD
 70
     0
  9
$DIMCLRE
 70
     0
  9
$DIMCLRT
 70
     0
  9
$DIMTFAC
 40
1.0
  9
$DIMGAP
 40
0.09
  9
$DIMJUST
 70
     0
  9
$DIMSD1
 70
     0
  9
$DIMSD2
 70
     0
  9
$DIMTOLJ
 70
     1
  9
$DIMTZIN
 70
     0
  9
$DIMALTZ
 70
     0
  9
$DIMALTTZ
 70
     0
  9
$DIMUPT
 70
     0
  9
$DIMDEC
 70
     4
  9
$DIMTDEC
 70
     4
  9
$DIMALTU
 70
     2
  9
$DIMALTTD
 70
     2
  9
$DIMTXSTY
  7
Standard
  9
$DIMAUNIT
 70
     0
  9
$DIMADEC
 70
     0
  9
$DIMALTRND
 40
0.0
  9
$DIMAZIN
 70
     0
  9
$DIMDSEP
 70
     0
  9
$DIMATFIT
 70
     3
  9
$DIMFRAC
 70
     0
  9
$DIMLDRBLK
  1

  9
$DIMLUNIT
 70
     2
  9
$DIMLWD
 70
     0
  9
$DIMLWE
 70
     0
  9
$DIMTMOVE
 70
     0
  9
$LUNITS
 70
     2
  9
$LUPREC
 70
     4
  9
$SKETCHINC
 40
0.1
  9
$FILLETRAD
 40
0.0
  9
$AUNITS
 70
     0
  9
$AUPREC
 70
     0
  9
$MENU
  1
acad
  9
$ELEVATION
 40
0.0
  9
$PELEVATION
 40
0.0
  9
$THICKNESS
 40
0.0
  9
$LIMCHECK
 70
     0
  9
$CHAMFERA
 40
0.0
  9
$CHAMFERB
 40
0.0
  9
$CHAMFERC
 40
0.0
  9
$CHAMFERD
 40
0.0
  9
$SKPOLY
 70
     0
  9
$TDCREATE
 40
0.000000000
  9
$TDUCREATE
 40
0.000000000
  9
$TDUPDATE
 40
0.000000000
  9
$TDUUPDATE
 40
0.000000000
  9
$TDINDWG
 40
0.0000000000
  9
$TDUSRTIMER
 40
0.0000000000
  9
$USRTIMER
 70
     1
  9
$ANGBASE
 50
0.0
  9
$ANGDIR
 70
     0
  9
$PDMODE
 70
     0
  9
$PDSIZE
 40
0.0
  9
$PLINEWID
 40
0.0
  9
$SPLFRAME
 70
     0
  9
$SPLINETYPE
 70
     6
  9
$SPLINESEGS
 70
     8
  9
$HANDSEED
  5
2F2
  9
$SURFTAB1
 70
     6
  9
$SURFTAB2
 70
     6
  9
$SURFTYPE
 70
     6
  9
$SURFU
 70
     6
  9
$SURFV
 70
     6
  9
$UCSBASE
  2

  9
$UCSNAME
  2

  9
$UCSORG
 10
0.0
 20
0.0
 30
0.0
  9
$UCSXDIR
 10
1.0
 20
0.0
 30
0.0
  9
$UCSYDIR
 10
0.0
 20
1.0
 30
0.0
  9
$UCSORTHOREF
  2

  9
$UCSORTHOVIEW
 70
     0
  9
$UCSORGTOP
 10
0.0
 20
0.0
 30
0.0
  9
$UCSORGBOTTOM
 10
0.0
 20
0.0
 30
0.0
  9
$UCSORGLEFT
 10
0.0
 20
0.0
 30
0.0
  9
$UCSORGRIGHT
 10
0.0
 20
0.0
 30
0.0
  9
$UCSORGFRONT
 10
0.0
 20
0.0
 30
0.0
  9
$UCSORGBACK
 10
0.0
 20
0.0
 30
0.0
  9
$PUCSBASE
  2

  9
$PUCSNAME
  2

  9
$PUCSORG
 10
0.0
 20
0.0
 30
0.0
  9
$PUCSXDIR
 10
1.0
 20
0.0
 30
0.0
  9
$PUCSYDIR
 10
0.0
 20
1.0
 30
0.0
  9
$PUCSORTHOREF
  2

  9
$PUCSORTHOVIEW
 70
     0
  9
$PUCSORGTOP
 10
0.0
 20
0.0
 30
0.0
  9
$PUCSORGBOTTOM
 10
0.0
 20
0.0
 30
0.0
  9
$PUCSORGLEFT
 10
0.0
 20
0.0
 30
0.0
  9
$PUCSORGRIGHT
 10
0.0
 20
0.0
 30
0.0
  9
$PUCSORGFRONT
 10
0.0
 20
0.0
 30
0.0
  9
$PUCSORGBACK
 10
0.0
 20
0.0
 30
0.0
  9
$USERI1
 70
     0
  9
$USERI2
 70
     0
  9
$USERI3
 70
     0
  9
$USERI4
 70
     0
  9
$USERI5
 70
     0
  9
$USERR1
 40
0.0
  9
$USERR2
 40
0.0
  9
$USERR3
 40
0.0
  9
$USERR4
 40
0.0
  9
$USERR5
 40
0.0
  9
$WORLDVIEW
 70
     1
  9
$SHADEDGE
 70
     3
  9
$SHADEDIF
 70
    70
  9
$TILEMODE
 70
     1
  9
$MAXACTVP
 70
    16
  9
$PINSBASE
 10
0.0
 20
0.0
 30
0.0
  9
$PLIMCHECK
 70
     0
  9
$PEXTMIN
 10
1.000000E+20
 20
1.000000E+20
 30
1.000000E+20
  9
$PEXTMAX
 10
-1.000000E+20
 20
-1.000000E+20
 30
-1.000000E+20
  9
$PLIMMIN
 10
0.0
 20
0.0
  9
$PLIMMAX
 10
12.0
 20
9.0
  9
$UNITMODE
 70
     0
  9
$VISRETAIN
 70
     0
  9
$PLINEGEN
 70
     1
  9
$PSLTSCALE
 70
     0
  9
$TREEDEPTH
 70
  3020
  9
$CMLSTYLE
  2
Standard
  9
$CMLJUST
 70
     0
  9
$CMLSCALE
 40
1.0
  9
$PROXYGRAPHICS
 70
     0
  9
$MEASUREMENT
 70
     0
  9
$CELWEIGHT
370
     0
  9
$ENDCAPS
280
     0
  9
$JOINSTYLE
280
     0
  9
$LWDISPLAY
290
     0
  9
$INSUNITS
 70
     0
  9
$HYPERLINKBASE
  1

  9
$STYLESHEET
  1

  9
$XEDIT
290
     1
  9
$CEPSNTYPE
380
     0
  9
$PSTYLEMODE
290
     1
  9
$FINGERPRINTGUID
  2

  9
$VERSIONGUID
  2

  9
$EXTNAMES
290
     1
  9
$PSVPSCALE
 40
0.0
  0
ENDSEC
  0
SECTION
  2
CLASSES
  0
CLASS
  1
LWPOLYLINE
  2
AcDbPolyline
  3
AutoCAD 2000
 90
        0
280
     0
281
     1
  0
CLASS
  1
IMAGE
  2
AcDbRasterImage
  3
ISM
 90
      127
280
     0
281
     1
  0
CLASS
  1
OLE2FRAME
  2
AcDbOle2Frame
  3
AutoCAD 2000
 90
        0
280
     0
281
     1
  0
CLASS
  1
HATCH
  2
AcDbHatch
  3
AutoCAD 2000
 90
        0
280
     0
281
     1
  0
CLASS
  1
DICTIONARYVAR
  2
AcDbDictionaryVar
  3
AutoCAD 2000
 90
        0
280
     0
281
     0
  0
CLASS
  1
RASTERVARIABLES
  2
AcDbRasterVariables
  3
ISM
 90
        0
280
     0
281
     0
  0
CLASS
  1
IMAGEDEF
  2
AcDbRasterImageDef
  3
ISM
 90
        0
280
     0
281
     0
  0
CLASS
  1
IMAGEDEF_REACTOR
  2
AcDbRasterImageDefReactor
  3
ISM
 90
        1
280
     0
281
     0
  0
CLASS
  1
IDBUFFER
  2
AcDbIdBuffer
  3
AutoCAD 2000
 90
        0
280
     0
281
     0
  0
CLASS
  1
SPATIAL_FILTER
  2
AcDbSpatialFilter
  3
AutoCAD 2000
 90
        0
280
     0
281
     0
  0
CLASS
  1
XRECORD
  2
AcDbXrecord
  3
AutoCAD 2000
 90
        0
280
     0
281
     0
  0
CLASS
  1
SORTENTSTABLE
  2
AcDbSortentsTable
  3
AutoCAD 2000
 90
        0
280
     0
281
     0
  0
CLASS
  1
LAYER_INDEX
  2
AcDbLayerIndex
  3
AutoCAD 2000
 90
        0
280
     0
281
     0
  0
CLASS
  1
SPATIAL_INDEX
  2
AcDbSpatialIndex
  3
AutoCAD 2000
 90
        0
280
     0
281
     0
  0
CLASS
  1
OBJECT_PTR
  2
CAseDLPNTableRecord
  3
"ASE-LPNTableRecord"
 90
        1
280
     0
281
     0
  0
CLASS
  1
LAYOUT
  2
AcDbLayout
  3
AutoCAD 2000
 90
        0
280
     0
281
     0
  0
CLASS
  1
PLOTSETTINGS
  2
AcDbPlotSettings
  3
AutoCAD 2000
 90
        0
280
     0
281
     0
  0
CLASS
  1
ACDBDICTIONARYWDFLT
  2
AcDbDictionaryWithDefault
  3
AutoCAD 2000
 90
        0
280
     0
281
     0
  0
CLASS
  1
ACDBPLACEHOLDER
  2
AcDbPlaceHolder
  3
AutoCAD 2000
 90
        0
280
     0
281
     0
  0
CLASS
  1
VBA_PROJECT
  2
AcDbVbaProject
  3
acadvba
 90
        0
280
     0
281
     0
  0
CLASS
  1
WIPEOUT
  2
AcDbWipeout
  3
WipeOut|AutoCAD Express Tool|expresstools@autodesk.com
 90
      127
280
     0
281
     1
  0
CLASS
  1
WIPEOUTVARIABLES
  2
AcDbWipeoutVariables
  3
WipeOut|AutoCAD Express Tool|expresstools@autodesk.com
 90
        0
280
     0
281
     0
  0
CLASS
  1
RTEXT
  2
RText
  3
RText|AutoCAD Express Tool|expresstools@autodesk.com
 90
        0
280
     0
281
     1
  0
CLASS
  1
ARCALIGNEDTEXT
  2
AcDbArcAlignedText
  3
ATEXT|AutoCAD Express Tool|expresstools@autodesk.com
 90
        0
280
     0
281
     1
  0
ENDSEC
  0
SECTION
  2
TABLES
  0
TABLE
  2
VPORT
  5
7
100
AcDbSymbolTable
 70
     1
  0
VPORT
  5
15
100
AcDbSymbolTableRecord
100
AcDbViewportTableRecord
  2
*ACTIVE
 70
     0
 10
0.0
 20
0.0
 11
1.0
 21
1.0
 12
6.591288
 22
4.579184
 13
0.0
 23
0.0
 14
1.0
 24
1.0
 15
0.0
 25
0.0
 16
0.0
 26
0.0
 36
1.0
 17
0.0
 27
0.0
 37
0.0
 40
9.158369
 41
0.688564
 42
50.0
 43
0.0
 44
0.0
 50
0.0
 51
0.0
 71
     0
 72
   100
 73
     1
 74
     1
 75
     0
 76
     0
 77
     0
 78
     0
281
     0
 65
     0
110
0.0
120
0.0
130
0.0
111
1.0
121
0.0
131
0.0
112
0.0
122
1.0
132
0.0
345
0
346
0
 79
     0
146
0.0
  0
ENDTAB
  0
TABLE
  2
LTYPE
  5
4
100
AcDbSymbolTable
 70
   185
  0
LTYPE
  5
11
100
AcDbSymbolTableRecord
100
AcDbLinetypeTableRecord
  2
ByBlock
 70
    64
  3

 72
    65
 73
     0
 40
0.0
  0
LTYPE
  5
12
100
AcDbSymbolTableRecord
100
AcDbLinetypeTableRecord
  2
ByLayer
 70
    64
  3

 72
    65
 73
     0
 40
0.0
  0
LTYPE
  5
13
100
AcDbSymbolTableRecord
100
AcDbLinetypeTableRecord
  2
Continuous
 70
    64
  3
Solid line
 72
    65
 73
     0
 40
0.0
  0
LTYPE
  5
25
100
AcDbSymbolTableRecord
100
AcDbLinetypeTableRecord
  2
DURCHGEHEND
 70
    64
  3

 72
    65
 73
     0
 40
0.0
  0
LTYPE
  5
26
100
AcDbSymbolTableRecord
100
AcDbLinetypeTableRecord
  2
GESTRICHELT
 70
    64
  3

 72
    65
 73
     2
 40
10.0
 49
5.0
 74
     0
 49
-5.0
 74
     0
  0
LTYPE
  5
27
100
AcDbSymbolTableRecord
100
AcDbLinetypeTableRecord
  2
MITTELLINIE
 70
    64
  3

 72
    65
 73
     4
 40
20.0
 49
10.0
 74
     0
 49
-2.0
 74
     0
 49
5.0
 74
     0
 49
-3.0
 74
     0
  0
LTYPE
  5
28
100
AcDbSymbolTableRecord
100
AcDbLinetypeTableRecord
  2
PUNKTIERT
 70
    64
  3

 72
    65
 73
     2
 40
0.25
 49
0.0
 74
     0
 49
-0.25
 74
     0
  0
LTYPE
  5
29
100
AcDbSymbolTableRecord
100
AcDbLinetypeTableRecord
  2
STRICHPUNKTIERT
 70
    64
  3

 72
    65
 73
     4
 40
12.0
 49
5.0
 74
     0
 49
-3.0
 74
     0
 49
1.0
 74
     0
 49
-3.0
 74
     0
  0
LTYPE
  5
2A
100
AcDbSymbolTableRecord
100
AcDbLinetypeTableRecord
  2
STRICH-PUNKT-PUNKT
 70
    64
  3

 72
    65
 73
     6
 40
10.0
 49
5.0
 74
     0
 49
-1.0
 74
     0
 49
1.0
 74
     0
 49
-1.0
 74
     0
 49
1.0
 74
     0
 49
-1.0
 74
     0
  0
LTYPE
  5
2B
100
AcDbSymbolTableRecord
100
AcDbLinetypeTableRecord
  2
STARTPFEIL
 70
    64
  3

 72
    65
 73
     0
 40
0.0
  0
LTYPE
  5
2C
100
AcDbSymbolTableRecord
100
AcDbLinetypeTableRecord
  2
ENDPFEIL
 70
    64
  3

 72
    65
 73
     0
 40
0.0
  0
LTYPE
  5
2D
100
AcDbSymbolTableRecord
100
AcDbLinetypeTableRecord
  2
ENDPUNKT
 70
    64
  3

 72
    65
 73
     0
 40
0.0
  0
LTYPE
  5
2E
100
AcDbSymbolTableRecord
100
AcDbLinetypeTableRecord
  2
PFEIL
 70
    64
  3

 72
    65
 73
     0
 40
0.0
  0
LTYPE
  5
2F
100
AcDbSymbolTableRecord
100
AcDbLinetypeTableRecord
  2
STITCHLINE
 70
    64
  3

 72
    65
 73
     2
 40
6.0
 49
3.0
 74
     0
 49
-3.0
 74
     0
  0
LTYPE
  5
30
100
AcDbSymbolTableRecord
100
AcDbLinetypeTableRecord
  2
MITTELLINIE_2
 70
    64
  3

 72
    65
 73
     4
 40
17.0
 49
10.0
 74
     0
 49
-2.0
 74
     0
 49
3.0
 74
     0
 49
-2.0
 74
     0
  0
LTYPE
  5
31
100
AcDbSymbolTableRecord
100
AcDbLinetypeTableRecord
  2
VERDECKTE_LINIE
 70
    64
  3

 72
    65
 73
     2
 40
4.0
 49
2.0
 74
     0
 49
-2.0
 74
     0
  0
LTYPE
  5
32
100
AcDbSymbolTableRecord
100
AcDbLinetypeTableRecord
  2
PHANTOMLINIE
 70
    64
  3

 72
    65
 73
     6
 40
21.0
 49
10.0
 74
     0
 49
-2.0
 74
     0
 49
3.0
 74
     0
 49
-1.0
 74
     0
 49
3.0
 74
     0
 49
-2.0
 74
     0
  0
LTYPE
  5
33
100
AcDbSymbolTableRecord
100
AcDbLinetypeTableRecord
  2
BRUCHLINIE_1
 70
    64
  3

 72
    65
 73
     0
 40
0.0
  0
LTYPE
  5
34
100
AcDbSymbolTableRecord
100
AcDbLinetypeTableRecord
  2
BRUCHLINIE_2
 70
    64
  3

 72
    65
 73
     0
 40
0.0
  0
LTYPE
  5
35
100
AcDbSymbolTableRecord
100
AcDbLinetypeTableRecord
  2
_DURCHGEHEND
 70
    64
  3

 72
    65
 73
     0
 40
0.0
  0
LTYPE
  5
36
100
AcDbSymbolTableRecord
100
AcDbLinetypeTableRecord
  2
_GESTRICHELT
 70
    64
  3

 72
    65
 73
     2
 40
10.0
 49
5.0
 74
     0
 49
-5.0
 74
     0
  0
LTYPE
  5
37
100
AcDbSymbolTableRecord
100
AcDbLinetypeTableRecord
  2
_MITTELLINIE
 70
    64
  3

 72
    65
 73
     4
 40
20.0
 49
10.0
 74
     0
 49
-2.0
 74
     0
 49
5.0
 74
     0
 49
-3.0
 74
     0
  0
LTYPE
  5
38
100
AcDbSymbolTableRecord
100
AcDbLinetypeTableRecord
  2
_PUNKTIERT
 70
    64
  3

 72
    65
 73
     2
 40
0.25
 49
0.0
 74
     0
 49
-0.25
 74
     0
  0
LTYPE
  5
39
100
AcDbSymbolTableRecord
100
AcDbLinetypeTableRecord
  2
_STRICHPUNKTIERT
 70
    64
  3

 72
    65
 73
     4
 40
8.0
 49
5.0
 74
     0
 49
-1.0
 74
     0
 49
1.0
 74
     0
 49
-1.0
 74
     0
  0
LTYPE
  5
3A
100
AcDbSymbolTableRecord
100
AcDbLinetypeTableRecord
  2
_STRICH-PUNKT-PUNKT
 70
    64
  3

 72
    65
 73
     6
 40
10.0
 49
5.0
 74
     0
 49
-1.0
 74
     0
 49
1.0
 74
     0
 49
-1.0
 74
     0
 49
1.0
 74
     0
 49
-1.0
 74
     0
  0
LTYPE
  5
3B
100
AcDbSymbolTableRecord
100
AcDbLinetypeTableRecord
  2
_STARTPFEIL
 70
    64
  3

 72
    65
 73
     0
 40
0.0
  0
LTYPE
  5
3C
100
AcDbSymbolTableRecord
100
AcDbLinetypeTableRecord
  2
_ENDPFEIL
 70
    64
  3

 72
    65
 73
     0
 40
0.0
  0
LTYPE
  5
3D
100
AcDbSymbolTableRecord
100
AcDbLinetypeTableRecord
  2
_ENDPUNKT
 70
    64
  3

 72
    65
 73
     0
 40
0.0
  0
LTYPE
  5
3E
100
AcDbSymbolTableRecord
100
AcDbLinetypeTableRecord
  2
_PFEIL
 70
    64
  3

 72
    65
 73
     0
 40
0.0
  0
LTYPE
  5
3F
100
AcDbSymbolTableRecord
100
AcDbLinetypeTableRecord
  2
_STITCHLINE
 70
    64
  3

 72
    65
 73
     2
 40
6.0
 49
3.0
 74
     0
 49
-3.0
 74
     0
  0
LTYPE
  5
40
100
AcDbSymbolTableRecord
100
AcDbLinetypeTableRecord
  2
_MITTELLINIE_2
 70
    64
  3

 72
    65
 73
     4
 40
17.0
 49
10.0
 74
     0
 49
-2.0
 74
     0
 49
3.0
 74
     0
 49
-2.0
 74
     0
  0
LTYPE
  5
41
100
AcDbSymbolTableRecord
100
AcDbLinetypeTableRecord
  2
_VERDECKTE_LINIE
 70
    64
  3

 72
    65
 73
     2
 40
4.0
 49
2.0
 74
     0
 49
-2.0
 74
     0
  0
LTYPE
  5
42
100
AcDbSymbolTableRecord
100
AcDbLinetypeTableRecord
  2
_PHANTOMLINIE
 70
    64
  3

 72
    65
 73
     6
 40
21.0
 49
10.0
 74
     0
 49
-2.0
 74
     0
 49
3.0
 74
     0
 49
-1.0
 74
     0
 49
3.0
 74
     0
 49
-2.0
 74
     0
  0
LTYPE
  5
43
100
AcDbSymbolTableRecord
100
AcDbLinetypeTableRecord
  2
_BRUCHLINIE_1
 70
    64
  3

 72
    65
 73
     0
 40
0.0
  0
LTYPE
  5
44
100
AcDbSymbolTableRecord
100
AcDbLinetypeTableRecord
  2
_BRUCHLINIE_2
 70
    64
  3

 72
    65
 73
     0
 40
0.0
  0
LTYPE
  5
45
100
AcDbSymbolTableRecord
100
AcDbLinetypeTableRecord
  2
CONTINUOUS
 70
    64
  3

 72
    65
 73
     0
 40
0.0
  0
LTYPE
  5
46
100
AcDbSymbolTableRecord
100
AcDbLinetypeTableRecord
  2
_DURCHGEHEND
 70
    64
  3

 72
    65
 73
     0
 40
0.0
  0
LTYPE
  5
47
100
AcDbSymbolTableRecord
100
AcDbLinetypeTableRecord
  2
_GESTRICHELT
 70
    64
  3

 72
    65
 73
     2
 40
10.0
 49
5.0
 74
     0
 49
-5.0
 74
     0
  0
LTYPE
  5
48
100
AcDbSymbolTableRecord
100
AcDbLinetypeTableRecord
  2
_MITTELLINIE
 70
    64
  3

 72
    65
 73
     4
 40
20.0
 49
10.0
 74
     0
 49
-2.0
 74
     0
 49
5.0
 74
     0
 49
-3.0
 74
     0
  0
LTYPE
  5
49
100
AcDbSymbolTableRecord
100
AcDbLinetypeTableRecord
  2
_PUNKTIERT
 70
    64
  3

 72
    65
 73
     2
 40
0.25
 49
0.0
 74
     0
 49
-0.25
 74
     0
  0
LTYPE
  5
4A
100
AcDbSymbolTableRecord
100
AcDbLinetypeTableRecord
  2
_STRICHPUNKTIERT
 70
    64
  3

 72
    65
 73
     4
 40
8.0
 49
5.0
 74
     0
 49
-1.0
 74
     0
 49
1.0
 74
     0
 49
-1.0
 74
     0
  0
LTYPE
  5
4B
100
AcDbSymbolTableRecord
100
AcDbLinetypeTableRecord
  2
_STRICH-PUNKT-PUNKT
 70
    64
  3

 72
    65
 73
     6
 40
10.0
 49
5.0
 74
     0
 49
-1.0
 74
     0
 49
1.0
 74
     0
 49
-1.0
 74
     0
 49
1.0
 74
     0
 49
-1.0
 74
     0
  0
LTYPE
  5
4C
100
AcDbSymbolTableRecord
100
AcDbLinetypeTableRecord
  2
_STARTPFEIL
 70
    64
  3

 72
    65
 73
     0
 40
0.0
  0
LTYPE
  5
4D
100
AcDbSymbolTableRecord
100
AcDbLinetypeTableRecord
  2
_ENDPFEIL
 70
    64
  3

 72
    65
 73
     0
 40
0.0
  0
LTYPE
  5
4E
100
AcDbSymbolTableRecord
100
AcDbLinetypeTableRecord
  2
_ENDPUNKT
 70
    64
  3

 72
    65
 73
     0
 40
0.0
  0
LTYPE
  5
4F
100
AcDbSymbolTableRecord
100
AcDbLinetypeTableRecord
  2
_PFEIL
 70
    64
  3

 72
    65
 73
     0
 40
0.0
  0
LTYPE
  5
50
100
AcDbSymbolTableRecord
100
AcDbLinetypeTableRecord
  2
_STITCHLINE
 70
    64
  3

 72
    65
 73
     2
 40
6.0
 49
3.0
 74
     0
 49
-3.0
 74
     0
  0
LTYPE
  5
51
100
AcDbSymbolTableRecord
100
AcDbLinetypeTableRecord
  2
_MITTELLINIE_2
 70
    64
  3

 72
    65
 73
     4
 40
17.0
 49
10.0
 74
     0
 49
-2.0
 74
     0
 49
3.0
 74
     0
 49
-2.0
 74
     0
  0
LTYPE
  5
52
100
AcDbSymbolTableRecord
100
AcDbLinetypeTableRecord
  2
_VERDECKTE_LINIE
 70
    64
  3

 72
    65
 73
     2
 40
4.0
 49
2.0
 74
     0
 49
-2.0
 74
     0
  0
LTYPE
  5
53
100
AcDbSymbolTableRecord
100
AcDbLinetypeTableRecord
  2
_PHANTOMLINIE
 70
    64
  3

 72
    65
 73
     6
 40
21.0
 49
10.0
 74
     0
 49
-2.0
 74
     0
 49
3.0
 74
     0
 49
-1.0
 74
     0
 49
3.0
 74
     0
 49
-2.0
 74
     0
  0
LTYPE
  5
54
100
AcDbSymbolTableRecord
100
AcDbLinetypeTableRecord
  2
_BRUCHLINIE_1
 70
    64
  3

 72
    65
 73
     0
 40
0.0
  0
LTYPE
  5
55
100
AcDbSymbolTableRecord
100
AcDbLinetypeTableRecord
  2
_BRUCHLINIE_2
 70
    64
  3

 72
    65
 73
     0
 40
0.0
  0
LTYPE
  5
56
100
AcDbSymbolTableRecord
100
AcDbLinetypeTableRecord
  2
_DURCHGEHEND
 70
    64
  3

 72
    65
 73
     0
 40
0.0
  0
LTYPE
  5
57
100
AcDbSymbolTableRecord
100
AcDbLinetypeTableRecord
  2
_GESTRICHELT
 70
    64
  3

 72
    65
 73
     2
 40
10.0
 49
5.0
 74
     0
 49
-5.0
 74
     0
  0
LTYPE
  5
58
100
AcDbSymbolTableRecord
100
AcDbLinetypeTableRecord
  2
_MITTELLINIE
 70
    64
  3

 72
    65
 73
     4
 40
20.0
 49
10.0
 74
     0
 49
-2.0
 74
     0
 49
5.0
 74
     0
 49
-3.0
 74
     0
  0
LTYPE
  5
59
100
AcDbSymbolTableRecord
100
AcDbLinetypeTableRecord
  2
_PUNKTIERT
 70
    64
  3

 72
    65
 73
     2
 40
0.25
 49
0.0
 74
     0
 49
-0.25
 74
     0
  0
LTYPE
  5
5A
100
AcDbSymbolTableRecord
100
AcDbLinetypeTableRecord
  2
_STRICHPUNKTIERT
 70
    64
  3

 72
    65
 73
     4
 40
8.0
 49
5.0
 74
     0
 49
-1.0
 74
     0
 49
1.0
 74
     0
 49
-1.0
 74
     0
  0
LTYPE
  5
5B
100
AcDbSymbolTableRecord
100
AcDbLinetypeTableRecord
  2
_STRICH-PUNKT-PUNKT
 70
    64
  3

 72
    65
 73
     6
 40
10.0
 49
5.0
 74
     0
 49
-1.0
 74
     0
 49
1.0
 74
     0
 49
-1.0
 74
     0
 49
1.0
 74
     0
 49
-1.0
 74
     0
  0
LTYPE
  5
5C
100
AcDbSymbolTableRecord
100
AcDbLinetypeTableRecord
  2
_STARTPFEIL
 70
    64
  3

 72
    65
 73
     0
 40
0.0
  0
LTYPE
  5
5D
100
AcDbSymbolTableRecord
100
AcDbLinetypeTableRecord
  2
_ENDPFEIL
 70
    64
  3

 72
    65
 73
     0
 40
0.0
  0
LTYPE
  5
5E
100
AcDbSymbolTableRecord
100
AcDbLinetypeTableRecord
  2
_ENDPUNKT
 70
    64
  3

 72
    65
 73
     0
 40
0.0
  0
LTYPE
  5
5F
100
AcDbSymbolTableRecord
100
AcDbLinetypeTableRecord
  2
_PFEIL
 70
    64
  3

 72
    65
 73
     0
 40
0.0
  0
LTYPE
  5
60
100
AcDbSymbolTableRecord
100
AcDbLinetypeTableRecord
  2
_STITCHLINE
 70
    64
  3

 72
    65
 73
     2
 40
6.0
 49
3.0
 74
     0
 49
-3.0
 74
     0
  0
LTYPE
  5
61
100
AcDbSymbolTableRecord
100
AcDbLinetypeTableRecord
  2
_MITTELLINIE_2
 70
    64
  3

 72
    65
 73
     4
 40
17.0
 49
10.0
 74
     0
 49
-2.0
 74
     0
 49
3.0
 74
     0
 49
-2.0
 74
     0
  0
LTYPE
  5
62
100
AcDbSymbolTableRecord
100
AcDbLinetypeTableRecord
  2
_VERDECKTE_LINIE
 70
    64
  3

 72
    65
 73
     2
 40
4.0
 49
2.0
 74
     0
 49
-2.0
 74
     0
  0
LTYPE
  5
63
100
AcDbSymbolTableRecord
100
AcDbLinetypeTableRecord
  2
_PHANTOMLINIE
 70
    64
  3

 72
    65
 73
     6
 40
21.0
 49
10.0
 74
     0
 49
-2.0
 74
     0
 49
3.0
 74
     0
 49
-1.0
 74
     0
 49
3.0
 74
     0
 49
-2.0
 74
     0
  0
LTYPE
  5
64
100
AcDbSymbolTableRecord
100
AcDbLinetypeTableRecord
  2
_BRUCHLINIE_1
 70
    64
  3

 72
    65
 73
     0
 40
0.0
  0
LTYPE
  5
65
100
AcDbSymbolTableRecord
100
AcDbLinetypeTableRecord
  2
_BRUCHLINIE_2
 70
    64
  3

 72
    65
 73
     0
 40
0.0
  0
LTYPE
  5
66
100
AcDbSymbolTableRecord
100
AcDbLinetypeTableRecord
  2
SLDCENTERLINES0
 70
    64
  3

 72
    65
 73
     4
 40
19.05
 49
15.24
 74
     0
 49
-1.27
 74
     0
 49
1.27
 74
     0
 49
-1.27
 74
     0
  0
LTYPE
  5
67
100
AcDbSymbolTableRecord
100
AcDbLinetypeTableRecord
  2
SLDTANVISIBLE0
 70
    64
  3

 72
    65
 73
     6
 40
12.7
 49
6.35
 74
     0
 49
-1.27
 74
     0
 49
1.27
 74
     0
 49
-1.27
 74
     0
 49
1.27
 74
     0
 49
-1.27
 74
     0
  0
LTYPE
  5
68
100
AcDbSymbolTableRecord
100
AcDbLinetypeTableRecord
  2
_DURCHGEHEND
 70
    64
  3

 72
    65
 73
     0
 40
0.0
  0
LTYPE
  5
69
100
AcDbSymbolTableRecord
100
AcDbLinetypeTableRecord
  2
_GESTRICHELT
 70
    64
  3

 72
    65
 73
     2
 40
10.0
 49
5.0
 74
     0
 49
-5.0
 74
     0
  0
LTYPE
  5
6A
100
AcDbSymbolTableRecord
100
AcDbLinetypeTableRecord
  2
_MITTELLINIE
 70
    64
  3

 72
    65
 73
     4
 40
20.0
 49
10.0
 74
     0
 49
-2.0
 74
     0
 49
5.0
 74
     0
 49
-3.0
 74
     0
  0
LTYPE
  5
6B
100
AcDbSymbolTableRecord
100
AcDbLinetypeTableRecord
  2
_PUNKTIERT
 70
    64
  3

 72
    65
 73
     2
 40
0.25
 49
0.0
 74
     0
 49
-0.25
 74
     0
  0
LTYPE
  5
6C
100
AcDbSymbolTableRecord
100
AcDbLinetypeTableRecord
  2
_STRICHPUNKTIERT
 70
    64
  3

 72
    65
 73
     4
 40
8.0
 49
5.0
 74
     0
 49
-1.0
 74
     0
 49
1.0
 74
     0
 49
-1.0
 74
     0
  0
LTYPE
  5
6D
100
AcDbSymbolTableRecord
100
AcDbLinetypeTableRecord
  2
_STRICH-PUNKT-PUNKT
 70
    64
  3

 72
    65
 73
     6
 40
10.0
 49
5.0
 74
     0
 49
-1.0
 74
     0
 49
1.0
 74
     0
 49
-1.0
 74
     0
 49
1.0
 74
     0
 49
-1.0
 74
     0
  0
LTYPE
  5
6E
100
AcDbSymbolTableRecord
100
AcDbLinetypeTableRecord
  2
_STARTPFEIL
 70
    64
  3

 72
    65
 73
     0
 40
0.0
  0
LTYPE
  5
6F
100
AcDbSymbolTableRecord
100
AcDbLinetypeTableRecord
  2
_ENDPFEIL
 70
    64
  3

 72
    65
 73
     0
 40
0.0
  0
LTYPE
  5
70
100
AcDbSymbolTableRecord
100
AcDbLinetypeTableRecord
  2
_ENDPUNKT
 70
    64
  3

 72
    65
 73
     0
 40
0.0
  0
LTYPE
  5
71
100
AcDbSymbolTableRecord
100
AcDbLinetypeTableRecord
  2
_PFEIL
 70
    64
  3

 72
    65
 73
     0
 40
0.0
  0
LTYPE
  5
72
100
AcDbSymbolTableRecord
100
AcDbLinetypeTableRecord
  2
_STITCHLINE
 70
    64
  3

 72
    65
 73
     2
 40
6.0
 49
3.0
 74
     0
 49
-3.0
 74
     0
  0
LTYPE
  5
73
100
AcDbSymbolTableRecord
100
AcDbLinetypeTableRecord
  2
_MITTELLINIE_2
 70
    64
  3

 72
    65
 73
     4
 40
17.0
 49
10.0
 74
     0
 49
-2.0
 74
     0
 49
3.0
 74
     0
 49
-2.0
 74
     0
  0
LTYPE
  5
74
100
AcDbSymbolTableRecord
100
AcDbLinetypeTableRecord
  2
_VERDECKTE_LINIE
 70
    64
  3

 72
    65
 73
     2
 40
4.0
 49
2.0
 74
     0
 49
-2.0
 74
     0
  0
LTYPE
  5
75
100
AcDbSymbolTableRecord
100
AcDbLinetypeTableRecord
  2
_PHANTOMLINIE
 70
    64
  3

 72
    65
 73
     6
 40
21.0
 49
10.0
 74
     0
 49
-2.0
 74
     0
 49
3.0
 74
     0
 49
-1.0
 74
     0
 49
3.0
 74
     0
 49
-2.0
 74
     0
  0
LTYPE
  5
76
100
AcDbSymbolTableRecord
100
AcDbLinetypeTableRecord
  2
_BRUCHLINIE_1
 70
    64
  3

 72
    65
 73
     0
 40
0.0
  0
LTYPE
  5
77
100
AcDbSymbolTableRecord
100
AcDbLinetypeTableRecord
  2
_BRUCHLINIE_2
 70
    64
  3

 72
    65
 73
     0
 40
0.0
  0
LTYPE
  5
78
100
AcDbSymbolTableRecord
100
AcDbLinetypeTableRecord
  2
_DURCHGEHEND
 70
    64
  3

 72
    65
 73
     0
 40
0.0
  0
LTYPE
  5
79
100
AcDbSymbolTableRecord
100
AcDbLinetypeTableRecord
  2
_GESTRICHELT
 70
    64
  3

 72
    65
 73
     2
 40
10.0
 49
5.0
 74
     0
 49
-5.0
 74
     0
  0
LTYPE
  5
7A
100
AcDbSymbolTableRecord
100
AcDbLinetypeTableRecord
  2
_MITTELLINIE
 70
    64
  3

 72
    65
 73
     4
 40
20.0
 49
10.0
 74
     0
 49
-2.0
 74
     0
 49
5.0
 74
     0
 49
-3.0
 74
     0
  0
LTYPE
  5
7B
100
AcDbSymbolTableRecord
100
AcDbLinetypeTableRecord
  2
_PUNKTIERT
 70
    64
  3

 72
    65
 73
     2
 40
0.25
 49
0.0
 74
     0
 49
-0.25
 74
     0
  0
LTYPE
  5
7C
100
AcDbSymbolTableRecord
100
AcDbLinetypeTableRecord
  2
_STRICHPUNKTIERT
 70
    64
  3

 72
    65
 73
     4
 40
8.0
 49
5.0
 74
     0
 49
-1.0
 74
     0
 49
1.0
 74
     0
 49
-1.0
 74
     0
  0
LTYPE
  5
7D
100
AcDbSymbolTableRecord
100
AcDbLinetypeTableRecord
  2
_STRICH-PUNKT-PUNKT
 70
    64
  3

 72
    65
 73
     6
 40
10.0
 49
5.0
 74
     0
 49
-1.0
 74
     0
 49
1.0
 74
     0
 49
-1.0
 74
     0
 49
1.0
 74
     0
 49
-1.0
 74
     0
  0
LTYPE
  5
7E
100
AcDbSymbolTableRecord
100
AcDbLinetypeTableRecord
  2
_STARTPFEIL
 70
    64
  3

 72
    65
 73
     0
 40
0.0
  0
LTYPE
  5
7F
100
AcDbSymbolTableRecord
100
AcDbLinetypeTableRecord
  2
_ENDPFEIL
 70
    64
  3

 72
    65
 73
     0
 40
0.0
  0
LTYPE
  5
80
100
AcDbSymbolTableRecord
100
AcDbLinetypeTableRecord
  2
_ENDPUNKT
 70
    64
  3

 72
    65
 73
     0
 40
0.0
  0
LTYPE
  5
81
100
AcDbSymbolTableRecord
100
AcDbLinetypeTableRecord
  2
_PFEIL
 70
    64
  3

 72
    65
 73
     0
 40
0.0
  0
LTYPE
  5
82
100
AcDbSymbolTableRecord
100
AcDbLinetypeTableRecord
  2
_STITCHLINE
 70
    64
  3

 72
    65
 73
     2
 40
6.0
 49
3.0
 74
     0
 49
-3.0
 74
     0
  0
LTYPE
  5
83
100
AcDbSymbolTableRecord
100
AcDbLinetypeTableRecord
  2
_MITTELLINIE_2
 70
    64
  3

 72
    65
 73
     4
 40
17.0
 49
10.0
 74
     0
 49
-2.0
 74
     0
 49
3.0
 74
     0
 49
-2.0
 74
     0
  0
LTYPE
  5
84
100
AcDbSymbolTableRecord
100
AcDbLinetypeTableRecord
  2
_VERDECKTE_LINIE
 70
    64
  3

 72
    65
 73
     2
 40
4.0
 49
2.0
 74
     0
 49
-2.0
 74
     0
  0
LTYPE
  5
85
100
AcDbSymbolTableRecord
100
AcDbLinetypeTableRecord
  2
_PHANTOMLINIE
 70
    64
  3

 72
    65
 73
     6
 40
21.0
 49
10.0
 74
     0
 49
-2.0
 74
     0
 49
3.0
 74
     0
 49
-1.0
 74
     0
 49
3.0
 74
     0
 49
-2.0
 74
     0
  0
LTYPE
  5
86
100
AcDbSymbolTableRecord
100
AcDbLinetypeTableRecord
  2
_BRUCHLINIE_1
 70
    64
  3

 72
    65
 73
     0
 40
0.0
  0
LTYPE
  5
87
100
AcDbSymbolTableRecord
100
AcDbLinetypeTableRecord
  2
_BRUCHLINIE_2
 70
    64
  3

 72
    65
 73
     0
 40
0.0
  0
LTYPE
  5
88
100
AcDbSymbolTableRecord
100
AcDbLinetypeTableRecord
  2
_DURCHGEHEND
 70
    64
  3

 72
    65
 73
     0
 40
0.0
  0
LTYPE
  5
89
100
AcDbSymbolTableRecord
100
AcDbLinetypeTableRecord
  2
_GESTRICHELT
 70
    64
  3

 72
    65
 73
     2
 40
10.0
 49
5.0
 74
     0
 49
-5.0
 74
     0
  0
LTYPE
  5
8A
100
AcDbSymbolTableRecord
100
AcDbLinetypeTableRecord
  2
_MITTELLINIE
 70
    64
  3

 72
    65
 73
     4
 40
20.0
 49
10.0
 74
     0
 49
-2.0
 74
     0
 49
5.0
 74
     0
 49
-3.0
 74
     0
  0
LTYPE
  5
8B
100
AcDbSymbolTableRecord
100
AcDbLinetypeTableRecord
  2
_PUNKTIERT
 70
    64
  3

 72
    65
 73
     2
 40
0.25
 49
0.0
 74
     0
 49
-0.25
 74
     0
  0
LTYPE
  5
8C
100
AcDbSymbolTableRecord
100
AcDbLinetypeTableRecord
  2
_STRICHPUNKTIERT
 70
    64
  3

 72
    65
 73
     4
 40
8.0
 49
5.0
 74
     0
 49
-1.0
 74
     0
 49
1.0
 74
     0
 49
-1.0
 74
     0
  0
LTYPE
  5
8D
100
AcDbSymbolTableRecord
100
AcDbLinetypeTableRecord
  2
_STRICH-PUNKT-PUNKT
 70
    64
  3

 72
    65
 73
     6
 40
10.0
 49
5.0
 74
     0
 49
-1.0
 74
     0
 49
1.0
 74
     0
 49
-1.0
 74
     0
 49
1.0
 74
     0
 49
-1.0
 74
     0
  0
LTYPE
  5
8E
100
AcDbSymbolTableRecord
100
AcDbLinetypeTableRecord
  2
_STARTPFEIL
 70
    64
  3

 72
    65
 73
     0
 40
0.0
  0
LTYPE
  5
8F
100
AcDbSymbolTableRecord
100
AcDbLinetypeTableRecord
  2
_ENDPFEIL
 70
    64
  3

 72
    65
 73
     0
 40
0.0
  0
LTYPE
  5
90
100
AcDbSymbolTableRecord
100
AcDbLinetypeTableRecord
  2
_ENDPUNKT
 70
    64
  3

 72
    65
 73
     0
 40
0.0
  0
LTYPE
  5
91
100
AcDbSymbolTableRecord
100
AcDbLinetypeTableRecord
  2
_PFEIL
 70
    64
  3

 72
    65
 73
     0
 40
0.0
  0
LTYPE
  5
92
100
AcDbSymbolTableRecord
100
AcDbLinetypeTableRecord
  2
_STITCHLINE
 70
    64
  3

 72
    65
 73
     2
 40
6.0
 49
3.0
 74
     0
 49
-3.0
 74
     0
  0
LTYPE
  5
93
100
AcDbSymbolTableRecord
100
AcDbLinetypeTableRecord
  2
_MITTELLINIE_2
 70
    64
  3

 72
    65
 73
     4
 40
17.0
 49
10.0
 74
     0
 49
-2.0
 74
     0
 49
3.0
 74
     0
 49
-2.0
 74
     0
  0
LTYPE
  5
94
100
AcDbSymbolTableRecord
100
AcDbLinetypeTableRecord
  2
_VERDECKTE_LINIE
 70
    64
  3

 72
    65
 73
     2
 40
4.0
 49
2.0
 74
     0
 49
-2.0
 74
     0
  0
LTYPE
  5
95
100
AcDbSymbolTableRecord
100
AcDbLinetypeTableRecord
  2
_PHANTOMLINIE
 70
    64
  3

 72
    65
 73
     6
 40
21.0
 49
10.0
 74
     0
 49
-2.0
 74
     0
 49
3.0
 74
     0
 49
-1.0
 74
     0
 49
3.0
 74
     0
 49
-2.0
 74
     0
  0
LTYPE
  5
96
100
AcDbSymbolTableRecord
100
AcDbLinetypeTableRecord
  2
_BRUCHLINIE_1
 70
    64
  3

 72
    65
 73
     0
 40
0.0
  0
LTYPE
  5
97
100
AcDbSymbolTableRecord
100
AcDbLinetypeTableRecord
  2
_BRUCHLINIE_2
 70
    64
  3

 72
    65
 73
     0
 40
0.0
  0
LTYPE
  5
98
100
AcDbSymbolTableRecord
100
AcDbLinetypeTableRecord
  2
_DURCHGEHEND
 70
    64
  3

 72
    65
 73
     0
 40
0.0
  0
LTYPE
  5
99
100
AcDbSymbolTableRecord
100
AcDbLinetypeTableRecord
  2
_GESTRICHELT
 70
    64
  3

 72
    65
 73
     2
 40
10.0
 49
5.0
 74
     0
 49
-5.0
 74
     0
  0
LTYPE
  5
9A
100
AcDbSymbolTableRecord
100
AcDbLinetypeTableRecord
  2
_MITTELLINIE
 70
    64
  3

 72
    65
 73
     4
 40
20.0
 49
10.0
 74
     0
 49
-2.0
 74
     0
 49
5.0
 74
     0
 49
-3.0
 74
     0
  0
LTYPE
  5
9B
100
AcDbSymbolTableRecord
100
AcDbLinetypeTableRecord
  2
_PUNKTIERT
 70
    64
  3

 72
    65
 73
     2
 40
0.25
 49
0.0
 74
     0
 49
-0.25
 74
     0
  0
LTYPE
  5
9C
100
AcDbSymbolTableRecord
100
AcDbLinetypeTableRecord
  2
_STRICHPUNKTIERT
 70
    64
  3

 72
    65
 73
     4
 40
8.0
 49
5.0
 74
     0
 49
-1.0
 74
     0
 49
1.0
 74
     0
 49
-1.0
 74
     0
  0
LTYPE
  5
9D
100
AcDbSymbolTableRecord
100
AcDbLinetypeTableRecord
  2
_STRICH-PUNKT-PUNKT
 70
    64
  3

 72
    65
 73
     6
 40
10.0
 49
5.0
 74
     0
 49
-1.0
 74
     0
 49
1.0
 74
     0
 49
-1.0
 74
     0
 49
1.0
 74
     0
 49
-1.0
 74
     0
  0
LTYPE
  5
9E
100
AcDbSymbolTableRecord
100
AcDbLinetypeTableRecord
  2
_STARTPFEIL
 70
    64
  3

 72
    65
 73
     0
 40
0.0
  0
LTYPE
  5
9F
100
AcDbSymbolTableRecord
100
AcDbLinetypeTableRecord
  2
_ENDPFEIL
 70
    64
  3

 72
    65
 73
     0
 40
0.0
  0
LTYPE
  5
A0
100
AcDbSymbolTableRecord
100
AcDbLinetypeTableRecord
  2
_ENDPUNKT
 70
    64
  3

 72
    65
 73
     0
 40
0.0
  0
LTYPE
  5
A1
100
AcDbSymbolTableRecord
100
AcDbLinetypeTableRecord
  2
_PFEIL
 70
    64
  3

 72
    65
 73
     0
 40
0.0
  0
LTYPE
  5
A2
100
AcDbSymbolTableRecord
100
AcDbLinetypeTableRecord
  2
_STITCHLINE
 70
    64
  3

 72
    65
 73
     2
 40
6.0
 49
3.0
 74
     0
 49
-3.0
 74
     0
  0
LTYPE
  5
A3
100
AcDbSymbolTableRecord
100
AcDbLinetypeTableRecord
  2
_MITTELLINIE_2
 70
    64
  3

 72
    65
 73
     4
 40
17.0
 49
10.0
 74
     0
 49
-2.0
 74
     0
 49
3.0
 74
     0
 49
-2.0
 74
     0
  0
LTYPE
  5
A4
100
AcDbSymbolTableRecord
100
AcDbLinetypeTableRecord
  2
_VERDECKTE_LINIE
 70
    64
  3

 72
    65
 73
     2
 40
4.0
 49
2.0
 74
     0
 49
-2.0
 74
     0
  0
LTYPE
  5
A5
100
AcDbSymbolTableRecord
100
AcDbLinetypeTableRecord
  2
_PHANTOMLINIE
 70
    64
  3

 72
    65
 73
     6
 40
21.0
 49
10.0
 74
     0
 49
-2.0
 74
     0
 49
3.0
 74
     0
 49
-1.0
 74
     0
 49
3.0
 74
     0
 49
-2.0
 74
     0
  0
LTYPE
  5
A6
100
AcDbSymbolTableRecord
100
AcDbLinetypeTableRecord
  2
_BRUCHLINIE_1
 70
    64
  3

 72
    65
 73
     0
 40
0.0
  0
LTYPE
  5
A7
100
AcDbSymbolTableRecord
100
AcDbLinetypeTableRecord
  2
_BRUCHLINIE_2
 70
    64
  3

 72
    65
 73
     0
 40
0.0
  0
LTYPE
  5
A8
100
AcDbSymbolTableRecord
100
AcDbLinetypeTableRecord
  2
_DURCHGEHEND
 70
    64
  3

 72
    65
 73
     0
 40
0.0
  0
LTYPE
  5
A9
100
AcDbSymbolTableRecord
100
AcDbLinetypeTableRecord
  2
_GESTRICHELT
 70
    64
  3

 72
    65
 73
     2
 40
10.0
 49
5.0
 74
     0
 49
-5.0
 74
     0
  0
LTYPE
  5
AA
100
AcDbSymbolTableRecord
100
AcDbLinetypeTableRecord
  2
_MITTELLINIE
 70
    64
  3

 72
    65
 73
     4
 40
20.0
 49
10.0
 74
     0
 49
-2.0
 74
     0
 49
5.0
 74
     0
 49
-3.0
 74
     0
  0
LTYPE
  5
AB
100
AcDbSymbolTableRecord
100
AcDbLinetypeTableRecord
  2
_PUNKTIERT
 70
    64
  3

 72
    65
 73
     2
 40
0.25
 49
0.0
 74
     0
 49
-0.25
 74
     0
  0
LTYPE
  5
AC
100
AcDbSymbolTableRecord
100
AcDbLinetypeTableRecord
  2
_STRICHPUNKTIERT
 70
    64
  3

 72
    65
 73
     4
 40
8.0
 49
5.0
 74
     0
 49
-1.0
 74
     0
 49
1.0
 74
     0
 49
-1.0
 74
     0
  0
LTYPE
  5
AD
100
AcDbSymbolTableRecord
100
AcDbLinetypeTableRecord
  2
_STRICH-PUNKT-PUNKT
 70
    64
  3

 72
    65
 73
     6
 40
10.0
 49
5.0
 74
     0
 49
-1.0
 74
     0
 49
1.0
 74
     0
 49
-1.0
 74
     0
 49
1.0
 74
     0
 49
-1.0
 74
     0
  0
LTYPE
  5
AE
100
AcDbSymbolTableRecord
100
AcDbLinetypeTableRecord
  2
_STARTPFEIL
 70
    64
  3

 72
    65
 73
     0
 40
0.0
  0
LTYPE
  5
AF
100
AcDbSymbolTableRecord
100
AcDbLinetypeTableRecord
  2
_ENDPFEIL
 70
    64
  3

 72
    65
 73
     0
 40
0.0
  0
LTYPE
  5
B0
100
AcDbSymbolTableRecord
100
AcDbLinetypeTableRecord
  2
_ENDPUNKT
 70
    64
  3

 72
    65
 73
     0
 40
0.0
  0
LTYPE
  5
B1
100
AcDbSymbolTableRecord
100
AcDbLinetypeTableRecord
  2
_PFEIL
 70
    64
  3

 72
    65
 73
     0
 40
0.0
  0
LTYPE
  5
B2
100
AcDbSymbolTableRecord
100
AcDbLinetypeTableRecord
  2
_STITCHLINE
 70
    64
  3

 72
    65
 73
     2
 40
6.0
 49
3.0
 74
     0
 49
-3.0
 74
     0
  0
LTYPE
  5
B3
100
AcDbSymbolTableRecord
100
AcDbLinetypeTableRecord
  2
_MITTELLINIE_2
 70
    64
  3

 72
    65
 73
     4
 40
17.0
 49
10.0
 74
     0
 49
-2.0
 74
     0
 49
3.0
 74
     0
 49
-2.0
 74
     0
  0
LTYPE
  5
B4
100
AcDbSymbolTableRecord
100
AcDbLinetypeTableRecord
  2
_VERDECKTE_LINIE
 70
    64
  3

 72
    65
 73
     2
 40
4.0
 49
2.0
 74
     0
 49
-2.0
 74
     0
  0
LTYPE
  5
B5
100
AcDbSymbolTableRecord
100
AcDbLinetypeTableRecord
  2
_PHANTOMLINIE
 70
    64
  3

 72
    65
 73
     6
 40
21.0
 49
10.0
 74
     0
 49
-2.0
 74
     0
 49
3.0
 74
     0
 49
-1.0
 74
     0
 49
3.0
 74
     0
 49
-2.0
 74
     0
  0
LTYPE
  5
B6
100
AcDbSymbolTableRecord
100
AcDbLinetypeTableRecord
  2
_BRUCHLINIE_1
 70
    64
  3

 72
    65
 73
     0
 40
0.0
  0
LTYPE
  5
B7
100
AcDbSymbolTableRecord
100
AcDbLinetypeTableRecord
  2
_BRUCHLINIE_2
 70
    64
  3

 72
    65
 73
     0
 40
0.0
  0
LTYPE
  5
B8
100
AcDbSymbolTableRecord
100
AcDbLinetypeTableRecord
  2
4_2-0_7-0_7-0_7
 70
    64
  3

 72
    65
 73
     4
 40
6.35
 49
4.233334
 74
     0
 49
-0.705556
 74
     0
 49
0.705556
 74
     0
 49
-0.705556
 74
     0
  0
LTYPE
  5
B9
100
AcDbSymbolTableRecord
100
AcDbLinetypeTableRecord
  2
0_7-0_7
 70
    64
  3

 72
    65
 73
     2
 40
1.411111
 49
0.705556
 74
     0
 49
-0.705556
 74
     0
  0
LTYPE
  5
BA
100
AcDbSymbolTableRecord
100
AcDbLinetypeTableRecord
  2
_DURCHGEHEND
 70
    64
  3

 72
    65
 73
     0
 40
0.0
  0
LTYPE
  5
BB
100
AcDbSymbolTableRecord
100
AcDbLinetypeTableRecord
  2
_GESTRICHELT
 70
    64
  3

 72
    65
 73
     2
 40
10.0
 49
5.0
 74
     0
 49
-5.0
 74
     0
  0
LTYPE
  5
BC
100
AcDbSymbolTableRecord
100
AcDbLinetypeTableRecord
  2
_MITTELLINIE
 70
    64
  3

 72
    65
 73
     4
 40
20.0
 49
10.0
 74
     0
 49
-2.0
 74
     0
 49
5.0
 74
     0
 49
-3.0
 74
     0
  0
LTYPE
  5
BD
100
AcDbSymbolTableRecord
100
AcDbLinetypeTableRecord
  2
_PUNKTIERT
 70
    64
  3

 72
    65
 73
     2
 40
0.25
 49
0.0
 74
     0
 49
-0.25
 74
     0
  0
LTYPE
  5
BE
100
AcDbSymbolTableRecord
100
AcDbLinetypeTableRecord
  2
_STRICHPUNKTIERT
 70
    64
  3

 72
    65
 73
     4
 40
8.0
 49
5.0
 74
     0
 49
-1.0
 74
     0
 49
1.0
 74
     0
 49
-1.0
 74
     0
  0
LTYPE
  5
BF
100
AcDbSymbolTableRecord
100
AcDbLinetypeTableRecord
  2
_STRICH-PUNKT-PUNKT
 70
    64
  3

 72
    65
 73
     6
 40
10.0
 49
5.0
 74
     0
 49
-1.0
 74
     0
 49
1.0
 74
     0
 49
-1.0
 74
     0
 49
1.0
 74
     0
 49
-1.0
 74
     0
  0
LTYPE
  5
C0
100
AcDbSymbolTableRecord
100
AcDbLinetypeTableRecord
  2
_STARTPFEIL
 70
    64
  3

 72
    65
 73
     0
 40
0.0
  0
LTYPE
  5
C1
100
AcDbSymbolTableRecord
100
AcDbLinetypeTableRecord
  2
_ENDPFEIL
 70
    64
  3

 72
    65
 73
     0
 40
0.0
  0
LTYPE
  5
C2
100
AcDbSymbolTableRecord
100
AcDbLinetypeTableRecord
  2
_ENDPUNKT
 70
    64
  3

 72
    65
 73
     0
 40
0.0
  0
LTYPE
  5
C3
100
AcDbSymbolTableRecord
100
AcDbLinetypeTableRecord
  2
_PFEIL
 70
    64
  3

 72
    65
 73
     0
 40
0.0
  0
LTYPE
  5
C4
100
AcDbSymbolTableRecord
100
AcDbLinetypeTableRecord
  2
_STITCHLINE
 70
    64
  3

 72
    65
 73
     2
 40
6.0
 49
3.0
 74
     0
 49
-3.0
 74
     0
  0
LTYPE
  5
C5
100
AcDbSymbolTableRecord
100
AcDbLinetypeTableRecord
  2
_MITTELLINIE_2
 70
    64
  3

 72
    65
 73
     4
 40
17.0
 49
10.0
 74
     0
 49
-2.0
 74
     0
 49
3.0
 74
     0
 49
-2.0
 74
     0
  0
LTYPE
  5
C6
100
AcDbSymbolTableRecord
100
AcDbLinetypeTableRecord
  2
_VERDECKTE_LINIE
 70
    64
  3

 72
    65
 73
     2
 40
4.0
 49
2.0
 74
     0
 49
-2.0
 74
     0
  0
LTYPE
  5
C7
100
AcDbSymbolTableRecord
100
AcDbLinetypeTableRecord
  2
_PHANTOMLINIE
 70
    64
  3

 72
    65
 73
     6
 40
21.0
 49
10.0
 74
     0
 49
-2.0
 74
     0
 49
3.0
 74
     0
 49
-1.0
 74
     0
 49
3.0
 74
     0
 49
-2.0
 74
     0
  0
LTYPE
  5
C8
100
AcDbSymbolTableRecord
100
AcDbLinetypeTableRecord
  2
_BRUCHLINIE_1
 70
    64
  3

 72
    65
 73
     0
 40
0.0
  0
LTYPE
  5
C9
100
AcDbSymbolTableRecord
100
AcDbLinetypeTableRecord
  2
_BRUCHLINIE_2
 70
    64
  3

 72
    65
 73
     0
 40
0.0
  0
LTYPE
  5
CA
100
AcDbSymbolTableRecord
100
AcDbLinetypeTableRecord
  2
_DURCHGEHEND
 70
    64
  3

 72
    65
 73
     0
 40
0.0
  0
LTYPE
  5
CB
100
AcDbSymbolTableRecord
100
AcDbLinetypeTableRecord
  2
_GESTRICHELT
 70
    64
  3

 72
    65
 73
     2
 40
10.0
 49
5.0
 74
     0
 49
-5.0
 74
     0
  0
LTYPE
  5
CC
100
AcDbSymbolTableRecord
100
AcDbLinetypeTableRecord
  2
_MITTELLINIE
 70
    64
  3

 72
    65
 73
     4
 40
20.0
 49
10.0
 74
     0
 49
-2.0
 74
     0
 49
5.0
 74
     0
 49
-3.0
 74
     0
  0
LTYPE
  5
CD
100
AcDbSymbolTableRecord
100
AcDbLinetypeTableRecord
  2
_PUNKTIERT
 70
    64
  3

 72
    65
 73
     2
 40
0.25
 49
0.0
 74
     0
 49
-0.25
 74
     0
  0
LTYPE
  5
CE
100
AcDbSymbolTableRecord
100
AcDbLinetypeTableRecord
  2
_STRICHPUNKTIERT
 70
    64
  3

 72
    65
 73
     4
 40
8.0
 49
5.0
 74
     0
 49
-1.0
 74
     0
 49
1.0
 74
     0
 49
-1.0
 74
     0
  0
LTYPE
  5
CF
100
AcDbSymbolTableRecord
100
AcDbLinetypeTableRecord
  2
_STRICH-PUNKT-PUNKT
 70
    64
  3

 72
    65
 73
     6
 40
10.0
 49
5.0
 74
     0
 49
-1.0
 74
     0
 49
1.0
 74
     0
 49
-1.0
 74
     0
 49
1.0
 74
     0
 49
-1.0
 74
     0
  0
LTYPE
  5
D0
100
AcDbSymbolTableRecord
100
AcDbLinetypeTableRecord
  2
_STARTPFEIL
 70
    64
  3

 72
    65
 73
     0
 40
0.0
  0
LTYPE
  5
D1
100
AcDbSymbolTableRecord
100
AcDbLinetypeTableRecord
  2
_ENDPFEIL
 70
    64
  3

 72
    65
 73
     0
 40
0.0
  0
LTYPE
  5
D2
100
AcDbSymbolTableRecord
100
AcDbLinetypeTableRecord
  2
_ENDPUNKT
 70
    64
  3

 72
    65
 73
     0
 40
0.0
  0
LTYPE
  5
D3
100
AcDbSymbolTableRecord
100
AcDbLinetypeTableRecord
  2
_PFEIL
 70
    64
  3

 72
    65
 73
     0
 40
0.0
  0
LTYPE
  5
D4
100
AcDbSymbolTableRecord
100
AcDbLinetypeTableRecord
  2
_STITCHLINE
 70
    64
  3

 72
    65
 73
     2
 40
6.0
 49
3.0
 74
     0
 49
-3.0
 74
     0
  0
LTYPE
  5
D5
100
AcDbSymbolTableRecord
100
AcDbLinetypeTableRecord
  2
_MITTELLINIE_2
 70
    64
  3

 72
    65
 73
     4
 40
17.0
 49
10.0
 74
     0
 49
-2.0
 74
     0
 49
3.0
 74
     0
 49
-2.0
 74
     0
  0
LTYPE
  5
D6
100
AcDbSymbolTableRecord
100
AcDbLinetypeTableRecord
  2
_VERDECKTE_LINIE
 70
    64
  3

 72
    65
 73
     2
 40
4.0
 49
2.0
 74
     0
 49
-2.0
 74
     0
  0
LTYPE
  5
D7
100
AcDbSymbolTableRecord
100
AcDbLinetypeTableRecord
  2
_PHANTOMLINIE
 70
    64
  3

 72
    65
 73
     6
 40
21.0
 49
10.0
 74
     0
 49
-2.0
 74
     0
 49
3.0
 74
     0
 49
-1.0
 74
     0
 49
3.0
 74
     0
 49
-2.0
 74
     0
  0
LTYPE
  5
D8
100
AcDbSymbolTableRecord
100
AcDbLinetypeTableRecord
  2
_BRUCHLINIE_1
 70
    64
  3

 72
    65
 73
     0
 40
0.0
  0
LTYPE
  5
D9
100
AcDbSymbolTableRecord
100
AcDbLinetypeTableRecord
  2
_BRUCHLINIE_2
 70
    64
  3

 72
    65
 73
     0
 40
0.0
  0
LTYPE
  5
DA
100
AcDbSymbolTableRecord
100
AcDbLinetypeTableRecord
  2
SLDUSER-DASHED0
 70
    64
  3

 72
    65
 73
     2
 40
1.905
 49
1.27
 74
     0
 49
-0.635
 74
     0
  0
ENDTAB
  0
TABLE
  2
LAYER
  5
2
100
AcDbSymbolTable
 70
     7
  0
LAYER
  5
14
100
AcDbSymbolTableRecord
100
AcDbLayerTableRecord
  2
0
 70
     0
 62
     7
  6
Continuous
290
     1
370
    -3
390
1D
  0
LAYER
  5
DB
100
AcDbSymbolTableRecord
100
AcDbLayerTableRecord
  2
STANDARDEBENE
 70
     0
 62
     7
  6
Continuous
290
     1
370
    -3
390
1D
  0
LAYER
  5
DC
100
AcDbSymbolTableRecord
100
AcDbLayerTableRecord
  2
ARMATUR
 70
     0
 62
     7
  6
Continuous
290
     1
370
    -3
390
1D
  0
LAYER
  5
DD
100
AcDbSymbolTableRecord
100
AcDbLayerTableRecord
  2
ACHSEN
 70
     0
 62
     7
  6
Continuous
290
     1
370
    -3
390
1D
  0
LAYER
  5
DE
100
AcDbSymbolTableRecord
100
AcDbLayerTableRecord
  2
BEMASSUNG
 70
     0
 62
     7
  6
Continuous
290
     1
370
    -3
390
1D
  0
LAYER
  5
DF
100
AcDbSymbolTableRecord
100
AcDbLayerTableRecord
  2
WAND
 70
     0
 62
     7
  6
Continuous
290
     1
370
    -3
390
1D
  0
LAYER
  5
E0
100
AcDbSymbolTableRecord
100
AcDbLayerTableRecord
  2
ANSICHT
 70
     0
 62
     7
  6
Continuous
290
     1
370
    -3
390
1D
  0
ENDTAB
  0
TABLE
  2
STYLE
  5
3
100
AcDbSymbolTable
 70
     1
  0
STYLE
  5
17
100
AcDbSymbolTableRecord
100
AcDbTextStyleTableRecord
  2
Standard
 70
     0
 40
0.0
 41
1.0
 50
0.0
 71
     0
 42
0.0
  3
txt
  4

  0
ENDTAB
  0
TABLE
  2
VIEW
  5
5
100
AcDbSymbolTable
 70
     0
  0
ENDTAB
  0
TABLE
  2
UCS
  5
6
100
AcDbSymbolTable
 70
     1
  0
UCS
  5
24
100
AcDbSymbolTableRecord
100
AcDbUCSTableRecord
  2
ISODRAW_6_2
 70
     0
 10
0.0
 20
0.0
 30
0.0
 11
0.0
 21
1.0
 31
0.0
 12
0.0
 22
0.0
 32
1.0
 79
     0
146
0.0
  0
ENDTAB
  0
TABLE
  2
APPID
  5
8
100
AcDbSymbolTable
 70
     1
  0
APPID
  5
16
100
AcDbSymbolTableRecord
100
AcDbRegAppTableRecord
  2
ACAD
 70
     0
  0
ENDTAB
  0
TABLE
  2
DIMSTYLE
  5
9
100
AcDbSymbolTable
 70
     1
100
AcDbDimStyleTable
 71
     0
  0
DIMSTYLE
105
18
100
AcDbSymbolTableRecord
100
AcDbDimStyleTableRecord
  2
Standard
 70
     0
  3

  4

 40
1.0
 41
0.18
 42
0.0625
 43
0.38
 44
0.18
 45
0.0
 46
0.0
 47
0.0
 48
0.0
 71
     0
 72
     0
 73
     1
 74
     1
 75
     0
 76
     0
 77
     0
 78
     0
 79
     0
140
0.18
141
0.09
142
0.0
143
25.4
144
1.0
145
0.0
146
1.0
147
0.09
148
0.0
170
     0
171
     2
172
     0
173
     0
174
     0
175
     0
176
     0
177
     0
178
     0
179
     0
271
     4
272
     4
273
     2
274
     2
275
     0
276
     0
277
     2
278
    46
279
     0
280
     0
281
     0
282
     0
283
     1
284
     0
285
     0
286
     0
288
     0
289
     3
340
17
341
0
342
0
343
0
344
0
371
    -2
372
    -2
  0
ENDTAB
  0
TABLE
  2
BLOCK_RECORD
  5
1
100
AcDbSymbolTable
 70
     0
  0
BLOCK_RECORD
  5
A
100
AcDbSymbolTableRecord
100
AcDbBlockTableRecord
  2
*MODEL_SPACE
340
20
  0
BLOCK_RECORD
  5
B
100
AcDbSymbolTableRecord
100
AcDbBlockTableRecord
  2
*PAPER_SPACE
340
21
  0
ENDTAB
  0
ENDSEC
  0
SECTION
  2
BLOCKS
  0
BLOCK
  5
D
100
AcDbEntity
  8
0
390
0
100
AcDbBlockBegin
  2
*MODEL_SPACE
 70
     0
 10
0.0
 20
0.0
 30
0.0
  3
*MODEL_SPACE
  1

  0
ENDBLK
  5
E
100
AcDbEntity
  8
0
390
0
100
AcDbBlockEnd
  0
BLOCK
  5
F
100
AcDbEntity
 67
     1
  8
0
390
0
100
AcDbBlockBegin
  2
*PAPER_SPACE
 70
     0
 10
0.0
 20
0.0
 30
0.0
  3
*PAPER_SPACE
  1

  0
ENDBLK
  5
10
100
AcDbEntity
 67
     1
  8
0
390
0
100
AcDbBlockEnd
  0
ENDSEC
  0
SECTION
  2
ENTITIES
  0
CIRCLE
  5
E1
100
AcDbEntity
  8
ARMATUR
390
0
  6
DURCHGEHEND
 62
     1
100
AcDbCircle
 10
101.254272
 20
71.534523
 30
0.0
 40
0.875
  0
CIRCLE
  5
E2
100
AcDbEntity
  8
ARMATUR
390
0
  6
DURCHGEHEND
 62
     1
100
AcDbCircle
 10
143.754257
 20
71.534523
 30
0.0
 40
0.875
  0
LINE
  5
E3
100
AcDbEntity
  8
ARMATUR
390
0
  6
DURCHGEHEND
 62
     1
100
AcDbLine
 10
125.116745
 20
84.759499
 30
0.0
 11
124.866745
 21
85.009491
 31
0.0
  0
LINE
  5
E4
100
AcDbEntity
  8
ARMATUR
390
0
  6
DURCHGEHEND
 62
     1
100
AcDbLine
 10
120.141769
 20
85.009499
 30
0.0
 11
119.891769
 21
84.759491
 31
0.0
  0
LINE
  5
E5
100
AcDbEntity
  8
ARMATUR
390
0
  6
DURCHGEHEND
 62
     1
100
AcDbLine
 10
125.116745
 20
83.259499
 30
0.0
 11
125.116745
 21
84.759491
 31
0.0
  0
LINE
  5
E6
100
AcDbEntity
  8
ARMATUR
390
0
  6
DURCHGEHEND
 62
     1
100
AcDbLine
 10
119.891769
 20
84.759499
 30
0.0
 11
119.891769
 21
83.259491
 31
0.0
  0
LINE
  5
E7
100
AcDbEntity
  8
ARMATUR
390
0
  6
DURCHGEHEND
 62
     1
100
AcDbLine
 10
125.116745
 20
81.259499
 30
0.0
 11
125.116745
 21
82.759491
 31
0.0
  0
LINE
  5
E8
100
AcDbEntity
  8
ARMATUR
390
0
  6
DURCHGEHEND
 62
     1
100
AcDbLine
 10
119.891769
 20
82.759499
 30
0.0
 11
119.891769
 21
81.259491
 31
0.0
  0
LINE
  5
E9
100
AcDbEntity
  8
ARMATUR
390
0
  6
DURCHGEHEND
 62
     1
100
AcDbLine
 10
125.116745
 20
79.259499
 30
0.0
 11
125.116745
 21
80.759491
 31
0.0
  0
LINE
  5
EA
100
AcDbEntity
  8
ARMATUR
390
0
  6
DURCHGEHEND
 62
     1
100
AcDbLine
 10
119.891769
 20
80.759499
 30
0.0
 11
119.891769
 21
79.259491
 31
0.0
  0
LINE
  5
EB
100
AcDbEntity
  8
ARMATUR
390
0
  6
DURCHGEHEND
 62
     1
100
AcDbLine
 10
125.116745
 20
77.259499
 30
0.0
 11
125.116745
 21
78.759491
 31
0.0
  0
LINE
  5
EC
100
AcDbEntity
  8
ARMATUR
390
0
  6
DURCHGEHEND
 62
     1
100
AcDbLine
 10
119.891769
 20
78.759499
 30
0.0
 11
119.891769
 21
77.259491
 31
0.0
  0
LINE
  5
ED
100
AcDbEntity
  8
ARMATUR
390
0
  6
DURCHGEHEND
 62
     1
100
AcDbLine
 10
125.116745
 20
72.634499
 30
0.0
 11
125.116745
 21
76.759491
 31
0.0
  0
LINE
  5
EE
100
AcDbEntity
  8
ARMATUR
390
0
  6
DURCHGEHEND
 62
     1
100
AcDbLine
 10
119.891769
 20
76.759499
 30
0.0
 11
119.891769
 21
72.634491
 31
0.0
  0
ARC
  5
EF
100
AcDbEntity
  8
ARMATUR
390
0
  6
DURCHGEHEND
 62
     1
100
AcDbCircle
 10
124.879257
 20
82.884499
 30
0.0
 40
0.125
100
AcDbArc
 50
180.0
 51
270.0
  0
ARC
  5
F0
100
AcDbEntity
  8
ARMATUR
390
0
  6
DURCHGEHEND
 62
     1
100
AcDbCircle
 10
120.129257
 20
82.884499
 30
0.0
 40
0.125
100
AcDbArc
 50
270.0
 51
360.0
  0
ARC
  5
F1
100
AcDbEntity
  8
ARMATUR
390
0
  6
DURCHGEHEND
 62
     1
100
AcDbCircle
 10
124.879257
 20
83.134499
 30
0.0
 40
0.125
100
AcDbArc
 50
90.0
 51
180.0
  0
ARC
  5
F2
100
AcDbEntity
  8
ARMATUR
390
0
  6
DURCHGEHEND
 62
     1
100
AcDbCircle
 10
120.129257
 20
83.134499
 30
0.0
 40
0.125
100
AcDbArc
 50
0.0
 51
90.0
  0
ARC
  5
F3
100
AcDbEntity
  8
ARMATUR
390
0
  6
DURCHGEHEND
 62
     1
100
AcDbCircle
 10
124.879257
 20
80.884499
 30
0.0
 40
0.125
100
AcDbArc
 50
180.0
 51
270.0
  0
ARC
  5
F4
100
AcDbEntity
  8
ARMATUR
390
0
  6
DURCHGEHEND
 62
     1
100
AcDbCircle
 10
120.129257
 20
80.884499
 30
0.0
 40
0.125
100
AcDbArc
 50
270.0
 51
360.0
  0
ARC
  5
F5
100
AcDbEntity
  8
ARMATUR
390
0
  6
DURCHGEHEND
 62
     1
100
AcDbCircle
 10
124.879257
 20
81.134499
 30
0.0
 40
0.125
100
AcDbArc
 50
90.0
 51
180.0
  0
ARC
  5
F6
100
AcDbEntity
  8
ARMATUR
390
0
  6
DURCHGEHEND
 62
     1
100
AcDbCircle
 10
120.129257
 20
81.134499
 30
0.0
 40
0.125
100
AcDbArc
 50
0.0
 51
90.0
  0
ARC
  5
F7
100
AcDbEntity
  8
ARMATUR
390
0
  6
DURCHGEHEND
 62
     1
100
AcDbCircle
 10
124.879257
 20
78.884499
 30
0.0
 40
0.125
100
AcDbArc
 50
180.0
 51
270.0
  0
ARC
  5
F8
100
AcDbEntity
  8
ARMATUR
390
0
  6
DURCHGEHEND
 62
     1
100
AcDbCircle
 10
120.129257
 20
78.884499
 30
0.0
 40
0.125
100
AcDbArc
 50
270.0
 51
360.0
  0
ARC
  5
F9
100
AcDbEntity
  8
ARMATUR
390
0
  6
DURCHGEHEND
 62
     1
100
AcDbCircle
 10
124.879257
 20
79.134499
 30
0.0
 40
0.125
100
AcDbArc
 50
90.0
 51
180.0
  0
ARC
  5
FA
100
AcDbEntity
  8
ARMATUR
390
0
  6
DURCHGEHEND
 62
     1
100
AcDbCircle
 10
120.129257
 20
79.134499
 30
0.0
 40
0.125
100
AcDbArc
 50
0.0
 51
90.0
  0
ARC
  5
FB
100
AcDbEntity
  8
ARMATUR
390
0
  6
DURCHGEHEND
 62
     1
100
AcDbCircle
 10
124.879257
 20
77.134499
 30
0.0
 40
0.125
100
AcDbArc
 50
90.0
 51
180.0
  0
ARC
  5
FC
100
AcDbEntity
  8
ARMATUR
390
0
  6
DURCHGEHEND
 62
     1
100
AcDbCircle
 10
120.129257
 20
77.134499
 30
0.0
 40
0.125
100
AcDbArc
 50
0.0
 51
90.0
  0
ARC
  5
FD
100
AcDbEntity
  8
ARMATUR
390
0
  6
DURCHGEHEND
 62
     1
100
AcDbCircle
 10
124.879257
 20
76.884499
 30
0.0
 40
0.125
100
AcDbArc
 50
180.0
 51
270.0
  0
ARC
  5
FE
100
AcDbEntity
  8
ARMATUR
390
0
  6
DURCHGEHEND
 62
     1
100
AcDbCircle
 10
120.129257
 20
76.884499
 30
0.0
 40
0.125
100
AcDbArc
 50
270.0
 51
360.0
  0
LINE
  5
FF
100
AcDbEntity
  8
ARMATUR
390
0
  6
DURCHGEHEND
 62
     1
100
AcDbLine
 10
124.754257
 20
82.884499
 30
0.0
 11
124.754257
 21
83.134491
 31
0.0
  0
LINE
  5
100
100
AcDbEntity
  8
ARMATUR
390
0
  6
DURCHGEHEND
 62
     1
100
AcDbLine
 10
120.254257
 20
83.134499
 30
0.0
 11
120.254257
 21
82.884491
 31
0.0
  0
LINE
  5
101
100
AcDbEntity
  8
ARMATUR
390
0
  6
DURCHGEHEND
 62
     1
100
AcDbLine
 10
124.754257
 20
80.884499
 30
0.0
 11
124.754257
 21
81.134491
 31
0.0
  0
LINE
  5
102
100
AcDbEntity
  8
ARMATUR
390
0
  6
DURCHGEHEND
 62
     1
100
AcDbLine
 10
120.254257
 20
81.134499
 30
0.0
 11
120.254257
 21
80.884491
 31
0.0
  0
LINE
  5
103
100
AcDbEntity
  8
ARMATUR
390
0
  6
DURCHGEHEND
 62
     1
100
AcDbLine
 10
124.754257
 20
78.884499
 30
0.0
 11
124.754257
 21
79.134491
 31
0.0
  0
LINE
  5
104
100
AcDbEntity
  8
ARMATUR
390
0
  6
DURCHGEHEND
 62
     1
100
AcDbLine
 10
120.254257
 20
79.134499
 30
0.0
 11
120.254257
 21
78.884491
 31
0.0
  0
LINE
  5
105
100
AcDbEntity
  8
ARMATUR
390
0
  6
DURCHGEHEND
 62
     1
100
AcDbLine
 10
124.754257
 20
76.884499
 30
0.0
 11
124.754257
 21
77.134491
 31
0.0
  0
LINE
  5
106
100
AcDbEntity
  8
ARMATUR
390
0
  6
DURCHGEHEND
 62
     1
100
AcDbLine
 10
120.254257
 20
77.134499
 30
0.0
 11
120.254257
 21
76.884491
 31
0.0
  0
LINE
  5
107
100
AcDbEntity
  8
ARMATUR
390
0
  6
DURCHGEHEND
 62
     1
100
AcDbLine
 10
121.732529
 20
84.759499
 30
0.0
 11
119.891769
 21
84.759491
 31
0.0
  0
LINE
  5
108
100
AcDbEntity
  8
ARMATUR
390
0
  6
DURCHGEHEND
 62
     1
100
AcDbLine
 10
125.116745
 20
84.759499
 30
0.0
 11
121.732529
 21
84.759491
 31
0.0
  0
LINE
  5
109
100
AcDbEntity
  8
ARMATUR
390
0
  6
DURCHGEHEND
 62
     1
100
AcDbLine
 10
121.806381
 20
85.009499
 30
0.0
 11
124.866745
 21
85.009491
 31
0.0
  0
LINE
  5
10A
100
AcDbEntity
  8
ARMATUR
390
0
  6
DURCHGEHEND
 62
     1
100
AcDbLine
 10
120.141769
 20
85.009499
 30
0.0
 11
121.806381
 21
85.009491
 31
0.0
  0
LINE
  5
10B
100
AcDbEntity
  8
ARMATUR
390
0
  6
DURCHGEHEND
 62
     1
100
AcDbLine
 10
121.732529
 20
83.259499
 30
0.0
 11
119.891769
 21
83.259491
 31
0.0
  0
LINE
  5
10C
100
AcDbEntity
  8
ARMATUR
390
0
  6
DURCHGEHEND
 62
     1
100
AcDbLine
 10
125.116745
 20
83.259499
 30
0.0
 11
121.732529
 21
83.259491
 31
0.0
  0
LINE
  5
10D
100
AcDbEntity
  8
ARMATUR
390
0
  6
DURCHGEHEND
 62
     1
100
AcDbLine
 10
121.732529
 20
81.259499
 30
0.0
 11
119.891769
 21
81.259491
 31
0.0
  0
LINE
  5
10E
100
AcDbEntity
  8
ARMATUR
390
0
  6
DURCHGEHEND
 62
     1
100
AcDbLine
 10
125.116745
 20
81.259499
 30
0.0
 11
121.732529
 21
81.259491
 31
0.0
  0
LINE
  5
10F
100
AcDbEntity
  8
ARMATUR
390
0
  6
DURCHGEHEND
 62
     1
100
AcDbLine
 10
121.732529
 20
82.759499
 30
0.0
 11
119.891769
 21
82.759491
 31
0.0
  0
LINE
  5
110
100
AcDbEntity
  8
ARMATUR
390
0
  6
DURCHGEHEND
 62
     1
100
AcDbLine
 10
125.116745
 20
82.759499
 30
0.0
 11
121.732529
 21
82.759491
 31
0.0
  0
LINE
  5
111
100
AcDbEntity
  8
ARMATUR
390
0
  6
DURCHGEHEND
 62
     1
100
AcDbLine
 10
121.732529
 20
79.259499
 30
0.0
 11
119.891769
 21
79.259491
 31
0.0
  0
LINE
  5
112
100
AcDbEntity
  8
ARMATUR
390
0
  6
DURCHGEHEND
 62
     1
100
AcDbLine
 10
125.116745
 20
79.259499
 30
0.0
 11
121.732529
 21
79.259491
 31
0.0
  0
LINE
  5
113
100
AcDbEntity
  8
ARMATUR
390
0
  6
DURCHGEHEND
 62
     1
100
AcDbLine
 10
121.732529
 20
80.759499
 30
0.0
 11
119.891769
 21
80.759491
 31
0.0
  0
LINE
  5
114
100
AcDbEntity
  8
ARMATUR
390
0
  6
DURCHGEHEND
 62
     1
100
AcDbLine
 10
125.116745
 20
80.759499
 30
0.0
 11
121.732529
 21
80.759491
 31
0.0
  0
LINE
  5
115
100
AcDbEntity
  8
ARMATUR
390
0
  6
DURCHGEHEND
 62
     1
100
AcDbLine
 10
121.732529
 20
78.759499
 30
0.0
 11
119.891769
 21
78.759491
 31
0.0
  0
LINE
  5
116
100
AcDbEntity
  8
ARMATUR
390
0
  6
DURCHGEHEND
 62
     1
100
AcDbLine
 10
125.116745
 20
78.759499
 30
0.0
 11
121.732529
 21
78.759491
 31
0.0
  0
LINE
  5
117
100
AcDbEntity
  8
ARMATUR
390
0
  6
DURCHGEHEND
 62
     1
100
AcDbLine
 10
121.732529
 20
77.259499
 30
0.0
 11
119.891769
 21
77.259491
 31
0.0
  0
LINE
  5
118
100
AcDbEntity
  8
ARMATUR
390
0
  6
DURCHGEHEND
 62
     1
100
AcDbLine
 10
125.116745
 20
77.259499
 30
0.0
 11
121.732529
 21
77.259491
 31
0.0
  0
LINE
  5
119
100
AcDbEntity
  8
ARMATUR
390
0
  6
DURCHGEHEND
 62
     1
100
AcDbLine
 10
121.732529
 20
76.759499
 30
0.0
 11
119.891769
 21
76.759491
 31
0.0
  0
LINE
  5
11A
100
AcDbEntity
  8
ARMATUR
390
0
  6
DURCHGEHEND
 62
     1
100
AcDbLine
 10
125.116745
 20
76.759499
 30
0.0
 11
121.732529
 21
76.759491
 31
0.0
  0
LINE
  5
11B
100
AcDbEntity
  8
ARMATUR
390
0
  6
DURCHGEHEND
 62
     1
100
AcDbLine
 10
152.254257
 20
72.634499
 30
0.0
 11
92.754272
 21
72.634491
 31
0.0
  0
LINE
  5
11C
100
AcDbEntity
  8
ARMATUR
390
0
  6
DURCHGEHEND
 62
     1
100
AcDbLine
 10
152.454269
 20
67.334511
 30
0.0
 11
152.454269
 21
72.634491
 31
0.0
  0
LINE
  5
11D
100
AcDbEntity
  8
ARMATUR
390
0
  6
DURCHGEHEND
 62
     1
100
AcDbLine
 10
152.454269
 20
72.634499
 30
0.0
 11
152.254257
 21
72.634491
 31
0.0
  0
LINE
  5
11E
100
AcDbEntity
  8
ARMATUR
390
0
  6
DURCHGEHEND
 62
     1
100
AcDbLine
 10
92.55426
 20
67.334511
 30
0.0
 11
92.55426
 21
72.634491
 31
0.0
  0
LINE
  5
11F
100
AcDbEntity
  8
ARMATUR
390
0
  6
DURCHGEHEND
 62
     1
100
AcDbLine
 10
92.754272
 20
72.634499
 30
0.0
 11
92.55426
 21
72.634491
 31
0.0
  0
ARC
  5
120
100
AcDbEntity
  8
ARMATUR
390
0
  6
DURCHGEHEND
 62
     1
100
AcDbCircle
 10
152.254257
 20
67.334511
 30
0.0
 40
0.2
100
AcDbArc
 50
270.0
 51
360.0
  0
LINE
  5
121
100
AcDbEntity
  8
ARMATUR
390
0
  6
DURCHGEHEND
 62
     1
100
AcDbLine
 10
152.254257
 20
67.134499
 30
0.0
 11
92.754272
 21
67.134491
 31
0.0
  0
ARC
  5
122
100
AcDbEntity
  8
ARMATUR
390
0
  6
DURCHGEHEND
 62
     1
100
AcDbCircle
 10
92.754272
 20
67.334511
 30
0.0
 40
0.2
100
AcDbArc
 50
180.0
 51
270.0
  0
ARC
  5
123
100
AcDbEntity
  8
ARMATUR
390
0
  6
DURCHGEHEND
 62
     3
100
AcDbCircle
 10
121.364243
 20
129.0009
 30
0.0
 40
0.3195
100
AcDbArc
 50
0.0
 51
90.0
  0
ARC
  5
124
100
AcDbEntity
  8
ARMATUR
390
0
  6
DURCHGEHEND
 62
     3
100
AcDbCircle
 10
121.364243
 20
129.0009
 30
0.0
 40
0.3195
100
AcDbArc
 50
270.0
 51
360.0
  0
LINE
  5
125
100
AcDbEntity
  8
ARMATUR
390
0
  6
DURCHGEHEND
 62
     3
100
AcDbLine
 10
121.258957
 20
128.681381
 30
0.0
 11
121.364243
 21
128.681381
 31
0.0
  0
LINE
  5
126
100
AcDbEntity
  8
ARMATUR
390
0
  6
DURCHGEHEND
 62
     3
100
AcDbLine
 10
121.258957
 20
129.320419
 30
0.0
 11
121.258957
 21
128.681381
 31
0.0
  0
LINE
  5
127
100
AcDbEntity
  8
ARMATUR
390
0
  6
DURCHGEHEND
 62
     3
100
AcDbLine
 10
121.258957
 20
129.320419
 30
0.0
 11
121.364243
 21
129.320419
 31
0.0
  0
LINE
  5
128
100
AcDbEntity
  8
ARMATUR
390
0
  6
DURCHGEHEND
 62
     3
100
AcDbLine
 10
121.215378
 20
127.87542
 30
0.0
 11
121.385788
 21
127.875412
 31
0.0
  0
ARC
  5
129
100
AcDbEntity
  8
ARMATUR
390
0
  6
DURCHGEHEND
 62
     3
100
AcDbCircle
 10
121.385788
 20
128.035141
 30
0.0
 40
0.1598
100
AcDbArc
 50
0.0
 51
69.056999
  0
ARC
  5
12A
100
AcDbEntity
  8
ARMATUR
390
0
  6
DURCHGEHEND
 62
     3
100
AcDbCircle
 10
121.385788
 20
128.035141
 30
0.0
 40
0.1598
100
AcDbArc
 50
270.0
 51
360.0
  0
ARC
  5
12B
100
AcDbEntity
  8
ARMATUR
390
0
  6
DURCHGEHEND
 62
     3
100
AcDbCircle
 10
121.352036
 20
128.292953
 30
0.0
 40
0.1416
100
AcDbArc
 50
0.0
 51
90.000999
  0
ARC
  5
12C
100
AcDbEntity
  8
ARMATUR
390
0
  6
DURCHGEHEND
 62
     3
100
AcDbCircle
 10
121.352036
 20
128.292953
 30
0.0
 40
0.1416
100
AcDbArc
 50
309.929993
 51
360.0
  0
LINE
  5
12D
100
AcDbEntity
  8
ARMATUR
390
0
  6
DURCHGEHEND
 62
     3
100
AcDbLine
 10
121.215378
 20
128.434555
 30
0.0
 11
121.352036
 21
128.434555
 31
0.0
  0
LINE
  5
12E
100
AcDbEntity
  8
ARMATUR
390
0
  6
DURCHGEHEND
 62
     3
100
AcDbLine
 10
121.215378
 20
128.434555
 30
0.0
 11
121.215378
 21
127.875412
 31
0.0
  0
LINE
  5
12F
100
AcDbEntity
  8
ARMATUR
390
0
  6
DURCHGEHEND
 62
     3
100
AcDbLine
 10
122.351059
 20
127.87542
 30
0.0
 11
122.395004
 21
127.875412
 31
0.0
  0
LINE
  5
130
100
AcDbEntity
  8
ARMATUR
390
0
  6
DURCHGEHEND
 62
     3
100
AcDbLine
 10
123.599167
 20
128.390976
 30
0.0
 11
123.448471
 21
128.390976
 31
0.0
  0
LINE
  5
131
100
AcDbEntity
  8
ARMATUR
390
0
  6
DURCHGEHEND
 62
     3
100
AcDbLine
 10
123.448471
 20
128.434555
 30
0.0
 11
123.448471
 21
128.390976
 31
0.0
  0
LINE
  5
132
100
AcDbEntity
  8
ARMATUR
390
0
  6
DURCHGEHEND
 62
     3
100
AcDbLine
 10
123.448471
 20
128.434555
 30
0.0
 11
123.793442
 21
128.434555
 31
0.0
  0
LINE
  5
133
100
AcDbEntity
  8
ARMATUR
390
0
  6
DURCHGEHEND
 62
     3
100
AcDbLine
 10
123.793442
 20
128.390976
 30
0.0
 11
123.793442
 21
128.434555
 31
0.0
  0
LINE
  5
134
100
AcDbEntity
  8
ARMATUR
390
0
  6
DURCHGEHEND
 62
     3
100
AcDbLine
 10
123.793442
 20
128.390976
 30
0.0
 11
123.642746
 21
128.390976
 31
0.0
  0
LINE
  5
135
100
AcDbEntity
  8
ARMATUR
390
0
  6
DURCHGEHEND
 62
     3
100
AcDbLine
 10
123.642746
 20
128.390976
 30
0.0
 11
123.642746
 21
127.875412
 31
0.0
  0
LINE
  5
136
100
AcDbEntity
  8
ARMATUR
390
0
  6
DURCHGEHEND
 62
     3
100
AcDbLine
 10
123.599167
 20
127.87542
 30
0.0
 11
123.642746
 21
127.875412
 31
0.0
  0
LINE
  5
137
100
AcDbEntity
  8
ARMATUR
390
0
  6
DURCHGEHEND
 62
     3
100
AcDbLine
 10
123.599167
 20
127.87542
 30
0.0
 11
123.599167
 21
128.390976
 31
0.0
  0
LINE
  5
138
100
AcDbEntity
  8
ARMATUR
390
0
  6
DURCHGEHEND
 62
     3
100
AcDbLine
 10
121.912766
 20
127.87542
 30
0.0
 11
121.956711
 21
127.875412
 31
0.0
  0
LINE
  5
139
100
AcDbEntity
  8
ARMATUR
390
0
  6
DURCHGEHEND
 62
     3
100
AcDbLine
 10
121.912766
 20
127.87542
 30
0.0
 11
122.153854
 21
128.463547
 31
0.0
  0
LINE
  5
13A
100
AcDbEntity
  8
ARMATUR
390
0
  6
DURCHGEHEND
 62
     3
100
AcDbLine
 10
122.153854
 20
128.463547
 30
0.0
 11
122.395004
 21
127.875412
 31
0.0
  0
LINE
  5
13B
100
AcDbEntity
  8
ARMATUR
390
0
  6
DURCHGEHEND
 62
     3
100
AcDbLine
 10
123.353012
 20
128.151352
 30
0.0
 11
123.353012
 21
127.875412
 31
0.0
  0
LINE
  5
13C
100
AcDbEntity
  8
ARMATUR
390
0
  6
DURCHGEHEND
 62
     3
100
AcDbLine
 10
122.275131
 20
128.060593
 30
0.0
 11
122.351059
 21
127.875412
 31
0.0
  0
LINE
  5
13D
100
AcDbEntity
  8
ARMATUR
390
0
  6
DURCHGEHEND
 62
     3
100
AcDbLine
 10
122.032639
 20
128.060593
 30
0.0
 11
122.275131
 21
128.060593
 31
0.0
  0
LINE
  5
13E
100
AcDbEntity
  8
ARMATUR
390
0
  6
DURCHGEHEND
 62
     3
100
AcDbLine
 10
121.956711
 20
127.87542
 30
0.0
 11
122.032639
 21
128.060593
 31
0.0
  0
LINE
  5
13F
100
AcDbEntity
  8
ARMATUR
390
0
  6
DURCHGEHEND
 62
     3
100
AcDbLine
 10
121.627121
 20
128.434555
 30
0.0
 11
121.627121
 21
127.875412
 31
0.0
  0
ELLIPSE
  5
140
100
AcDbEntity
  8
ARMATUR
390
0
  6
DURCHGEHEND
 62
     3
100
AcDbEllipse
 10
121.364243
 20
129.0009
 30
0.0
 11
0.363099992275238
 21
0.0
 31
0.0
210
0.0
220
0.0
230
1.0
 40
0.999725
 41
0.0
 42
1.5707963268
  0
ELLIPSE
  5
141
100
AcDbEntity
  8
ARMATUR
390
0
  6
DURCHGEHEND
 62
     3
100
AcDbEllipse
 10
121.364243
 20
129.0009
 30
0.0
 11
0.363099992275238
 21
0.0
 31
0.0
210
0.0
220
0.0
230
1.0
 40
0.999725
 41
4.7123889804000001
 42
6.2831853072000001
  0
LINE
  5
142
100
AcDbEntity
  8
ARMATUR
390
0
  6
DURCHGEHEND
 62
     3
100
AcDbLine
 10
121.215378
 20
128.637863
 30
0.0
 11
121.364243
 21
128.637863
 31
0.0
  0
LINE
  5
143
100
AcDbEntity
  8
ARMATUR
390
0
  6
DURCHGEHEND
 62
     3
100
AcDbLine
 10
121.215378
 20
129.363998
 30
0.0
 11
121.215378
 21
128.637863
 31
0.0
  0
LINE
  5
144
100
AcDbEntity
  8
ARMATUR
390
0
  6
DURCHGEHEND
 62
     3
100
AcDbLine
 10
121.215378
 20
129.363998
 30
0.0
 11
121.364243
 21
129.363998
 31
0.0
  0
LINE
  5
145
100
AcDbEntity
  8
ARMATUR
390
0
  6
DURCHGEHEND
 62
     3
100
AcDbLine
 10
122.669479
 20
129.363998
 30
0.0
 11
122.807114
 21
129.363998
 31
0.0
  0
ARC
  5
146
100
AcDbEntity
  8
ARMATUR
390
0
  6
DURCHGEHEND
 62
     3
100
AcDbCircle
 10
122.807114
 20
129.175156
 30
0.0
 40
0.1888
100
AcDbArc
 50
0.0
 51
90.0
  0
ARC
  5
147
100
AcDbEntity
  8
ARMATUR
390
0
  6
DURCHGEHEND
 62
     3
100
AcDbCircle
 10
122.807114
 20
129.175156
 30
0.0
 40
0.1888
100
AcDbArc
 50
270.0
 51
360.0
  0
LINE
  5
148
100
AcDbEntity
  8
ARMATUR
390
0
  6
DURCHGEHEND
 62
     3
100
AcDbLine
 10
122.788193
 20
128.986374
 30
0.0
 11
122.807114
 21
128.986374
 31
0.0
  0
LINE
  5
149
100
AcDbEntity
  8
ARMATUR
390
0
  6
DURCHGEHEND
 62
     3
100
AcDbLine
 10
122.788193
 20
128.986374
 30
0.0
 11
123.029343
 21
128.637863
 31
0.0
  0
LINE
  5
14A
100
AcDbEntity
  8
ARMATUR
390
0
  6
DURCHGEHEND
 62
     3
100
AcDbLine
 10
122.979843
 20
128.637863
 30
0.0
 11
123.029343
 21
128.637863
 31
0.0
  0
ELLIPSE
  5
14B
100
AcDbEntity
  8
ARMATUR
390
0
  6
DURCHGEHEND
 62
     3
100
AcDbEllipse
 10
122.706589
 20
128.154953
 30
0.0
 11
0.1855073124170303
 21
0.2316835537614761
 31
0.0
210
0.0
220
0.0
230
1.0
 40
0.999663
 41
0.0
 42
4.4918494147365138
  0
LINE
  5
14C
100
AcDbEntity
  8
ARMATUR
390
0
  6
DURCHGEHEND
 62
     3
100
AcDbLine
 10
122.892075
 20
128.386642
 30
0.0
 11
122.892075
 21
128.331345
 31
0.0
  0
ELLIPSE
  5
14D
100
AcDbEntity
  8
ARMATUR
390
0
  6
DURCHGEHEND
 62
     3
100
AcDbEllipse
 10
122.706589
 20
128.154953
 30
0.0
 11
0.1855112016201019
 21
0.1764131477732098
 31
0.0
210
0.0
220
0.0
230
1.0
 40
0.999609
 41
0.0
 42
4.762602350121389
  0
LINE
  5
14E
100
AcDbEntity
  8
ARMATUR
390
0
  6
DURCHGEHEND
 62
     3
100
AcDbLine
 10
122.892075
 20
127.978569
 30
0.0
 11
122.892075
 21
127.923325
 31
0.0
  0
LINE
  5
14F
100
AcDbEntity
  8
ARMATUR
390
0
  6
DURCHGEHEND
 62
     3
100
AcDbLine
 10
123.14061
 20
128.637863
 30
0.0
 11
123.184189
 21
128.637863
 31
0.0
  0
LINE
  5
150
100
AcDbEntity
  8
ARMATUR
390
0
  6
DURCHGEHEND
 62
     3
100
AcDbLine
 10
123.14061
 20
128.637863
 30
0.0
 11
123.14061
 21
129.378464
 31
0.0
  0
LINE
  5
151
100
AcDbEntity
  8
ARMATUR
390
0
  6
DURCHGEHEND
 62
     3
100
AcDbLine
 10
123.749924
 20
128.720016
 30
0.0
 11
123.14061
 21
129.378464
 31
0.0
  0
LINE
  5
152
100
AcDbEntity
  8
ARMATUR
390
0
  6
DURCHGEHEND
 62
     3
100
AcDbLine
 10
123.749924
 20
129.363998
 30
0.0
 11
123.749924
 21
128.720016
 31
0.0
  0
LINE
  5
153
100
AcDbEntity
  8
ARMATUR
390
0
  6
DURCHGEHEND
 62
     3
100
AcDbLine
 10
123.945602
 20
127.762871
 30
0.0
 11
123.945602
 21
129.491013
 31
0.0
  0
LINE
  5
154
100
AcDbEntity
  8
ARMATUR
390
0
  6
DURCHGEHEND
 62
     3
100
AcDbLine
 10
123.945602
 20
127.762871
 30
0.0
 11
121.062912
 21
127.762863
 31
0.0
  0
LINE
  5
155
100
AcDbEntity
  8
ARMATUR
390
0
  6
DURCHGEHEND
 62
     3
100
AcDbLine
 10
121.062912
 20
129.491013
 30
0.0
 11
121.062912
 21
127.762863
 31
0.0
  0
LINE
  5
156
100
AcDbEntity
  8
ARMATUR
390
0
  6
DURCHGEHEND
 62
     3
100
AcDbLine
 10
121.062912
 20
129.491013
 30
0.0
 11
123.945602
 21
129.491013
 31
0.0
  0
LINE
  5
157
100
AcDbEntity
  8
ARMATUR
390
0
  6
DURCHGEHEND
 62
     3
100
AcDbLine
 10
123.024643
 20
128.194931
 30
0.0
 11
123.353012
 21
128.194931
 31
0.0
  0
LINE
  5
158
100
AcDbEntity
  8
ARMATUR
390
0
  6
DURCHGEHEND
 62
     3
100
AcDbLine
 10
121.627121
 20
128.434555
 30
0.0
 11
121.737167
 21
128.434555
 31
0.0
  0
ELLIPSE
  5
159
100
AcDbEntity
  8
ARMATUR
390
0
  6
DURCHGEHEND
 62
     3
100
AcDbEllipse
 10
121.737167
 20
128.288559
 30
0.0
 11
0.0000000000022353
 21
-0.1459999978542328
 31
0.0
210
0.0
220
0.0
230
1.0
 40
0.999315
 41
0.0
 42
3.1415926536000001
  0
LINE
  5
15A
100
AcDbEntity
  8
ARMATUR
390
0
  6
DURCHGEHEND
 62
     3
100
AcDbLine
 10
121.729538
 20
128.142624
 30
0.0
 11
121.737167
 21
128.142624
 31
0.0
  0
LINE
  5
15B
100
AcDbEntity
  8
ARMATUR
390
0
  6
DURCHGEHEND
 62
     3
100
AcDbLine
 10
121.729538
 20
128.142624
 30
0.0
 11
121.901657
 21
127.875412
 31
0.0
  0
LINE
  5
15C
100
AcDbEntity
  8
ARMATUR
390
0
  6
DURCHGEHEND
 62
     3
100
AcDbLine
 10
121.853256
 20
127.87542
 30
0.0
 11
121.901657
 21
127.875412
 31
0.0
  0
LINE
  5
15D
100
AcDbEntity
  8
ARMATUR
390
0
  6
DURCHGEHEND
 62
     3
100
AcDbLine
 10
121.681137
 20
128.142624
 30
0.0
 11
121.853256
 21
127.875412
 31
0.0
  0
LINE
  5
15E
100
AcDbEntity
  8
ARMATUR
390
0
  6
DURCHGEHEND
 62
     3
100
AcDbLine
 10
121.6707
 20
128.142624
 30
0.0
 11
121.681137
 21
128.142624
 31
0.0
  0
LINE
  5
15F
100
AcDbEntity
  8
ARMATUR
390
0
  6
DURCHGEHEND
 62
     3
100
AcDbLine
 10
121.6707
 20
127.87542
 30
0.0
 11
121.6707
 21
128.142624
 31
0.0
  0
LINE
  5
160
100
AcDbEntity
  8
ARMATUR
390
0
  6
DURCHGEHEND
 62
     3
100
AcDbLine
 10
121.627121
 20
127.87542
 30
0.0
 11
121.6707
 21
127.875412
 31
0.0
  0
LINE
  5
161
100
AcDbEntity
  8
ARMATUR
390
0
  6
DURCHGEHEND
 62
     3
100
AcDbLine
 10
121.215378
 20
128.536179
 30
0.0
 11
121.215378
 21
128.525314
 31
0.0
  0
LINE
  5
162
100
AcDbEntity
  8
ARMATUR
390
0
  6
DURCHGEHEND
 62
     3
100
AcDbLine
 10
121.215378
 20
128.536179
 30
0.0
 11
123.793442
 21
128.536179
 31
0.0
  0
LINE
  5
163
100
AcDbEntity
  8
ARMATUR
390
0
  6
DURCHGEHEND
 62
     3
100
AcDbLine
 10
123.793442
 20
128.525314
 30
0.0
 11
123.793442
 21
128.536179
 31
0.0
  0
LINE
  5
164
100
AcDbEntity
  8
ARMATUR
390
0
  6
DURCHGEHEND
 62
     3
100
AcDbLine
 10
121.215378
 20
128.525314
 30
0.0
 11
123.793442
 21
128.525314
 31
0.0
  0
ELLIPSE
  5
165
100
AcDbEntity
  8
ARMATUR
390
0
  6
DURCHGEHEND
 62
     3
100
AcDbEllipse
 10
122.176132
 20
129.0009
 30
0.0
 11
-0.00000000000195
 21
0.382099986076355
 31
0.0
210
0.0
220
0.0
230
1.0
 40
0.999738
 41
0.0
 42
6.2831853072000001
  0
LINE
  5
166
100
AcDbEntity
  8
ARMATUR
390
0
  6
DURCHGEHEND
 62
     3
100
AcDbLine
 10
122.669479
 20
128.637863
 30
0.0
 11
122.713058
 21
128.637863
 31
0.0
  0
LINE
  5
167
100
AcDbEntity
  8
ARMATUR
390
0
  6
DURCHGEHEND
 62
     3
100
AcDbLine
 10
122.669479
 20
128.637863
 30
0.0
 11
122.669479
 21
129.363998
 31
0.0
  0
LINE
  5
168
100
AcDbEntity
  8
ARMATUR
390
0
  6
DURCHGEHEND
 62
     3
100
AcDbLine
 10
123.39653
 20
127.87542
 30
0.0
 11
123.39653
 21
128.434555
 31
0.0
  0
LINE
  5
169
100
AcDbEntity
  8
ARMATUR
390
0
  6
DURCHGEHEND
 62
     3
100
AcDbLine
 10
123.39653
 20
127.87542
 30
0.0
 11
123.353012
 21
127.875412
 31
0.0
  0
LINE
  5
16A
100
AcDbEntity
  8
ARMATUR
390
0
  6
DURCHGEHEND
 62
     3
100
AcDbLine
 10
122.981064
 20
128.434555
 30
0.0
 11
123.024643
 21
128.434555
 31
0.0
  0
LINE
  5
16B
100
AcDbEntity
  8
ARMATUR
390
0
  6
DURCHGEHEND
 62
     3
100
AcDbLine
 10
123.353012
 20
128.151352
 30
0.0
 11
123.024643
 21
128.151352
 31
0.0
  0
LINE
  5
16C
100
AcDbEntity
  8
ARMATUR
390
0
  6
DURCHGEHEND
 62
     3
100
AcDbLine
 10
123.024643
 20
127.87542
 30
0.0
 11
123.024643
 21
128.151352
 31
0.0
  0
LINE
  5
16D
100
AcDbEntity
  8
ARMATUR
390
0
  6
DURCHGEHEND
 62
     3
100
AcDbLine
 10
122.738754
 20
128.986374
 30
0.0
 11
122.979843
 21
128.637863
 31
0.0
  0
LINE
  5
16E
100
AcDbEntity
  8
ARMATUR
390
0
  6
DURCHGEHEND
 62
     3
100
AcDbLine
 10
122.713058
 20
128.986374
 30
0.0
 11
122.738754
 21
128.986374
 31
0.0
  0
LINE
  5
16F
100
AcDbEntity
  8
ARMATUR
390
0
  6
DURCHGEHEND
 62
     3
100
AcDbLine
 10
122.713058
 20
128.637863
 30
0.0
 11
122.713058
 21
128.986374
 31
0.0
  0
LINE
  5
170
100
AcDbEntity
  8
ARMATUR
390
0
  6
DURCHGEHEND
 62
     3
100
AcDbLine
 10
122.981064
 20
128.434555
 30
0.0
 11
122.981064
 21
127.875412
 31
0.0
  0
LINE
  5
171
100
AcDbEntity
  8
ARMATUR
390
0
  6
DURCHGEHEND
 62
     3
100
AcDbLine
 10
123.024643
 20
128.194931
 30
0.0
 11
123.024643
 21
128.434555
 31
0.0
  0
LINE
  5
172
100
AcDbEntity
  8
ARMATUR
390
0
  6
DURCHGEHEND
 62
     3
100
AcDbLine
 10
123.793442
 20
129.363998
 30
0.0
 11
123.749924
 21
129.363998
 31
0.0
  0
LINE
  5
173
100
AcDbEntity
  8
ARMATUR
390
0
  6
DURCHGEHEND
 62
     3
100
AcDbLine
 10
123.353012
 20
128.434555
 30
0.0
 11
123.353012
 21
128.194931
 31
0.0
  0
LINE
  5
174
100
AcDbEntity
  8
ARMATUR
390
0
  6
DURCHGEHEND
 62
     3
100
AcDbLine
 10
123.353012
 20
128.434555
 30
0.0
 11
123.39653
 21
128.434555
 31
0.0
  0
LINE
  5
175
100
AcDbEntity
  8
ARMATUR
390
0
  6
DURCHGEHEND
 62
     3
100
AcDbLine
 10
123.184189
 20
128.637863
 30
0.0
 11
123.184189
 21
129.267258
 31
0.0
  0
LINE
  5
176
100
AcDbEntity
  8
ARMATUR
390
0
  6
DURCHGEHEND
 62
     3
100
AcDbLine
 10
123.184189
 20
129.267258
 30
0.0
 11
123.793442
 21
128.60881
 31
0.0
  0
LINE
  5
177
100
AcDbEntity
  8
ARMATUR
390
0
  6
DURCHGEHEND
 62
     3
100
AcDbLine
 10
123.024643
 20
127.87542
 30
0.0
 11
122.981064
 21
127.875412
 31
0.0
  0
LINE
  5
178
100
AcDbEntity
  8
ARMATUR
390
0
  6
DURCHGEHEND
 62
     3
100
AcDbLine
 10
123.793442
 20
128.60881
 30
0.0
 11
123.793442
 21
129.363998
 31
0.0
  0
LINE
  5
179
100
AcDbEntity
  8
ARMATUR
390
0
  6
DURCHGEHEND
 62
     3
100
AcDbLine
 10
121.051987
 20
129.501938
 30
0.0
 11
123.956528
 21
129.501938
 31
0.0
  0
LINE
  5
17A
100
AcDbEntity
  8
ARMATUR
390
0
  6
DURCHGEHEND
 62
     3
100
AcDbLine
 10
123.956528
 20
127.752007
 30
0.0
 11
123.956528
 21
129.501938
 31
0.0
  0
LINE
  5
17B
100
AcDbEntity
  8
ARMATUR
390
0
  6
DURCHGEHEND
 62
     3
100
AcDbLine
 10
123.956528
 20
127.752007
 30
0.0
 11
121.051987
 21
127.751999
 31
0.0
  0
LINE
  5
17C
100
AcDbEntity
  8
ARMATUR
390
0
  6
DURCHGEHEND
 62
     3
100
AcDbLine
 10
121.051987
 20
129.501938
 30
0.0
 11
121.051987
 21
127.751999
 31
0.0
  0
LINE
  5
17D
100
AcDbEntity
  8
ARMATUR
390
0
  6
DURCHGEHEND
 62
     3
100
AcDbLine
 10
122.713058
 20
129.029953
 30
0.0
 11
122.713058
 21
129.320419
 31
0.0
  0
LINE
  5
17E
100
AcDbEntity
  8
ARMATUR
390
0
  6
DURCHGEHEND
 62
     3
100
AcDbLine
 10
122.713058
 20
129.029953
 30
0.0
 11
122.807114
 21
129.029953
 31
0.0
  0
LINE
  5
17F
100
AcDbEntity
  8
ARMATUR
390
0
  6
DURCHGEHEND
 62
     3
100
AcDbLine
 10
122.713058
 20
129.320419
 30
0.0
 11
122.807114
 21
129.320419
 31
0.0
  0
ARC
  5
180
100
AcDbEntity
  8
ARMATUR
390
0
  6
DURCHGEHEND
 62
     3
100
AcDbCircle
 10
122.807114
 20
129.175156
 30
0.0
 40
0.1452
100
AcDbArc
 50
0.0
 51
90.0
  0
ARC
  5
181
100
AcDbEntity
  8
ARMATUR
390
0
  6
DURCHGEHEND
 62
     3
100
AcDbCircle
 10
122.807114
 20
129.175156
 30
0.0
 40
0.1452
100
AcDbArc
 50
270.0
 51
360.0
  0
ELLIPSE
  5
182
100
AcDbEntity
  8
ARMATUR
390
0
  6
DURCHGEHEND
 62
     3
100
AcDbEllipse
 10
122.176132
 20
129.0009
 30
0.0
 11
-0.0000000000017418
 21
0.3413000106811523
 31
0.0
210
0.0
220
0.0
230
1.0
 40
0.999707
 41
0.0
 42
6.2831853072000001
  0
ARC
  5
183
100
AcDbEntity
  8
ARMATUR
390
0
  6
DURCHGEHEND
 62
     3
100
AcDbCircle
 10
121.385788
 20
128.035141
 30
0.0
 40
0.1162
100
AcDbArc
 50
0.0
 51
90.0
  0
ARC
  5
184
100
AcDbEntity
  8
ARMATUR
390
0
  6
DURCHGEHEND
 62
     3
100
AcDbCircle
 10
121.385788
 20
128.035141
 30
0.0
 40
0.1162
100
AcDbArc
 50
270.0
 51
360.0
  0
LINE
  5
185
100
AcDbEntity
  8
ARMATUR
390
0
  6
DURCHGEHEND
 62
     3
100
AcDbLine
 10
121.258957
 20
127.918999
 30
0.0
 11
121.385788
 21
127.918991
 31
0.0
  0
LINE
  5
186
100
AcDbEntity
  8
ARMATUR
390
0
  6
DURCHGEHEND
 62
     3
100
AcDbLine
 10
121.258957
 20
128.151352
 30
0.0
 11
121.258957
 21
127.918991
 31
0.0
  0
LINE
  5
187
100
AcDbEntity
  8
ARMATUR
390
0
  6
DURCHGEHEND
 62
     3
100
AcDbLine
 10
121.258957
 20
128.151352
 30
0.0
 11
121.385788
 21
128.151352
 31
0.0
  0
LINE
  5
188
100
AcDbEntity
  8
ARMATUR
390
0
  6
DURCHGEHEND
 62
     3
100
AcDbLine
 10
121.258957
 20
128.390976
 30
0.0
 11
121.352036
 21
128.390976
 31
0.0
  0
ARC
  5
189
100
AcDbEntity
  8
ARMATUR
390
0
  6
DURCHGEHEND
 62
     3
100
AcDbCircle
 10
121.352036
 20
128.292953
 30
0.0
 40
0.098
100
AcDbArc
 50
0.0
 51
90.0
  0
ARC
  5
18A
100
AcDbEntity
  8
ARMATUR
390
0
  6
DURCHGEHEND
 62
     3
100
AcDbCircle
 10
121.352036
 20
128.292953
 30
0.0
 40
0.098
100
AcDbArc
 50
270.0
 51
360.0
  0
LINE
  5
18B
100
AcDbEntity
  8
ARMATUR
390
0
  6
DURCHGEHEND
 62
     3
100
AcDbLine
 10
121.258957
 20
128.194931
 30
0.0
 11
121.352036
 21
128.194931
 31
0.0
  0
LINE
  5
18C
100
AcDbEntity
  8
ARMATUR
390
0
  6
DURCHGEHEND
 62
     3
100
AcDbLine
 10
121.258957
 20
128.390976
 30
0.0
 11
121.258957
 21
128.194931
 31
0.0
  0
LINE
  5
18D
100
AcDbEntity
  8
ARMATUR
390
0
  6
DURCHGEHEND
 62
     3
100
AcDbLine
 10
121.6707
 20
128.186203
 30
0.0
 11
121.6707
 21
128.390976
 31
0.0
  0
LINE
  5
18E
100
AcDbEntity
  8
ARMATUR
390
0
  6
DURCHGEHEND
 62
     3
100
AcDbLine
 10
121.6707
 20
128.390976
 30
0.0
 11
121.737167
 21
128.390976
 31
0.0
  0
ARC
  5
18F
100
AcDbEntity
  8
ARMATUR
390
0
  6
DURCHGEHEND
 62
     3
100
AcDbCircle
 10
121.737167
 20
128.288559
 30
0.0
 40
0.1024
100
AcDbArc
 50
0.0
 51
90.0
  0
ARC
  5
190
100
AcDbEntity
  8
ARMATUR
390
0
  6
DURCHGEHEND
 62
     3
100
AcDbCircle
 10
121.737167
 20
128.288559
 30
0.0
 40
0.1024
100
AcDbArc
 50
270.0
 51
360.0
  0
LINE
  5
191
100
AcDbEntity
  8
ARMATUR
390
0
  6
DURCHGEHEND
 62
     3
100
AcDbLine
 10
121.6707
 20
128.186203
 30
0.0
 11
121.737167
 21
128.186203
 31
0.0
  0
LINE
  5
192
100
AcDbEntity
  8
ARMATUR
390
0
  6
DURCHGEHEND
 62
     3
100
AcDbLine
 10
122.153854
 20
128.356369
 30
0.0
 11
122.258469
 21
128.101242
 31
0.0
  0
LINE
  5
193
100
AcDbEntity
  8
ARMATUR
390
0
  6
DURCHGEHEND
 62
     3
100
AcDbLine
 10
122.049301
 20
128.101242
 30
0.0
 11
122.258469
 21
128.101242
 31
0.0
  0
LINE
  5
194
100
AcDbEntity
  8
ARMATUR
390
0
  6
DURCHGEHEND
 62
     3
100
AcDbLine
 10
122.049301
 20
128.101242
 30
0.0
 11
122.153854
 21
128.356369
 31
0.0
  0
LINE
  5
195
100
AcDbEntity
  8
ARMATUR
390
0
  6
DURCHGEHEND
 62
     3
100
AcDbLine
 10
147.194565
 20
125.127007
 30
0.0
 11
146.81395
 21
125.126999
 31
0.0
  0
LINE
  5
196
100
AcDbEntity
  8
ARMATUR
390
0
  6
DURCHGEHEND
 62
     3
100
AcDbLine
 10
145.794601
 20
125.127007
 30
0.0
 11
145.413925
 21
125.126999
 31
0.0
  0
LINE
  5
197
100
AcDbEntity
  8
ARMATUR
390
0
  6
DURCHGEHEND
 62
     3
100
AcDbLine
 10
144.394577
 20
125.127007
 30
0.0
 11
144.013962
 21
125.126999
 31
0.0
  0
LINE
  5
198
100
AcDbEntity
  8
ARMATUR
390
0
  6
DURCHGEHEND
 62
     3
100
AcDbLine
 10
142.994553
 20
125.127007
 30
0.0
 11
142.613937
 21
125.126999
 31
0.0
  0
LINE
  5
199
100
AcDbEntity
  8
ARMATUR
390
0
  6
DURCHGEHEND
 62
     3
100
AcDbLine
 10
141.594589
 20
125.127007
 30
0.0
 11
141.213974
 21
125.126999
 31
0.0
  0
LINE
  5
19A
100
AcDbEntity
  8
ARMATUR
390
0
  6
DURCHGEHEND
 62
     3
100
AcDbLine
 10
140.194565
 20
125.127007
 30
0.0
 11
139.81395
 21
125.126999
 31
0.0
  0
LINE
  5
19B
100
AcDbEntity
  8
ARMATUR
390
0
  6
DURCHGEHEND
 62
     3
100
AcDbLine
 10
138.794601
 20
125.127007
 30
0.0
 11
138.413925
 21
125.126999
 31
0.0
  0
LINE
  5
19C
100
AcDbEntity
  8
ARMATUR
390
0
  6
DURCHGEHEND
 62
     3
100
AcDbLine
 10
137.394577
 20
125.127007
 30
0.0
 11
137.013962
 21
125.126999
 31
0.0
  0
LINE
  5
19D
100
AcDbEntity
  8
ARMATUR
390
0
  6
DURCHGEHEND
 62
     3
100
AcDbLine
 10
135.994553
 20
125.127007
 30
0.0
 11
135.613937
 21
125.126999
 31
0.0
  0
LINE
  5
19E
100
AcDbEntity
  8
ARMATUR
390
0
  6
DURCHGEHEND
 62
     3
100
AcDbLine
 10
134.594589
 20
125.127007
 30
0.0
 11
134.213974
 21
125.126999
 31
0.0
  0
LINE
  5
19F
100
AcDbEntity
  8
ARMATUR
390
0
  6
DURCHGEHEND
 62
     3
100
AcDbLine
 10
133.194565
 20
125.127007
 30
0.0
 11
132.81395
 21
125.126999
 31
0.0
  0
LINE
  5
1A0
100
AcDbEntity
  8
ARMATUR
390
0
  6
DURCHGEHEND
 62
     3
100
AcDbLine
 10
131.794601
 20
125.127007
 30
0.0
 11
131.413925
 21
125.126999
 31
0.0
  0
LINE
  5
1A1
100
AcDbEntity
  8
ARMATUR
390
0
  6
DURCHGEHEND
 62
     3
100
AcDbLine
 10
130.394577
 20
125.127007
 30
0.0
 11
130.013962
 21
125.126999
 31
0.0
  0
LINE
  5
1A2
100
AcDbEntity
  8
ARMATUR
390
0
  6
DURCHGEHEND
 62
     3
100
AcDbLine
 10
128.994553
 20
125.127007
 30
0.0
 11
128.613937
 21
125.126999
 31
0.0
  0
LINE
  5
1A3
100
AcDbEntity
  8
ARMATUR
390
0
  6
DURCHGEHEND
 62
     3
100
AcDbLine
 10
127.594589
 20
125.127007
 30
0.0
 11
127.213974
 21
125.126999
 31
0.0
  0
LINE
  5
1A4
100
AcDbEntity
  8
ARMATUR
390
0
  6
DURCHGEHEND
 62
     3
100
AcDbLine
 10
126.194565
 20
125.127007
 30
0.0
 11
125.81395
 21
125.126999
 31
0.0
  0
LINE
  5
1A5
100
AcDbEntity
  8
ARMATUR
390
0
  6
DURCHGEHEND
 62
     3
100
AcDbLine
 10
124.794601
 20
125.127007
 30
0.0
 11
124.413925
 21
125.126999
 31
0.0
  0
LINE
  5
1A6
100
AcDbEntity
  8
ARMATUR
390
0
  6
DURCHGEHEND
 62
     3
100
AcDbLine
 10
123.394577
 20
125.127007
 30
0.0
 11
123.013962
 21
125.126999
 31
0.0
  0
LINE
  5
1A7
100
AcDbEntity
  8
ARMATUR
390
0
  6
DURCHGEHEND
 62
     3
100
AcDbLine
 10
121.994553
 20
125.127007
 30
0.0
 11
121.613937
 21
125.126999
 31
0.0
  0
LINE
  5
1A8
100
AcDbEntity
  8
ARMATUR
390
0
  6
DURCHGEHEND
 62
     3
100
AcDbLine
 10
120.594589
 20
125.127007
 30
0.0
 11
120.213974
 21
125.126999
 31
0.0
  0
LINE
  5
1A9
100
AcDbEntity
  8
ARMATUR
390
0
  6
DURCHGEHEND
 62
     3
100
AcDbLine
 10
119.194565
 20
125.127007
 30
0.0
 11
118.81395
 21
125.126999
 31
0.0
  0
LINE
  5
1AA
100
AcDbEntity
  8
ARMATUR
390
0
  6
DURCHGEHEND
 62
     3
100
AcDbLine
 10
117.794601
 20
125.127007
 30
0.0
 11
117.413925
 21
125.126999
 31
0.0
  0
LINE
  5
1AB
100
AcDbEntity
  8
ARMATUR
390
0
  6
DURCHGEHEND
 62
     3
100
AcDbLine
 10
116.394577
 20
125.127007
 30
0.0
 11
116.013962
 21
125.126999
 31
0.0
  0
LINE
  5
1AC
100
AcDbEntity
  8
ARMATUR
390
0
  6
DURCHGEHEND
 62
     3
100
AcDbLine
 10
114.994568
 20
125.127007
 30
0.0
 11
114.613953
 21
125.126999
 31
0.0
  0
LINE
  5
1AD
100
AcDbEntity
  8
ARMATUR
390
0
  6
DURCHGEHEND
 62
     3
100
AcDbLine
 10
113.594574
 20
125.127007
 30
0.0
 11
113.213959
 21
125.126999
 31
0.0
  0
LINE
  5
1AE
100
AcDbEntity
  8
ARMATUR
390
0
  6
DURCHGEHEND
 62
     3
100
AcDbLine
 10
112.19458
 20
125.127007
 30
0.0
 11
111.813934
 21
125.126999
 31
0.0
  0
LINE
  5
1AF
100
AcDbEntity
  8
ARMATUR
390
0
  6
DURCHGEHEND
 62
     3
100
AcDbLine
 10
110.794586
 20
125.127007
 30
0.0
 11
110.41394
 21
125.126999
 31
0.0
  0
LINE
  5
1B0
100
AcDbEntity
  8
ARMATUR
390
0
  6
DURCHGEHEND
 62
     3
100
AcDbLine
 10
109.394562
 20
125.127007
 30
0.0
 11
109.013947
 21
125.126999
 31
0.0
  0
LINE
  5
1B1
100
AcDbEntity
  8
ARMATUR
390
0
  6
DURCHGEHEND
 62
     3
100
AcDbLine
 10
107.994568
 20
125.127007
 30
0.0
 11
107.613953
 21
125.126999
 31
0.0
  0
LINE
  5
1B2
100
AcDbEntity
  8
ARMATUR
390
0
  6
DURCHGEHEND
 62
     3
100
AcDbLine
 10
106.594574
 20
125.127007
 30
0.0
 11
106.213959
 21
125.126999
 31
0.0
  0
LINE
  5
1B3
100
AcDbEntity
  8
ARMATUR
390
0
  6
DURCHGEHEND
 62
     3
100
AcDbLine
 10
105.19458
 20
125.127007
 30
0.0
 11
104.813934
 21
125.126999
 31
0.0
  0
LINE
  5
1B4
100
AcDbEntity
  8
ARMATUR
390
0
  6
DURCHGEHEND
 62
     3
100
AcDbLine
 10
103.794586
 20
125.127007
 30
0.0
 11
103.41394
 21
125.126999
 31
0.0
  0
LINE
  5
1B5
100
AcDbEntity
  8
ARMATUR
390
0
  6
DURCHGEHEND
 62
     3
100
AcDbLine
 10
102.394562
 20
125.127007
 30
0.0
 11
102.013947
 21
125.126999
 31
0.0
  0
LINE
  5
1B6
100
AcDbEntity
  8
ARMATUR
390
0
  6
DURCHGEHEND
 62
     3
100
AcDbLine
 10
100.994568
 20
125.127007
 30
0.0
 11
100.613953
 21
125.126999
 31
0.0
  0
LINE
  5
1B7
100
AcDbEntity
  8
ARMATUR
390
0
  6
DURCHGEHEND
 62
     3
100
AcDbLine
 10
99.594574
 20
125.127007
 30
0.0
 11
99.213959
 21
125.126999
 31
0.0
  0
LINE
  5
1B8
100
AcDbEntity
  8
ARMATUR
390
0
  6
DURCHGEHEND
 62
     3
100
AcDbLine
 10
98.19458
 20
125.127007
 30
0.0
 11
97.813934
 21
125.126999
 31
0.0
  0
LINE
  5
1B9
100
AcDbEntity
  8
ARMATUR
390
0
  6
DURCHGEHEND
 62
     3
100
AcDbLine
 10
97.75885
 20
125.201958
 30
0.0
 11
98.249695
 21
125.20195
 31
0.0
  0
LINE
  5
1BA
100
AcDbEntity
  8
ARMATUR
390
0
  6
DURCHGEHEND
 62
     3
100
AcDbLine
 10
99.158844
 20
125.201958
 30
0.0
 11
99.649689
 21
125.20195
 31
0.0
  0
LINE
  5
1BB
100
AcDbEntity
  8
ARMATUR
390
0
  6
DURCHGEHEND
 62
     3
100
AcDbLine
 10
100.558838
 20
125.201958
 30
0.0
 11
101.049683
 21
125.20195
 31
0.0
  0
LINE
  5
1BC
100
AcDbEntity
  8
ARMATUR
390
0
  6
DURCHGEHEND
 62
     3
100
AcDbLine
 10
101.958832
 20
125.201958
 30
0.0
 11
102.449677
 21
125.20195
 31
0.0
  0
LINE
  5
1BD
100
AcDbEntity
  8
ARMATUR
390
0
  6
DURCHGEHEND
 62
     3
100
AcDbLine
 10
103.358826
 20
125.201958
 30
0.0
 11
103.84967
 21
125.20195
 31
0.0
  0
LINE
  5
1BE
100
AcDbEntity
  8
ARMATUR
390
0
  6
DURCHGEHEND
 62
     3
100
AcDbLine
 10
104.75885
 20
125.201958
 30
0.0
 11
105.249695
 21
125.20195
 31
0.0
  0
LINE
  5
1BF
100
AcDbEntity
  8
ARMATUR
390
0
  6
DURCHGEHEND
 62
     3
100
AcDbLine
 10
106.158844
 20
125.201958
 30
0.0
 11
106.649689
 21
125.20195
 31
0.0
  0
LINE
  5
1C0
100
AcDbEntity
  8
ARMATUR
390
0
  6
DURCHGEHEND
 62
     3
100
AcDbLine
 10
107.558838
 20
125.201958
 30
0.0
 11
108.049683
 21
125.20195
 31
0.0
  0
LINE
  5
1C1
100
AcDbEntity
  8
ARMATUR
390
0
  6
DURCHGEHEND
 62
     3
100
AcDbLine
 10
108.958832
 20
125.201958
 30
0.0
 11
109.449677
 21
125.20195
 31
0.0
  0
LINE
  5
1C2
100
AcDbEntity
  8
ARMATUR
390
0
  6
DURCHGEHEND
 62
     3
100
AcDbLine
 10
110.358826
 20
125.201958
 30
0.0
 11
110.84967
 21
125.20195
 31
0.0
  0
LINE
  5
1C3
100
AcDbEntity
  8
ARMATUR
390
0
  6
DURCHGEHEND
 62
     3
100
AcDbLine
 10
111.75885
 20
125.201958
 30
0.0
 11
112.249695
 21
125.20195
 31
0.0
  0
LINE
  5
1C4
100
AcDbEntity
  8
ARMATUR
390
0
  6
DURCHGEHEND
 62
     3
100
AcDbLine
 10
113.158844
 20
125.201958
 30
0.0
 11
113.649689
 21
125.20195
 31
0.0
  0
LINE
  5
1C5
100
AcDbEntity
  8
ARMATUR
390
0
  6
DURCHGEHEND
 62
     3
100
AcDbLine
 10
114.558838
 20
125.201958
 30
0.0
 11
115.049683
 21
125.20195
 31
0.0
  0
LINE
  5
1C6
100
AcDbEntity
  8
ARMATUR
390
0
  6
DURCHGEHEND
 62
     3
100
AcDbLine
 10
115.958847
 20
125.201958
 30
0.0
 11
116.449692
 21
125.20195
 31
0.0
  0
LINE
  5
1C7
100
AcDbEntity
  8
ARMATUR
390
0
  6
DURCHGEHEND
 62
     3
100
AcDbLine
 10
117.35881
 20
125.201958
 30
0.0
 11
117.849655
 21
125.20195
 31
0.0
  0
LINE
  5
1C8
100
AcDbEntity
  8
ARMATUR
390
0
  6
DURCHGEHEND
 62
     3
100
AcDbLine
 10
118.758835
 20
125.201958
 30
0.0
 11
119.24968
 21
125.20195
 31
0.0
  0
LINE
  5
1C9
100
AcDbEntity
  8
ARMATUR
390
0
  6
DURCHGEHEND
 62
     3
100
AcDbLine
 10
120.158859
 20
125.201958
 30
0.0
 11
120.649704
 21
125.20195
 31
0.0
  0
LINE
  5
1CA
100
AcDbEntity
  8
ARMATUR
390
0
  6
DURCHGEHEND
 62
     3
100
AcDbLine
 10
121.558823
 20
125.201958
 30
0.0
 11
122.049667
 21
125.20195
 31
0.0
  0
LINE
  5
1CB
100
AcDbEntity
  8
ARMATUR
390
0
  6
DURCHGEHEND
 62
     3
100
AcDbLine
 10
122.958847
 20
125.201958
 30
0.0
 11
123.449692
 21
125.20195
 31
0.0
  0
LINE
  5
1CC
100
AcDbEntity
  8
ARMATUR
390
0
  6
DURCHGEHEND
 62
     3
100
AcDbLine
 10
124.358871
 20
125.201958
 30
0.0
 11
124.849716
 21
125.20195
 31
0.0
  0
LINE
  5
1CD
100
AcDbEntity
  8
ARMATUR
390
0
  6
DURCHGEHEND
 62
     3
100
AcDbLine
 10
125.758835
 20
125.201958
 30
0.0
 11
126.24968
 21
125.20195
 31
0.0
  0
LINE
  5
1CE
100
AcDbEntity
  8
ARMATUR
390
0
  6
DURCHGEHEND
 62
     3
100
AcDbLine
 10
127.158859
 20
125.201958
 30
0.0
 11
127.649704
 21
125.20195
 31
0.0
  0
LINE
  5
1CF
100
AcDbEntity
  8
ARMATUR
390
0
  6
DURCHGEHEND
 62
     3
100
AcDbLine
 10
128.558823
 20
125.201958
 30
0.0
 11
129.049667
 21
125.20195
 31
0.0
  0
LINE
  5
1D0
100
AcDbEntity
  8
ARMATUR
390
0
  6
DURCHGEHEND
 62
     3
100
AcDbLine
 10
129.958847
 20
125.201958
 30
0.0
 11
130.449692
 21
125.20195
 31
0.0
  0
LINE
  5
1D1
100
AcDbEntity
  8
ARMATUR
390
0
  6
DURCHGEHEND
 62
     3
100
AcDbLine
 10
131.358871
 20
125.201958
 30
0.0
 11
131.849716
 21
125.20195
 31
0.0
  0
LINE
  5
1D2
100
AcDbEntity
  8
ARMATUR
390
0
  6
DURCHGEHEND
 62
     3
100
AcDbLine
 10
132.758835
 20
125.201958
 30
0.0
 11
133.24968
 21
125.20195
 31
0.0
  0
LINE
  5
1D3
100
AcDbEntity
  8
ARMATUR
390
0
  6
DURCHGEHEND
 62
     3
100
AcDbLine
 10
134.158859
 20
125.201958
 30
0.0
 11
134.649704
 21
125.20195
 31
0.0
  0
LINE
  5
1D4
100
AcDbEntity
  8
ARMATUR
390
0
  6
DURCHGEHEND
 62
     3
100
AcDbLine
 10
135.558823
 20
125.201958
 30
0.0
 11
136.049667
 21
125.20195
 31
0.0
  0
LINE
  5
1D5
100
AcDbEntity
  8
ARMATUR
390
0
  6
DURCHGEHEND
 62
     3
100
AcDbLine
 10
136.958847
 20
125.201958
 30
0.0
 11
137.449692
 21
125.20195
 31
0.0
  0
LINE
  5
1D6
100
AcDbEntity
  8
ARMATUR
390
0
  6
DURCHGEHEND
 62
     3
100
AcDbLine
 10
138.358871
 20
125.201958
 30
0.0
 11
138.849716
 21
125.20195
 31
0.0
  0
LINE
  5
1D7
100
AcDbEntity
  8
ARMATUR
390
0
  6
DURCHGEHEND
 62
     3
100
AcDbLine
 10
139.758835
 20
125.201958
 30
0.0
 11
140.24968
 21
125.20195
 31
0.0
  0
LINE
  5
1D8
100
AcDbEntity
  8
ARMATUR
390
0
  6
DURCHGEHEND
 62
     3
100
AcDbLine
 10
141.158859
 20
125.201958
 30
0.0
 11
141.649704
 21
125.20195
 31
0.0
  0
LINE
  5
1D9
100
AcDbEntity
  8
ARMATUR
390
0
  6
DURCHGEHEND
 62
     3
100
AcDbLine
 10
142.558823
 20
125.201958
 30
0.0
 11
143.049667
 21
125.20195
 31
0.0
  0
LINE
  5
1DA
100
AcDbEntity
  8
ARMATUR
390
0
  6
DURCHGEHEND
 62
     3
100
AcDbLine
 10
143.958847
 20
125.201958
 30
0.0
 11
144.449692
 21
125.20195
 31
0.0
  0
LINE
  5
1DB
100
AcDbEntity
  8
ARMATUR
390
0
  6
DURCHGEHEND
 62
     3
100
AcDbLine
 10
145.358871
 20
125.201958
 30
0.0
 11
145.849716
 21
125.20195
 31
0.0
  0
LINE
  5
1DC
100
AcDbEntity
  8
ARMATUR
390
0
  6
DURCHGEHEND
 62
     3
100
AcDbLine
 10
146.758835
 20
125.201958
 30
0.0
 11
147.24968
 21
125.20195
 31
0.0
  0
ELLIPSE
  5
1DD
100
AcDbEntity
  8
ARMATUR
390
0
  6
DURCHGEHEND
 62
     3
100
AcDbEllipse
 10
112.004272
 20
125.326958
 30
0.0
 11
0.0022440070752054
 21
0.277090910464422
 31
0.0
210
0.0
220
0.0
230
1.0
 40
0.992421
 41
1.8795276703842374
 42
3.1494465819707784
  0
ELLIPSE
  5
1DE
100
AcDbEntity
  8
ARMATUR
390
0
  6
DURCHGEHEND
 62
     3
100
AcDbEllipse
 10
112.004272
 20
125.326958
 30
0.0
 11
0.0000000000042425
 21
-0.277099996805191
 31
0.0
210
0.0
220
0.0
230
1.0
 40
0.992421
 41
0.0
 42
1.2699190447445954
  0
ELLIPSE
  5
1DF
100
AcDbEntity
  8
ARMATUR
390
0
  6
DURCHGEHEND
 62
     3
100
AcDbEllipse
 10
112.004272
 20
125.162773
 30
0.0
 11
0.0000000000042425
 21
-0.277099996805191
 31
0.0
210
0.0
220
0.0
230
1.0
 40
0.992421
 41
0.0
 42
6.2831853072000001
  0
ELLIPSE
  5
1E0
100
AcDbEntity
  8
ARMATUR
390
0
  6
DURCHGEHEND
 62
     3
100
AcDbEllipse
 10
110.604248
 20
125.326958
 30
0.0
 11
-0.0003385399468243
 21
0.2770997900037774
 31
0.0
210
0.0
220
0.0
230
1.0
 40
0.992421
 41
1.8705042148207471
 42
3.1404232595653423
  0
ELLIPSE
  5
1E1
100
AcDbEntity
  8
ARMATUR
390
0
  6
DURCHGEHEND
 62
     3
100
AcDbEllipse
 10
110.604248
 20
125.326958
 30
0.0
 11
0.0000000000042425
 21
-0.277099996805191
 31
0.0
210
0.0
220
0.0
230
1.0
 40
0.992421
 41
0.0
 42
1.2699190447445954
  0
ELLIPSE
  5
1E2
100
AcDbEntity
  8
ARMATUR
390
0
  6
DURCHGEHEND
 62
     3
100
AcDbEllipse
 10
110.604248
 20
125.162773
 30
0.0
 11
0.0000000000042425
 21
-0.277099996805191
 31
0.0
210
0.0
220
0.0
230
1.0
 40
0.992421
 41
0.0
 42
6.2831853072000001
  0
ELLIPSE
  5
1E3
100
AcDbEntity
  8
ARMATUR
390
0
  6
DURCHGEHEND
 62
     3
100
AcDbEllipse
 10
109.204254
 20
125.326958
 30
0.0
 11
-0.0003385399468243
 21
0.2770997900037774
 31
0.0
210
0.0
220
0.0
230
1.0
 40
0.992421
 41
1.8705042148207471
 42
3.1404232595653423
  0
ELLIPSE
  5
1E4
100
AcDbEntity
  8
ARMATUR
390
0
  6
DURCHGEHEND
 62
     3
100
AcDbEllipse
 10
109.204254
 20
125.326958
 30
0.0
 11
0.0000000000042425
 21
-0.277099996805191
 31
0.0
210
0.0
220
0.0
230
1.0
 40
0.992421
 41
0.0
 42
1.2699190447445954
  0
ELLIPSE
  5
1E5
100
AcDbEntity
  8
ARMATUR
390
0
  6
DURCHGEHEND
 62
     3
100
AcDbEllipse
 10
109.204254
 20
125.162773
 30
0.0
 11
0.0000000000042425
 21
-0.277099996805191
 31
0.0
210
0.0
220
0.0
230
1.0
 40
0.992421
 41
0.0
 42
6.2831853072000001
  0
LINE
  5
1E6
100
AcDbEntity
  8
ARMATUR
390
0
  6
DURCHGEHEND
 62
     3
100
AcDbLine
 10
149.504257
 20
125.951958
 30
0.0
 11
149.504257
 21
124.07695
 31
0.0
  0
POLYLINE
  5
1E7
100
AcDbEntity
  8
ARMATUR
390
0
  6
DURCHGEHEND
 62
     3
100
AcDb3dPolyline
 66
     1
 10
0.0
 20
0.0
 30
0.0
 70
    12
 75
     5
  0
VERTEX
  5
1E8
100
AcDbEntity
  8
0
390
0
100
AcDbVertex
100
AcDb3dPolylineVertex
 10
149.504257
 20
124.076958
 30
0.0
 70
    48
  0
VERTEX
  5
1E9
100
AcDbEntity
  8
0
390
0
100
AcDbVertex
100
AcDb3dPolylineVertex
 10
149.504257
 20
124.076958
 30
0.0
 70
    40
  0
VERTEX
  5
1EA
100
AcDbEntity
  8
0
390
0
100
AcDbVertex
100
AcDb3dPolylineVertex
 10
149.501877
 20
124.079391
 30
0.0
 70
    40
  0
VERTEX
  5
1EB
100
AcDbEntity
  8
0
390
0
100
AcDbVertex
100
AcDb3dPolylineVertex
 10
149.504257
 20
124.07695
 30
0.0
 70
    48
  0
VERTEX
  5
1EC
100
AcDbEntity
  8
0
390
0
100
AcDbVertex
100
AcDb3dPolylineVertex
 10
149.501877
 20
124.079391
 30
0.0
 70
    48
  0
VERTEX
  5
1ED
100
AcDbEntity
  8
0
390
0
100
AcDbVertex
100
AcDb3dPolylineVertex
 10
149.501877
 20
124.079391
 30
0.0
 70
    48
  0
VERTEX
  5
1EE
100
AcDbEntity
  8
0
390
0
100
AcDbVertex
100
AcDb3dPolylineVertex
 10
149.494736
 20
124.086472
 30
0.0
 70
    40
  0
VERTEX
  5
1EF
100
AcDbEntity
  8
0
390
0
100
AcDbVertex
100
AcDb3dPolylineVertex
 10
149.501877
 20
124.079391
 30
0.0
 70
    48
  0
VERTEX
  5
1F0
100
AcDbEntity
  8
0
390
0
100
AcDbVertex
100
AcDb3dPolylineVertex
 10
149.494736
 20
124.086472
 30
0.0
 70
    48
  0
VERTEX
  5
1F1
100
AcDbEntity
  8
0
390
0
100
AcDbVertex
100
AcDb3dPolylineVertex
 10
149.494736
 20
124.086472
 30
0.0
 70
    48
  0
VERTEX
  5
1F2
100
AcDbEntity
  8
0
390
0
100
AcDbVertex
100
AcDb3dPolylineVertex
 10
149.4832
 20
124.098007
 30
0.0
 70
    40
  0
VERTEX
  5
1F3
100
AcDbEntity
  8
0
390
0
100
AcDbVertex
100
AcDb3dPolylineVertex
 10
149.494736
 20
124.086472
 30
0.0
 70
    48
  0
VERTEX
  5
1F4
100
AcDbEntity
  8
0
390
0
100
AcDbVertex
100
AcDb3dPolylineVertex
 10
149.4832
 20
124.098007
 30
0.0
 70
    48
  0
VERTEX
  5
1F5
100
AcDbEntity
  8
0
390
0
100
AcDbVertex
100
AcDb3dPolylineVertex
 10
149.4832
 20
124.098007
 30
0.0
 70
    48
  0
VERTEX
  5
1F6
100
AcDbEntity
  8
0
390
0
100
AcDbVertex
100
AcDb3dPolylineVertex
 10
149.467636
 20
124.113571
 30
0.0
 70
    40
  0
VERTEX
  5
1F7
100
AcDbEntity
  8
0
390
0
100
AcDbVertex
100
AcDb3dPolylineVertex
 10
149.4832
 20
124.098007
 30
0.0
 70
    48
  0
VERTEX
  5
1F8
100
AcDbEntity
  8
0
390
0
100
AcDbVertex
100
AcDb3dPolylineVertex
 10
149.467636
 20
124.113571
 30
0.0
 70
    48
  0
VERTEX
  5
1F9
100
AcDbEntity
  8
0
390
0
100
AcDbVertex
100
AcDb3dPolylineVertex
 10
149.467636
 20
124.113571
 30
0.0
 70
    48
  0
VERTEX
  5
1FA
100
AcDbEntity
  8
0
390
0
100
AcDbVertex
100
AcDb3dPolylineVertex
 10
149.448715
 20
124.132553
 30
0.0
 70
    40
  0
VERTEX
  5
1FB
100
AcDbEntity
  8
0
390
0
100
AcDbVertex
100
AcDb3dPolylineVertex
 10
149.467636
 20
124.113571
 30
0.0
 70
    48
  0
VERTEX
  5
1FC
100
AcDbEntity
  8
0
390
0
100
AcDbVertex
100
AcDb3dPolylineVertex
 10
149.448715
 20
124.132553
 30
0.0
 70
    48
  0
VERTEX
  5
1FD
100
AcDbEntity
  8
0
390
0
100
AcDbVertex
100
AcDb3dPolylineVertex
 10
149.448715
 20
124.132553
 30
0.0
 70
    48
  0
VERTEX
  5
1FE
100
AcDbEntity
  8
0
390
0
100
AcDbVertex
100
AcDb3dPolylineVertex
 10
149.427109
 20
124.15416
 30
0.0
 70
    40
  0
VERTEX
  5
1FF
100
AcDbEntity
  8
0
390
0
100
AcDbVertex
100
AcDb3dPolylineVertex
 10
149.448715
 20
124.132553
 30
0.0
 70
    48
  0
VERTEX
  5
200
100
AcDbEntity
  8
0
390
0
100
AcDbVertex
100
AcDb3dPolylineVertex
 10
149.427109
 20
124.15416
 30
0.0
 70
    48
  0
VERTEX
  5
201
100
AcDbEntity
  8
0
390
0
100
AcDbVertex
100
AcDb3dPolylineVertex
 10
149.427109
 20
124.15416
 30
0.0
 70
    48
  0
VERTEX
  5
202
100
AcDbEntity
  8
0
390
0
100
AcDbVertex
100
AcDb3dPolylineVertex
 10
149.403671
 20
124.177597
 30
0.0
 70
    40
  0
VERTEX
  5
203
100
AcDbEntity
  8
0
390
0
100
AcDbVertex
100
AcDb3dPolylineVertex
 10
149.427109
 20
124.15416
 30
0.0
 70
    48
  0
VERTEX
  5
204
100
AcDbEntity
  8
0
390
0
100
AcDbVertex
100
AcDb3dPolylineVertex
 10
149.403671
 20
124.177597
 30
0.0
 70
    48
  0
VERTEX
  5
205
100
AcDbEntity
  8
0
390
0
100
AcDbVertex
100
AcDb3dPolylineVertex
 10
149.403671
 20
124.177597
 30
0.0
 70
    48
  0
VERTEX
  5
206
100
AcDbEntity
  8
0
390
0
100
AcDbVertex
100
AcDb3dPolylineVertex
 10
149.379257
 20
124.20195
 30
0.0
 70
    40
  0
VERTEX
  5
207
100
AcDbEntity
  8
0
390
0
100
AcDbVertex
100
AcDb3dPolylineVertex
 10
149.403671
 20
124.177597
 30
0.0
 70
    48
  0
VERTEX
  5
208
100
AcDbEntity
  8
0
390
0
100
AcDbVertex
100
AcDb3dPolylineVertex
 10
149.379257
 20
124.20195
 30
0.0
 70
    48
  0
VERTEX
  5
209
100
AcDbEntity
  8
0
390
0
100
AcDbVertex
100
AcDb3dPolylineVertex
 10
149.379257
 20
124.20195
 30
0.0
 70
    48
  0
SEQEND
  5
20A
100
AcDbEntity
  8
0
390
0
  0
ARC
  5
20B
100
AcDbEntity
  8
ARMATUR
390
0
  6
DURCHGEHEND
 62
     3
100
AcDbCircle
 10
148.954269
 20
125.951958
 30
0.0
 40
0.55
100
AcDbArc
 50
0.0
 51
90.0
  0
LINE
  5
20C
100
AcDbEntity
  8
ARMATUR
390
0
  6
DURCHGEHEND
 62
     3
100
AcDbLine
 10
95.504272
 20
124.076958
 30
0.0
 11
95.504272
 21
125.95195
 31
0.0
  0
ARC
  5
20D
100
AcDbEntity
  8
ARMATUR
390
0
  6
DURCHGEHEND
 62
     3
100
AcDbCircle
 10
96.05426
 20
125.951958
 30
0.0
 40
0.55
100
AcDbArc
 50
90.0
 51
180.0
  0
ELLIPSE
  5
20E
100
AcDbEntity
  8
ARMATUR
390
0
  6
DURCHGEHEND
 62
     3
100
AcDbEllipse
 10
100.80426
 20
125.326958
 30
0.0
 11
-0.0003385399468243
 21
0.2770997900037774
 31
0.0
210
0.0
220
0.0
230
1.0
 40
0.992421
 41
1.8705042148207471
 42
3.1404232595653423
  0
ELLIPSE
  5
20F
100
AcDbEntity
  8
ARMATUR
390
0
  6
DURCHGEHEND
 62
     3
100
AcDbEllipse
 10
100.80426
 20
125.326958
 30
0.0
 11
0.0000000000042425
 21
-0.277099996805191
 31
0.0
210
0.0
220
0.0
230
1.0
 40
0.992421
 41
0.0
 42
1.2699190447445954
  0
ELLIPSE
  5
210
100
AcDbEntity
  8
ARMATUR
390
0
  6
DURCHGEHEND
 62
     3
100
AcDbEllipse
 10
100.80426
 20
125.162773
 30
0.0
 11
0.0000000000042425
 21
-0.277099996805191
 31
0.0
210
0.0
220
0.0
230
1.0
 40
0.992421
 41
0.0
 42
6.2831853072000001
  0
ELLIPSE
  5
211
100
AcDbEntity
  8
ARMATUR
390
0
  6
DURCHGEHEND
 62
     3
100
AcDbEllipse
 10
99.404266
 20
125.326958
 30
0.0
 11
0.0022440070752054
 21
0.277090910464422
 31
0.0
210
0.0
220
0.0
230
1.0
 40
0.992421
 41
1.8795276703842374
 42
3.1494465819707784
  0
ELLIPSE
  5
212
100
AcDbEntity
  8
ARMATUR
390
0
  6
DURCHGEHEND
 62
     3
100
AcDbEllipse
 10
99.404266
 20
125.326958
 30
0.0
 11
0.0000000000042425
 21
-0.277099996805191
 31
0.0
210
0.0
220
0.0
230
1.0
 40
0.992421
 41
0.0
 42
1.2699190447445954
  0
ELLIPSE
  5
213
100
AcDbEntity
  8
ARMATUR
390
0
  6
DURCHGEHEND
 62
     3
100
AcDbEllipse
 10
99.404266
 20
125.162773
 30
0.0
 11
0.0000000000042425
 21
-0.277099996805191
 31
0.0
210
0.0
220
0.0
230
1.0
 40
0.992421
 41
0.0
 42
6.2831853072000001
  0
ELLIPSE
  5
214
100
AcDbEntity
  8
ARMATUR
390
0
  6
DURCHGEHEND
 62
     3
100
AcDbEllipse
 10
98.004272
 20
125.326958
 30
0.0
 11
0.0022440070752054
 21
0.277090910464422
 31
0.0
210
0.0
220
0.0
230
1.0
 40
0.992421
 41
1.8795276703842374
 42
3.1494465819707784
  0
ELLIPSE
  5
215
100
AcDbEntity
  8
ARMATUR
390
0
  6
DURCHGEHEND
 62
     3
100
AcDbEllipse
 10
98.004272
 20
125.326958
 30
0.0
 11
0.0000000000042425
 21
-0.277099996805191
 31
0.0
210
0.0
220
0.0
230
1.0
 40
0.992421
 41
0.0
 42
1.304755854964035
  0
ELLIPSE
  5
216
100
AcDbEntity
  8
ARMATUR
390
0
  6
DURCHGEHEND
 62
     3
100
AcDbEllipse
 10
98.004272
 20
125.162773
 30
0.0
 11
0.0000000000042425
 21
-0.277099996805191
 31
0.0
210
0.0
220
0.0
230
1.0
 40
0.992421
 41
0.0
 42
6.2831853072000001
  0
ELLIPSE
  5
217
100
AcDbEntity
  8
ARMATUR
390
0
  6
DURCHGEHEND
 62
     3
100
AcDbEllipse
 10
124.604294
 20
125.326958
 30
0.0
 11
0.0022440070752054
 21
0.277090910464422
 31
0.0
210
0.0
220
0.0
230
1.0
 40
0.992421
 41
1.8795276703842374
 42
3.1494465819707784
  0
ELLIPSE
  5
218
100
AcDbEntity
  8
ARMATUR
390
0
  6
DURCHGEHEND
 62
     3
100
AcDbEllipse
 10
124.604294
 20
125.326958
 30
0.0
 11
0.0000000000042425
 21
-0.277099996805191
 31
0.0
210
0.0
220
0.0
230
1.0
 40
0.992421
 41
0.0
 42
1.2699190447445954
  0
ELLIPSE
  5
219
100
AcDbEntity
  8
ARMATUR
390
0
  6
DURCHGEHEND
 62
     3
100
AcDbEllipse
 10
124.604294
 20
125.162773
 30
0.0
 11
0.0000000000042425
 21
-0.277099996805191
 31
0.0
210
0.0
220
0.0
230
1.0
 40
0.992421
 41
0.0
 42
6.2831853072000001
  0
ELLIPSE
  5
21A
100
AcDbEntity
  8
ARMATUR
390
0
  6
DURCHGEHEND
 62
     3
100
AcDbEllipse
 10
126.004257
 20
125.326958
 30
0.0
 11
-0.0003385399468243
 21
0.2770997900037774
 31
0.0
210
0.0
220
0.0
230
1.0
 40
0.992421
 41
1.8705042148207471
 42
3.1404232595653423
  0
ELLIPSE
  5
21B
100
AcDbEntity
  8
ARMATUR
390
0
  6
DURCHGEHEND
 62
     3
100
AcDbEllipse
 10
126.004257
 20
125.326958
 30
0.0
 11
0.0000000000042425
 21
-0.277099996805191
 31
0.0
210
0.0
220
0.0
230
1.0
 40
0.992421
 41
0.0
 42
1.2699190447445954
  0
ELLIPSE
  5
21C
100
AcDbEntity
  8
ARMATUR
390
0
  6
DURCHGEHEND
 62
     3
100
AcDbEllipse
 10
126.004257
 20
125.162773
 30
0.0
 11
0.0000000000042425
 21
-0.277099996805191
 31
0.0
210
0.0
220
0.0
230
1.0
 40
0.992421
 41
0.0
 42
6.2831853072000001
  0
ELLIPSE
  5
21D
100
AcDbEntity
  8
ARMATUR
390
0
  6
DURCHGEHEND
 62
     3
100
AcDbEllipse
 10
127.404282
 20
125.326958
 30
0.0
 11
0.0016104821115732
 21
0.277095316771477
 31
0.0
210
0.0
220
0.0
230
1.0
 40
0.992421
 41
1.8772586571354826
 42
3.1471778350381325
  0
ELLIPSE
  5
21E
100
AcDbEntity
  8
ARMATUR
390
0
  6
DURCHGEHEND
 62
     3
100
AcDbEllipse
 10
127.404282
 20
125.326958
 30
0.0
 11
0.0000000000042425
 21
-0.277099996805191
 31
0.0
210
0.0
220
0.0
230
1.0
 40
0.992421
 41
0.0
 42
1.2699190447445954
  0
ELLIPSE
  5
21F
100
AcDbEntity
  8
ARMATUR
390
0
  6
DURCHGEHEND
 62
     3
100
AcDbEllipse
 10
127.404282
 20
125.162773
 30
0.0
 11
0.0000000000042425
 21
-0.277099996805191
 31
0.0
210
0.0
220
0.0
230
1.0
 40
0.992421
 41
0.0
 42
6.2831853072000001
  0
ELLIPSE
  5
220
100
AcDbEntity
  8
ARMATUR
390
0
  6
DURCHGEHEND
 62
     3
100
AcDbEllipse
 10
128.804245
 20
125.326958
 30
0.0
 11
-0.0003385399468243
 21
0.2770997900037774
 31
0.0
210
0.0
220
0.0
230
1.0
 40
0.992421
 41
1.8705042148207471
 42
3.1404232595653423
  0
ELLIPSE
  5
221
100
AcDbEntity
  8
ARMATUR
390
0
  6
DURCHGEHEND
 62
     3
100
AcDbEllipse
 10
128.804245
 20
125.326958
 30
0.0
 11
0.0000000000042425
 21
-0.277099996805191
 31
0.0
210
0.0
220
0.0
230
1.0
 40
0.992421
 41
0.0
 42
1.2699190447445954
  0
ELLIPSE
  5
222
100
AcDbEntity
  8
ARMATUR
390
0
  6
DURCHGEHEND
 62
     3
100
AcDbEllipse
 10
128.804245
 20
125.162773
 30
0.0
 11
0.0000000000042425
 21
-0.277099996805191
 31
0.0
210
0.0
220
0.0
230
1.0
 40
0.992421
 41
0.0
 42
6.2831853072000001
  0
ELLIPSE
  5
223
100
AcDbEntity
  8
ARMATUR
390
0
  6
DURCHGEHEND
 62
     3
100
AcDbEllipse
 10
130.204269
 20
125.326958
 30
0.0
 11
-0.0003385399468243
 21
0.2770997900037774
 31
0.0
210
0.0
220
0.0
230
1.0
 40
0.992421
 41
1.8705042148207471
 42
3.1404232595653423
  0
ELLIPSE
  5
224
100
AcDbEntity
  8
ARMATUR
390
0
  6
DURCHGEHEND
 62
     3
100
AcDbEllipse
 10
130.204269
 20
125.326958
 30
0.0
 11
0.0000000000042425
 21
-0.277099996805191
 31
0.0
210
0.0
220
0.0
230
1.0
 40
0.992421
 41
0.0
 42
1.2699190447445954
  0
ELLIPSE
  5
225
100
AcDbEntity
  8
ARMATUR
390
0
  6
DURCHGEHEND
 62
     3
100
AcDbEllipse
 10
130.204269
 20
125.162773
 30
0.0
 11
0.0000000000042425
 21
-0.277099996805191
 31
0.0
210
0.0
220
0.0
230
1.0
 40
0.992421
 41
0.0
 42
6.2831853072000001
  0
ELLIPSE
  5
226
100
AcDbEntity
  8
ARMATUR
390
0
  6
DURCHGEHEND
 62
     3
100
AcDbEllipse
 10
131.604294
 20
125.326958
 30
0.0
 11
0.0022440070752054
 21
0.277090910464422
 31
0.0
210
0.0
220
0.0
230
1.0
 40
0.992421
 41
1.8795276703842374
 42
3.1494465819707784
  0
ELLIPSE
  5
227
100
AcDbEntity
  8
ARMATUR
390
0
  6
DURCHGEHEND
 62
     3
100
AcDbEllipse
 10
131.604294
 20
125.326958
 30
0.0
 11
0.0000000000042425
 21
-0.277099996805191
 31
0.0
210
0.0
220
0.0
230
1.0
 40
0.992421
 41
0.0
 42
1.2699190447445954
  0
ELLIPSE
  5
228
100
AcDbEntity
  8
ARMATUR
390
0
  6
DURCHGEHEND
 62
     3
100
AcDbEllipse
 10
131.604294
 20
125.162773
 30
0.0
 11
0.0000000000042425
 21
-0.277099996805191
 31
0.0
210
0.0
220
0.0
230
1.0
 40
0.992421
 41
0.0
 42
6.2831853072000001
  0
ELLIPSE
  5
229
100
AcDbEntity
  8
ARMATUR
390
0
  6
DURCHGEHEND
 62
     3
100
AcDbEllipse
 10
133.004257
 20
125.326958
 30
0.0
 11
-0.0003385399468243
 21
0.2770997900037774
 31
0.0
210
0.0
220
0.0
230
1.0
 40
0.992421
 41
1.8705042148207471
 42
3.1404232595653423
  0
ELLIPSE
  5
22A
100
AcDbEntity
  8
ARMATUR
390
0
  6
DURCHGEHEND
 62
     3
100
AcDbEllipse
 10
133.004257
 20
125.326958
 30
0.0
 11
0.0000000000042425
 21
-0.277099996805191
 31
0.0
210
0.0
220
0.0
230
1.0
 40
0.992421
 41
0.0
 42
1.2699190447445954
  0
ELLIPSE
  5
22B
100
AcDbEntity
  8
ARMATUR
390
0
  6
DURCHGEHEND
 62
     3
100
AcDbEllipse
 10
133.004257
 20
125.162773
 30
0.0
 11
0.0000000000042425
 21
-0.277099996805191
 31
0.0
210
0.0
220
0.0
230
1.0
 40
0.992421
 41
0.0
 42
6.2831853072000001
  0
ELLIPSE
  5
22C
100
AcDbEntity
  8
ARMATUR
390
0
  6
DURCHGEHEND
 62
     3
100
AcDbEllipse
 10
134.404282
 20
125.326958
 30
0.0
 11
0.0016104821115732
 21
0.277095316771477
 31
0.0
210
0.0
220
0.0
230
1.0
 40
0.992421
 41
1.8772586571354826
 42
3.1471778350381325
  0
ELLIPSE
  5
22D
100
AcDbEntity
  8
ARMATUR
390
0
  6
DURCHGEHEND
 62
     3
100
AcDbEllipse
 10
134.404282
 20
125.326958
 30
0.0
 11
0.0000000000042425
 21
-0.277099996805191
 31
0.0
210
0.0
220
0.0
230
1.0
 40
0.992421
 41
0.0
 42
1.2699190447445954
  0
ELLIPSE
  5
22E
100
AcDbEntity
  8
ARMATUR
390
0
  6
DURCHGEHEND
 62
     3
100
AcDbEllipse
 10
134.404282
 20
125.162773
 30
0.0
 11
0.0000000000042425
 21
-0.277099996805191
 31
0.0
210
0.0
220
0.0
230
1.0
 40
0.992421
 41
0.0
 42
6.2831853072000001
  0
ELLIPSE
  5
22F
100
AcDbEntity
  8
ARMATUR
390
0
  6
DURCHGEHEND
 62
     3
100
AcDbEllipse
 10
135.804245
 20
125.326958
 30
0.0
 11
-0.0003385399468243
 21
0.2770997900037774
 31
0.0
210
0.0
220
0.0
230
1.0
 40
0.992421
 41
1.8705042148207471
 42
3.1404232595653423
  0
ELLIPSE
  5
230
100
AcDbEntity
  8
ARMATUR
390
0
  6
DURCHGEHEND
 62
     3
100
AcDbEllipse
 10
135.804245
 20
125.326958
 30
0.0
 11
0.0000000000042425
 21
-0.277099996805191
 31
0.0
210
0.0
220
0.0
230
1.0
 40
0.992421
 41
0.0
 42
1.2699190447445954
  0
ELLIPSE
  5
231
100
AcDbEntity
  8
ARMATUR
390
0
  6
DURCHGEHEND
 62
     3
100
AcDbEllipse
 10
135.804245
 20
125.162773
 30
0.0
 11
0.0000000000042425
 21
-0.277099996805191
 31
0.0
210
0.0
220
0.0
230
1.0
 40
0.992421
 41
0.0
 42
6.2831853072000001
  0
ELLIPSE
  5
232
100
AcDbEntity
  8
ARMATUR
390
0
  6
DURCHGEHEND
 62
     3
100
AcDbEllipse
 10
137.204269
 20
125.326958
 30
0.0
 11
-0.0003385399468243
 21
0.2770997900037774
 31
0.0
210
0.0
220
0.0
230
1.0
 40
0.992421
 41
1.8705042148207471
 42
3.1404232595653423
  0
ELLIPSE
  5
233
100
AcDbEntity
  8
ARMATUR
390
0
  6
DURCHGEHEND
 62
     3
100
AcDbEllipse
 10
137.204269
 20
125.326958
 30
0.0
 11
0.0000000000042425
 21
-0.277099996805191
 31
0.0
210
0.0
220
0.0
230
1.0
 40
0.992421
 41
0.0
 42
1.2699190447445954
  0
ELLIPSE
  5
234
100
AcDbEntity
  8
ARMATUR
390
0
  6
DURCHGEHEND
 62
     3
100
AcDbEllipse
 10
137.204269
 20
125.162773
 30
0.0
 11
0.0000000000042425
 21
-0.277099996805191
 31
0.0
210
0.0
220
0.0
230
1.0
 40
0.992421
 41
0.0
 42
6.2831853072000001
  0
ELLIPSE
  5
235
100
AcDbEntity
  8
ARMATUR
390
0
  6
DURCHGEHEND
 62
     3
100
AcDbEllipse
 10
138.604294
 20
125.326958
 30
0.0
 11
0.0022440070752054
 21
0.277090910464422
 31
0.0
210
0.0
220
0.0
230
1.0
 40
0.992421
 41
1.8795276703842374
 42
3.1494465819707784
  0
ELLIPSE
  5
236
100
AcDbEntity
  8
ARMATUR
390
0
  6
DURCHGEHEND
 62
     3
100
AcDbEllipse
 10
138.604294
 20
125.326958
 30
0.0
 11
0.0000000000042425
 21
-0.277099996805191
 31
0.0
210
0.0
220
0.0
230
1.0
 40
0.992421
 41
0.0
 42
1.2699190447445954
  0
ELLIPSE
  5
237
100
AcDbEntity
  8
ARMATUR
390
0
  6
DURCHGEHEND
 62
     3
100
AcDbEllipse
 10
138.604294
 20
125.162773
 30
0.0
 11
0.0000000000042425
 21
-0.277099996805191
 31
0.0
210
0.0
220
0.0
230
1.0
 40
0.992421
 41
0.0
 42
6.2831853072000001
  0
ELLIPSE
  5
238
100
AcDbEntity
  8
ARMATUR
390
0
  6
DURCHGEHEND
 62
     3
100
AcDbEllipse
 10
140.004257
 20
125.326958
 30
0.0
 11
-0.0003385399468243
 21
0.2770997900037774
 31
0.0
210
0.0
220
0.0
230
1.0
 40
0.992421
 41
1.8705042148207471
 42
3.1404232595653423
  0
ELLIPSE
  5
239
100
AcDbEntity
  8
ARMATUR
390
0
  6
DURCHGEHEND
 62
     3
100
AcDbEllipse
 10
140.004257
 20
125.326958
 30
0.0
 11
0.0000000000042425
 21
-0.277099996805191
 31
0.0
210
0.0
220
0.0
230
1.0
 40
0.992421
 41
0.0
 42
1.2699190447445954
  0
ELLIPSE
  5
23A
100
AcDbEntity
  8
ARMATUR
390
0
  6
DURCHGEHEND
 62
     3
100
AcDbEllipse
 10
140.004257
 20
125.162773
 30
0.0
 11
0.0000000000042425
 21
-0.277099996805191
 31
0.0
210
0.0
220
0.0
230
1.0
 40
0.992421
 41
0.0
 42
6.2831853072000001
  0
ELLIPSE
  5
23B
100
AcDbEntity
  8
ARMATUR
390
0
  6
DURCHGEHEND
 62
     3
100
AcDbEllipse
 10
141.404282
 20
125.326958
 30
0.0
 11
0.0016104821115732
 21
0.277095316771477
 31
0.0
210
0.0
220
0.0
230
1.0
 40
0.992421
 41
1.8772586571354826
 42
3.1471778350381325
  0
ELLIPSE
  5
23C
100
AcDbEntity
  8
ARMATUR
390
0
  6
DURCHGEHEND
 62
     3
100
AcDbEllipse
 10
141.404282
 20
125.326958
 30
0.0
 11
0.0000000000042425
 21
-0.277099996805191
 31
0.0
210
0.0
220
0.0
230
1.0
 40
0.992421
 41
0.0
 42
1.2699190447445954
  0
ELLIPSE
  5
23D
100
AcDbEntity
  8
ARMATUR
390
0
  6
DURCHGEHEND
 62
     3
100
AcDbEllipse
 10
141.404282
 20
125.162773
 30
0.0
 11
0.0000000000042425
 21
-0.277099996805191
 31
0.0
210
0.0
220
0.0
230
1.0
 40
0.992421
 41
0.0
 42
6.2831853072000001
  0
ELLIPSE
  5
23E
100
AcDbEntity
  8
ARMATUR
390
0
  6
DURCHGEHEND
 62
     3
100
AcDbEllipse
 10
142.804245
 20
125.326958
 30
0.0
 11
-0.0003385399468243
 21
0.2770997900037774
 31
0.0
210
0.0
220
0.0
230
1.0
 40
0.992421
 41
1.8705042148207471
 42
3.1404232595653423
  0
ELLIPSE
  5
23F
100
AcDbEntity
  8
ARMATUR
390
0
  6
DURCHGEHEND
 62
     3
100
AcDbEllipse
 10
142.804245
 20
125.326958
 30
0.0
 11
0.0000000000042425
 21
-0.277099996805191
 31
0.0
210
0.0
220
0.0
230
1.0
 40
0.992421
 41
0.0
 42
1.2699190447445954
  0
ELLIPSE
  5
240
100
AcDbEntity
  8
ARMATUR
390
0
  6
DURCHGEHEND
 62
     3
100
AcDbEllipse
 10
142.804245
 20
125.162773
 30
0.0
 11
0.0000000000042425
 21
-0.277099996805191
 31
0.0
210
0.0
220
0.0
230
1.0
 40
0.992421
 41
0.0
 42
6.2831853072000001
  0
ELLIPSE
  5
241
100
AcDbEntity
  8
ARMATUR
390
0
  6
DURCHGEHEND
 62
     3
100
AcDbEllipse
 10
144.204269
 20
125.326958
 30
0.0
 11
-0.0003385399468243
 21
0.2770997900037774
 31
0.0
210
0.0
220
0.0
230
1.0
 40
0.992421
 41
1.8705042148207471
 42
3.1404232595653423
  0
ELLIPSE
  5
242
100
AcDbEntity
  8
ARMATUR
390
0
  6
DURCHGEHEND
 62
     3
100
AcDbEllipse
 10
144.204269
 20
125.326958
 30
0.0
 11
0.0000000000042425
 21
-0.277099996805191
 31
0.0
210
0.0
220
0.0
230
1.0
 40
0.992421
 41
0.0
 42
1.2699190447445954
  0
ELLIPSE
  5
243
100
AcDbEntity
  8
ARMATUR
390
0
  6
DURCHGEHEND
 62
     3
100
AcDbEllipse
 10
144.204269
 20
125.162773
 30
0.0
 11
0.0000000000042425
 21
-0.277099996805191
 31
0.0
210
0.0
220
0.0
230
1.0
 40
0.992421
 41
0.0
 42
6.2831853072000001
  0
ELLIPSE
  5
244
100
AcDbEntity
  8
ARMATUR
390
0
  6
DURCHGEHEND
 62
     3
100
AcDbEllipse
 10
145.604294
 20
125.326958
 30
0.0
 11
0.0022440070752054
 21
0.277090910464422
 31
0.0
210
0.0
220
0.0
230
1.0
 40
0.992421
 41
1.8795276703842374
 42
3.1494465819707784
  0
ELLIPSE
  5
245
100
AcDbEntity
  8
ARMATUR
390
0
  6
DURCHGEHEND
 62
     3
100
AcDbEllipse
 10
145.604294
 20
125.326958
 30
0.0
 11
0.0000000000042425
 21
-0.277099996805191
 31
0.0
210
0.0
220
0.0
230
1.0
 40
0.992421
 41
0.0
 42
1.2699190447445954
  0
ELLIPSE
  5
246
100
AcDbEntity
  8
ARMATUR
390
0
  6
DURCHGEHEND
 62
     3
100
AcDbEllipse
 10
145.604294
 20
125.162773
 30
0.0
 11
0.0000000000042425
 21
-0.277099996805191
 31
0.0
210
0.0
220
0.0
230
1.0
 40
0.992421
 41
0.0
 42
6.2831853072000001
  0
ELLIPSE
  5
247
100
AcDbEntity
  8
ARMATUR
390
0
  6
DURCHGEHEND
 62
     3
100
AcDbEllipse
 10
147.004257
 20
125.326958
 30
0.0
 11
-0.0014266954967752
 21
0.2770963239911302
 31
0.0
210
0.0
220
0.0
230
1.0
 40
0.992421
 41
1.8317754609842529
 42
3.1365313159482882
  0
ELLIPSE
  5
248
100
AcDbEntity
  8
ARMATUR
390
0
  6
DURCHGEHEND
 62
     3
100
AcDbEllipse
 10
147.004257
 20
125.326958
 30
0.0
 11
0.0000000000042425
 21
-0.277099996805191
 31
0.0
210
0.0
220
0.0
230
1.0
 40
0.992421
 41
0.0
 42
1.2699190447445954
  0
ELLIPSE
  5
249
100
AcDbEntity
  8
ARMATUR
390
0
  6
DURCHGEHEND
 62
     3
100
AcDbEllipse
 10
147.004257
 20
125.162773
 30
0.0
 11
0.0000000000042425
 21
-0.277099996805191
 31
0.0
210
0.0
220
0.0
230
1.0
 40
0.992421
 41
0.0
 42
6.2831853072000001
  0
ELLIPSE
  5
24A
100
AcDbEntity
  8
ARMATUR
390
0
  6
DURCHGEHEND
 62
     3
100
AcDbEllipse
 10
102.204254
 20
125.326958
 30
0.0
 11
-0.0003385399468243
 21
0.2770997900037774
 31
0.0
210
0.0
220
0.0
230
1.0
 40
0.992421
 41
1.8705042148207471
 42
3.1404232595653423
  0
ELLIPSE
  5
24B
100
AcDbEntity
  8
ARMATUR
390
0
  6
DURCHGEHEND
 62
     3
100
AcDbEllipse
 10
102.204254
 20
125.326958
 30
0.0
 11
0.0000000000042425
 21
-0.277099996805191
 31
0.0
210
0.0
220
0.0
230
1.0
 40
0.992421
 41
0.0
 42
1.2699190447445954
  0
ELLIPSE
  5
24C
100
AcDbEntity
  8
ARMATUR
390
0
  6
DURCHGEHEND
 62
     3
100
AcDbEllipse
 10
102.204254
 20
125.162773
 30
0.0
 11
0.0000000000042425
 21
-0.277099996805191
 31
0.0
210
0.0
220
0.0
230
1.0
 40
0.992421
 41
0.0
 42
6.2831853072000001
  0
ELLIPSE
  5
24D
100
AcDbEntity
  8
ARMATUR
390
0
  6
DURCHGEHEND
 62
     3
100
AcDbEllipse
 10
119.004257
 20
125.326958
 30
0.0
 11
0.0022440070752054
 21
0.277090910464422
 31
0.0
210
0.0
220
0.0
230
1.0
 40
0.992421
 41
1.8795276703842374
 42
3.1494465819707784
  0
ELLIPSE
  5
24E
100
AcDbEntity
  8
ARMATUR
390
0
  6
DURCHGEHEND
 62
     3
100
AcDbEllipse
 10
119.004257
 20
125.326958
 30
0.0
 11
0.0000000000042425
 21
-0.277099996805191
 31
0.0
210
0.0
220
0.0
230
1.0
 40
0.992421
 41
0.0
 42
1.2699190447445954
  0
ELLIPSE
  5
24F
100
AcDbEntity
  8
ARMATUR
390
0
  6
DURCHGEHEND
 62
     3
100
AcDbEllipse
 10
119.004257
 20
125.162773
 30
0.0
 11
0.0000000000042425
 21
-0.277099996805191
 31
0.0
210
0.0
220
0.0
230
1.0
 40
0.992421
 41
0.0
 42
6.2831853072000001
  0
ELLIPSE
  5
250
100
AcDbEntity
  8
ARMATUR
390
0
  6
DURCHGEHEND
 62
     3
100
AcDbEllipse
 10
107.80426
 20
125.326958
 30
0.0
 11
-0.0003385399468243
 21
0.2770997900037774
 31
0.0
210
0.0
220
0.0
230
1.0
 40
0.992421
 41
1.8705042148207471
 42
3.1404232595653423
  0
ELLIPSE
  5
251
100
AcDbEntity
  8
ARMATUR
390
0
  6
DURCHGEHEND
 62
     3
100
AcDbEllipse
 10
107.80426
 20
125.326958
 30
0.0
 11
0.0000000000042425
 21
-0.277099996805191
 31
0.0
210
0.0
220
0.0
230
1.0
 40
0.992421
 41
0.0
 42
1.2699190447445954
  0
ELLIPSE
  5
252
100
AcDbEntity
  8
ARMATUR
390
0
  6
DURCHGEHEND
 62
     3
100
AcDbEllipse
 10
107.80426
 20
125.162773
 30
0.0
 11
0.0000000000042425
 21
-0.277099996805191
 31
0.0
210
0.0
220
0.0
230
1.0
 40
0.992421
 41
0.0
 42
6.2831853072000001
  0
ELLIPSE
  5
253
100
AcDbEntity
  8
ARMATUR
390
0
  6
DURCHGEHEND
 62
     3
100
AcDbEllipse
 10
106.404266
 20
125.326958
 30
0.0
 11
0.0022440070752054
 21
0.277090910464422
 31
0.0
210
0.0
220
0.0
230
1.0
 40
0.992421
 41
1.8795276703842374
 42
3.1494465819707784
  0
ELLIPSE
  5
254
100
AcDbEntity
  8
ARMATUR
390
0
  6
DURCHGEHEND
 62
     3
100
AcDbEllipse
 10
106.404266
 20
125.326958
 30
0.0
 11
0.0000000000042425
 21
-0.277099996805191
 31
0.0
210
0.0
220
0.0
230
1.0
 40
0.992421
 41
0.0
 42
1.2699190447445954
  0
ELLIPSE
  5
255
100
AcDbEntity
  8
ARMATUR
390
0
  6
DURCHGEHEND
 62
     3
100
AcDbEllipse
 10
106.404266
 20
125.162773
 30
0.0
 11
0.0000000000042425
 21
-0.277099996805191
 31
0.0
210
0.0
220
0.0
230
1.0
 40
0.992421
 41
0.0
 42
6.2831853072000001
  0
ELLIPSE
  5
256
100
AcDbEntity
  8
ARMATUR
390
0
  6
DURCHGEHEND
 62
     3
100
AcDbEllipse
 10
105.004272
 20
125.162773
 30
0.0
 11
0.0000000000042425
 21
-0.277099996805191
 31
0.0
210
0.0
220
0.0
230
1.0
 40
0.992421
 41
0.0
 42
6.2831853072000001
  0
ELLIPSE
  5
257
100
AcDbEntity
  8
ARMATUR
390
0
  6
DURCHGEHEND
 62
     3
100
AcDbEllipse
 10
113.404266
 20
125.162773
 30
0.0
 11
0.0000000000042425
 21
-0.277099996805191
 31
0.0
210
0.0
220
0.0
230
1.0
 40
0.992421
 41
0.0
 42
6.2831853072000001
  0
ELLIPSE
  5
258
100
AcDbEntity
  8
ARMATUR
390
0
  6
DURCHGEHEND
 62
     3
100
AcDbEllipse
 10
116.204269
 20
125.162773
 30
0.0
 11
0.0000000000042425
 21
-0.277099996805191
 31
0.0
210
0.0
220
0.0
230
1.0
 40
0.992421
 41
0.0
 42
6.2831853072000001
  0
ELLIPSE
  5
259
100
AcDbEntity
  8
ARMATUR
390
0
  6
DURCHGEHEND
 62
     3
100
AcDbEllipse
 10
121.804245
 20
125.162773
 30
0.0
 11
0.0000000000042425
 21
-0.277099996805191
 31
0.0
210
0.0
220
0.0
230
1.0
 40
0.992421
 41
0.0
 42
6.2831853072000001
  0
ELLIPSE
  5
25A
100
AcDbEntity
  8
ARMATUR
390
0
  6
DURCHGEHEND
 62
     3
100
AcDbEllipse
 10
123.204269
 20
125.162773
 30
0.0
 11
0.0000000000042425
 21
-0.277099996805191
 31
0.0
210
0.0
220
0.0
230
1.0
 40
0.992421
 41
0.0
 42
6.2831853072000001
  0
ELLIPSE
  5
25B
100
AcDbEntity
  8
ARMATUR
390
0
  6
DURCHGEHEND
 62
     3
100
AcDbEllipse
 10
120.404282
 20
125.162773
 30
0.0
 11
0.0000000000042425
 21
-0.277099996805191
 31
0.0
210
0.0
220
0.0
230
1.0
 40
0.992421
 41
0.0
 42
6.2831853072000001
  0
ELLIPSE
  5
25C
100
AcDbEntity
  8
ARMATUR
390
0
  6
DURCHGEHEND
 62
     3
100
AcDbEllipse
 10
117.604233
 20
125.162773
 30
0.0
 11
0.0000000000042425
 21
-0.277099996805191
 31
0.0
210
0.0
220
0.0
230
1.0
 40
0.992421
 41
0.0
 42
6.2831853072000001
  0
ELLIPSE
  5
25D
100
AcDbEntity
  8
ARMATUR
390
0
  6
DURCHGEHEND
 62
     3
100
AcDbEllipse
 10
114.80426
 20
125.162773
 30
0.0
 11
0.0000000000042425
 21
-0.277099996805191
 31
0.0
210
0.0
220
0.0
230
1.0
 40
0.992421
 41
0.0
 42
6.2831853072000001
  0
ELLIPSE
  5
25E
100
AcDbEntity
  8
ARMATUR
390
0
  6
DURCHGEHEND
 62
     3
100
AcDbEllipse
 10
103.604248
 20
125.162773
 30
0.0
 11
0.0000000000042425
 21
-0.277099996805191
 31
0.0
210
0.0
220
0.0
230
1.0
 40
0.992421
 41
0.0
 42
6.2831853072000001
  0
ELLIPSE
  5
25F
100
AcDbEntity
  8
ARMATUR
390
0
  6
DURCHGEHEND
 62
     3
100
AcDbEllipse
 10
103.604248
 20
125.326958
 30
0.0
 11
-0.0003385399468243
 21
0.2770997900037774
 31
0.0
210
0.0
220
0.0
230
1.0
 40
0.992421
 41
1.8705042148207471
 42
3.1404232595653423
  0
ELLIPSE
  5
260
100
AcDbEntity
  8
ARMATUR
390
0
  6
DURCHGEHEND
 62
     3
100
AcDbEllipse
 10
103.604248
 20
125.326958
 30
0.0
 11
0.0000000000042425
 21
-0.277099996805191
 31
0.0
210
0.0
220
0.0
230
1.0
 40
0.992421
 41
0.0
 42
1.2699190447445954
  0
ELLIPSE
  5
261
100
AcDbEntity
  8
ARMATUR
390
0
  6
DURCHGEHEND
 62
     3
100
AcDbEllipse
 10
121.804245
 20
125.326958
 30
0.0
 11
-0.0003385399468243
 21
0.2770997900037774
 31
0.0
210
0.0
220
0.0
230
1.0
 40
0.992421
 41
1.8705042148207471
 42
3.1404232595653423
  0
ELLIPSE
  5
262
100
AcDbEntity
  8
ARMATUR
390
0
  6
DURCHGEHEND
 62
     3
100
AcDbEllipse
 10
121.804245
 20
125.326958
 30
0.0
 11
0.0000000000042425
 21
-0.277099996805191
 31
0.0
210
0.0
220
0.0
230
1.0
 40
0.992421
 41
0.0
 42
1.2699190447445954
  0
ELLIPSE
  5
263
100
AcDbEntity
  8
ARMATUR
390
0
  6
DURCHGEHEND
 62
     3
100
AcDbEllipse
 10
120.404282
 20
125.326958
 30
0.0
 11
0.0022440070752054
 21
0.277090910464422
 31
0.0
210
0.0
220
0.0
230
1.0
 40
0.992421
 41
1.8795276703842374
 42
3.1494465819707784
  0
ELLIPSE
  5
264
100
AcDbEntity
  8
ARMATUR
390
0
  6
DURCHGEHEND
 62
     3
100
AcDbEllipse
 10
120.404282
 20
125.326958
 30
0.0
 11
0.0000000000042425
 21
-0.277099996805191
 31
0.0
210
0.0
220
0.0
230
1.0
 40
0.992421
 41
0.0
 42
1.2699190447445954
  0
ELLIPSE
  5
265
100
AcDbEntity
  8
ARMATUR
390
0
  6
DURCHGEHEND
 62
     3
100
AcDbEllipse
 10
117.604233
 20
125.326958
 30
0.0
 11
-0.0003385399468243
 21
0.2770997900037774
 31
0.0
210
0.0
220
0.0
230
1.0
 40
0.992421
 41
1.8705042148207471
 42
3.1404232595653423
  0
ELLIPSE
  5
266
100
AcDbEntity
  8
ARMATUR
390
0
  6
DURCHGEHEND
 62
     3
100
AcDbEllipse
 10
117.604233
 20
125.326958
 30
0.0
 11
0.0000000000042425
 21
-0.277099996805191
 31
0.0
210
0.0
220
0.0
230
1.0
 40
0.992421
 41
0.0
 42
1.2699190447445954
  0
LINE
  5
267
100
AcDbEntity
  8
ARMATUR
390
0
  6
DURCHGEHEND
 62
     3
100
AcDbLine
 10
149.504257
 20
124.076958
 30
0.0
 11
95.504272
 21
124.07695
 31
0.0
  0
ELLIPSE
  5
268
100
AcDbEntity
  8
ARMATUR
390
0
  6
DURCHGEHEND
 62
     3
100
AcDbEllipse
 10
114.80426
 20
125.326958
 30
0.0
 11
-0.0003385399468243
 21
0.2770997900037774
 31
0.0
210
0.0
220
0.0
230
1.0
 40
0.992421
 41
1.8705042148207471
 42
3.1404232595653423
  0
ELLIPSE
  5
269
100
AcDbEntity
  8
ARMATUR
390
0
  6
DURCHGEHEND
 62
     3
100
AcDbEllipse
 10
114.80426
 20
125.326958
 30
0.0
 11
0.0000000000042425
 21
-0.277099996805191
 31
0.0
210
0.0
220
0.0
230
1.0
 40
0.992421
 41
0.0
 42
1.2699190447445954
  0
ELLIPSE
  5
26A
100
AcDbEntity
  8
ARMATUR
390
0
  6
DURCHGEHEND
 62
     3
100
AcDbEllipse
 10
113.404266
 20
125.326958
 30
0.0
 11
0.0022440070752054
 21
0.277090910464422
 31
0.0
210
0.0
220
0.0
230
1.0
 40
0.992421
 41
1.8795276703842374
 42
3.1494465819707784
  0
ELLIPSE
  5
26B
100
AcDbEntity
  8
ARMATUR
390
0
  6
DURCHGEHEND
 62
     3
100
AcDbEllipse
 10
113.404266
 20
125.326958
 30
0.0
 11
0.0000000000042425
 21
-0.277099996805191
 31
0.0
210
0.0
220
0.0
230
1.0
 40
0.992421
 41
0.0
 42
1.2699190447445954
  0
ELLIPSE
  5
26C
100
AcDbEntity
  8
ARMATUR
390
0
  6
DURCHGEHEND
 62
     3
100
AcDbEllipse
 10
105.004272
 20
125.326958
 30
0.0
 11
0.0022440070752054
 21
0.277090910464422
 31
0.0
210
0.0
220
0.0
230
1.0
 40
0.992421
 41
1.8795276703842374
 42
3.1494465819707784
  0
ELLIPSE
  5
26D
100
AcDbEntity
  8
ARMATUR
390
0
  6
DURCHGEHEND
 62
     3
100
AcDbEllipse
 10
105.004272
 20
125.326958
 30
0.0
 11
0.0000000000042425
 21
-0.277099996805191
 31
0.0
210
0.0
220
0.0
230
1.0
 40
0.992421
 41
0.0
 42
1.2699190447445954
  0
ELLIPSE
  5
26E
100
AcDbEntity
  8
ARMATUR
390
0
  6
DURCHGEHEND
 62
     3
100
AcDbEllipse
 10
116.204269
 20
125.326958
 30
0.0
 11
-0.0003385399468243
 21
0.2770997900037774
 31
0.0
210
0.0
220
0.0
230
1.0
 40
0.992421
 41
1.8705042148207471
 42
3.1404232595653423
  0
ELLIPSE
  5
26F
100
AcDbEntity
  8
ARMATUR
390
0
  6
DURCHGEHEND
 62
     3
100
AcDbEllipse
 10
116.204269
 20
125.326958
 30
0.0
 11
0.0000000000042425
 21
-0.277099996805191
 31
0.0
210
0.0
220
0.0
230
1.0
 40
0.992421
 41
0.0
 42
1.2699190447445954
  0
ELLIPSE
  5
270
100
AcDbEntity
  8
ARMATUR
390
0
  6
DURCHGEHEND
 62
     3
100
AcDbEllipse
 10
123.204269
 20
125.326958
 30
0.0
 11
-0.0003385399468243
 21
0.2770997900037774
 31
0.0
210
0.0
220
0.0
230
1.0
 40
0.992421
 41
1.8705042148207471
 42
3.1404232595653423
  0
ELLIPSE
  5
271
100
AcDbEntity
  8
ARMATUR
390
0
  6
DURCHGEHEND
 62
     3
100
AcDbEllipse
 10
123.204269
 20
125.326958
 30
0.0
 11
0.0000000000042425
 21
-0.277099996805191
 31
0.0
210
0.0
220
0.0
230
1.0
 40
0.992421
 41
0.0
 42
1.2699190447445954
  0
LINE
  5
272
100
AcDbEntity
  8
ARMATUR
390
0
  6
DURCHGEHEND
 62
     3
100
AcDbLine
 10
149.579269
 20
124.051994
 30
0.0
 11
149.579269
 21
124.078781
 31
0.0
  0
LINE
  5
273
100
AcDbEntity
  8
ARMATUR
390
0
  6
DURCHGEHEND
 62
     3
100
AcDbLine
 10
95.42926
 20
126.002007
 30
0.0
 11
95.42926
 21
124.078781
 31
0.0
  0
ARC
  5
274
100
AcDbEntity
  8
ARMATUR
390
0
  6
DURCHGEHEND
 62
     3
100
AcDbCircle
 10
95.92926
 20
126.002007
 30
0.0
 40
0.5
100
AcDbArc
 50
90.0
 51
180.0
  0
LINE
  5
275
100
AcDbEntity
  8
ARMATUR
390
0
  6
DURCHGEHEND
 62
     3
100
AcDbLine
 10
149.079269
 20
126.502007
 30
0.0
 11
95.92926
 21
126.501999
 31
0.0
  0
ARC
  5
276
100
AcDbEntity
  8
ARMATUR
390
0
  6
DURCHGEHEND
 62
     3
100
AcDbCircle
 10
149.079269
 20
126.002007
 30
0.0
 40
0.5
100
AcDbArc
 50
0.0
 51
90.0
  0
LINE
  5
277
100
AcDbEntity
  8
ARMATUR
390
0
  6
DURCHGEHEND
 62
     3
100
AcDbLine
 10
149.579269
 20
124.078789
 30
0.0
 11
149.579269
 21
126.001999
 31
0.0
  0
LINE
  5
278
100
AcDbEntity
  8
ARMATUR
390
0
  6
DURCHGEHEND
 62
     3
100
AcDbLine
 10
95.42926
 20
124.078789
 30
0.0
 11
95.42926
 21
124.051987
 31
0.0
  0
LINE
  5
279
100
AcDbEntity
  8
ARMATUR
390
0
  6
DURCHGEHEND
 62
     3
100
AcDbLine
 10
95.42926
 20
124.051994
 30
0.0
 11
149.579269
 21
124.051987
 31
0.0
  0
LINE
  5
27A
100
AcDbEntity
  8
ARMATUR
390
0
  6
DURCHGEHEND
 62
     3
100
AcDbLine
 10
149.379257
 20
124.201958
 30
0.0
 11
149.379257
 21
125.95195
 31
0.0
  0
ARC
  5
27B
100
AcDbEntity
  8
ARMATUR
390
0
  6
DURCHGEHEND
 62
     3
100
AcDbCircle
 10
148.954269
 20
125.951958
 30
0.0
 40
0.425
100
AcDbArc
 50
0.0
 51
90.0
  0
LINE
  5
27C
100
AcDbEntity
  8
ARMATUR
390
0
  6
DURCHGEHEND
 62
     3
100
AcDbLine
 10
148.954269
 20
126.377007
 30
0.0
 11
148.954269
 21
126.501999
 31
0.0
  0
LINE
  5
27D
100
AcDbEntity
  8
ARMATUR
390
0
  6
DURCHGEHEND
 62
     3
100
AcDbLine
 10
148.954269
 20
126.377007
 30
0.0
 11
96.05426
 21
126.376999
 31
0.0
  0
LINE
  5
27E
100
AcDbEntity
  8
ARMATUR
390
0
  6
DURCHGEHEND
 62
     3
100
AcDbLine
 10
95.629272
 20
125.951958
 30
0.0
 11
95.629272
 21
124.20195
 31
0.0
  0
ARC
  5
27F
100
AcDbEntity
  8
ARMATUR
390
0
  6
DURCHGEHEND
 62
     3
100
AcDbCircle
 10
96.05426
 20
125.951958
 30
0.0
 40
0.425
100
AcDbArc
 50
90.0
 51
180.0
  0
LINE
  5
280
100
AcDbEntity
  8
ARMATUR
390
0
  6
DURCHGEHEND
 62
     3
100
AcDbLine
 10
95.629272
 20
124.201958
 30
0.0
 11
149.379257
 21
124.20195
 31
0.0
  0
ARC
  5
281
100
AcDbEntity
  8
ARMATUR
390
0
  6
DURCHGEHEND
 62
     1
100
AcDbCircle
 10
102.09024
 20
138.940964
 30
0.0
 40
0.039
100
AcDbArc
 50
16.389999
 51
83.589996
  0
ARC
  5
282
100
AcDbEntity
  8
ARMATUR
390
0
  6
DURCHGEHEND
 62
     1
100
AcDbCircle
 10
100.418274
 20
138.940964
 30
0.0
 40
0.039
100
AcDbArc
 50
96.470001
 51
163.669998
  0
ARC
  5
283
100
AcDbEntity
  8
ARMATUR
390
0
  6
DURCHGEHEND
 62
     1
100
AcDbCircle
 10
101.254272
 20
131.526962
 30
0.0
 40
7.5
100
AcDbArc
 50
83.566002
 51
96.432999
  0
ARC
  5
284
100
AcDbEntity
  8
ARMATUR
390
0
  6
DURCHGEHEND
 62
     1
100
AcDbCircle
 10
144.590256
 20
138.940964
 30
0.0
 40
0.039
100
AcDbArc
 50
16.389999
 51
83.589996
  0
ARC
  5
285
100
AcDbEntity
  8
ARMATUR
390
0
  6
DURCHGEHEND
 62
     1
100
AcDbCircle
 10
142.918259
 20
138.940964
 30
0.0
 40
0.039
100
AcDbArc
 50
96.470001
 51
163.669998
  0
ARC
  5
286
100
AcDbEntity
  8
ARMATUR
390
0
  6
DURCHGEHEND
 62
     1
100
AcDbCircle
 10
143.754257
 20
131.526962
 30
0.0
 40
7.5
100
AcDbArc
 50
83.566002
 51
96.432999
  0
LINE
  5
287
100
AcDbEntity
  8
ARMATUR
390
0
  6
DURCHGEHEND
 62
     1
100
AcDbLine
 10
152.254257
 20
124.051994
 30
0.0
 11
149.579269
 21
124.051987
 31
0.0
  0
ARC
  5
288
100
AcDbEntity
  8
ARMATUR
390
0
  6
DURCHGEHEND
 62
     1
100
AcDbCircle
 10
152.254257
 20
124.252007
 30
0.0
 40
0.2
100
AcDbArc
 50
270.0
 51
360.0
  0
LINE
  5
289
100
AcDbEntity
  8
ARMATUR
390
0
  6
DURCHGEHEND
 62
     1
100
AcDbLine
 10
152.454269
 20
138.751999
 30
0.0
 11
152.454269
 21
124.251999
 31
0.0
  0
ARC
  5
28A
100
AcDbEntity
  8
ARMATUR
390
0
  6
DURCHGEHEND
 62
     1
100
AcDbCircle
 10
152.254257
 20
138.751999
 30
0.0
 40
0.2
100
AcDbArc
 50
0.0
 51
90.0
  0
LINE
  5
28B
100
AcDbEntity
  8
ARMATUR
390
0
  6
DURCHGEHEND
 62
     1
100
AcDbLine
 10
92.754272
 20
138.95195
 30
0.0
 11
152.254257
 21
138.95195
 31
0.0
  0
ARC
  5
28C
100
AcDbEntity
  8
ARMATUR
390
0
  6
DURCHGEHEND
 62
     1
100
AcDbCircle
 10
92.754272
 20
138.751999
 30
0.0
 40
0.2
100
AcDbArc
 50
90.0
 51
180.0
  0
LINE
  5
28D
100
AcDbEntity
  8
ARMATUR
390
0
  6
DURCHGEHEND
 62
     1
100
AcDbLine
 10
92.55426
 20
124.252007
 30
0.0
 11
92.55426
 21
138.751999
 31
0.0
  0
ARC
  5
28E
100
AcDbEntity
  8
ARMATUR
390
0
  6
DURCHGEHEND
 62
     1
100
AcDbCircle
 10
92.754272
 20
124.252007
 30
0.0
 40
0.2
100
AcDbArc
 50
180.0
 51
270.0
  0
LINE
  5
28F
100
AcDbEntity
  8
ARMATUR
390
0
  6
DURCHGEHEND
 62
     1
100
AcDbLine
 10
95.42926
 20
124.051994
 30
0.0
 11
92.754272
 21
124.051987
 31
0.0
  0
LINE
  5
290
100
AcDbEntity
  8
ARMATUR
390
0
  6
DURCHGEHEND
 62
     1
100
AcDbLine
 10
100.886993
 20
138.979721
 30
0.0
 11
100.41391
 21
138.979721
 31
0.0
  0
LINE
  5
291
100
AcDbEntity
  8
ARMATUR
390
0
  6
DURCHGEHEND
 62
     1
100
AcDbLine
 10
102.094635
 20
138.979721
 30
0.0
 11
100.886993
 21
138.979721
 31
0.0
  0
LINE
  5
292
100
AcDbEntity
  8
ARMATUR
390
0
  6
DURCHGEHEND
 62
     1
100
AcDbLine
 10
144.59465
 20
138.979721
 30
0.0
 11
142.913925
 21
138.979721
 31
0.0
  0
LINE
  5
293
100
AcDbEntity
  8
ACHSEN
390
0
  6
STRICHPUNKTIERT
 62
     4
100
AcDbLine
 10
122.54377
 20
85.976822
 30
0.0
 11
122.54377
 21
66.445618
 31
0.0
  0
LINE
  5
294
100
AcDbEntity
  8
BEMASSUNG
390
0
  6
DURCHGEHEND
 62
     3
100
AcDbLine
 10
92.55426
 20
152.906799
 30
0.0
 11
92.55426
 21
140.237106
 31
0.0
  0
LINE
  5
295
100
AcDbEntity
  8
BEMASSUNG
390
0
  6
DURCHGEHEND
 62
     3
100
AcDbLine
 10
152.454269
 20
151.81694
 30
0.0
 11
152.454269
 21
139.692184
 31
0.0
  0
LINE
  5
296
100
AcDbEntity
  8
BEMASSUNG
390
0
  6
DURCHGEHEND
 62
     3
100
AcDbLine
 10
157.69754
 20
148.191742
 30
0.0
 11
87.377396
 21
148.191742
 31
0.0
  0
TEXT
  5
297
100
AcDbEntity
  8
BEMASSUNG
390
0
100
AcDbText
 10
117.089241
 20
149.757202
 30
0.0
 40
7.055555
  1
240
100
AcDbText
  0
LINE
  5
298
100
AcDbEntity
  8
BEMASSUNG
390
0
  6
DURCHGEHEND
 62
     3
100
AcDbLine
 10
125.116745
 20
86.009491
 30
0.0
 11
125.116745
 21
95.840355
 31
0.0
  0
LINE
  5
299
100
AcDbEntity
  8
BEMASSUNG
390
0
  6
DURCHGEHEND
 62
     3
100
AcDbLine
 10
119.891769
 20
86.009491
 30
0.0
 11
119.891769
 21
95.840355
 31
0.0
  0
LINE
  5
29A
100
AcDbEntity
  8
BEMASSUNG
390
0
  6
DURCHGEHEND
 62
     3
100
AcDbLine
 10
148.107941
 20
93.840355
 30
0.0
 11
116.381683
 21
93.840355
 31
0.0
  0
TEXT
  5
29B
100
AcDbEntity
  8
BEMASSUNG
390
0
100
AcDbText
 10
127.343025
 20
95.547302
 30
0.0
 40
7.055555
  1
G 1/2
100
AcDbText
  0
LINE
  5
29C
100
AcDbEntity
  8
BEMASSUNG
390
0
  6
DURCHGEHEND
 62
     3
100
AcDbLine
 10
154.464661
 20
124.051987
 30
0.0
 11
172.13826
 21
124.051987
 31
0.0
  0
LINE
  5
29D
100
AcDbEntity
  8
BEMASSUNG
390
0
  6
DURCHGEHEND
 62
     3
100
AcDbLine
 10
155.367844
 20
138.95195
 30
0.0
 11
172.410721
 21
138.95195
 31
0.0
  0
LINE
  5
29E
100
AcDbEntity
  8
BEMASSUNG
390
0
  6
DURCHGEHEND
 62
     3
100
AcDbLine
 10
167.95433
 20
141.871918
 30
0.0
 11
167.95433
 21
120.483292
 31
0.0
  0
TEXT
  5
29F
100
AcDbEntity
  8
BEMASSUNG
390
0
100
AcDbText
 10
166.860443
 20
126.045219
 30
0.0
 40
7.055555
  1
60
 50
90.0
100
AcDbText
  0
LINE
  5
2A0
100
AcDbEntity
  8
BEMASSUNG
390
0
  6
DURCHGEHEND
 62
     3
100
AcDbLine
 10
90.345078
 20
145.95842
 30
0.0
 11
95.648392
 21
151.261719
 31
0.0
  0
LINE
  5
2A1
100
AcDbEntity
  8
BEMASSUNG
390
0
  6
DURCHGEHEND
 62
     3
100
AcDbLine
 10
149.99324
 20
145.663803
 30
0.0
 11
155.296555
 21
150.967102
 31
0.0
  0
LINE
  5
2A2
100
AcDbEntity
  8
BEMASSUNG
390
0
  6
DURCHGEHEND
 62
     3
100
AcDbLine
 10
117.277
 20
91.223145
 30
0.0
 11
122.580315
 21
96.526443
 31
0.0
  0
LINE
  5
2A3
100
AcDbEntity
  8
BEMASSUNG
390
0
  6
DURCHGEHEND
 62
     3
100
AcDbLine
 10
122.601608
 20
91.349495
 30
0.0
 11
127.904907
 21
96.652794
 31
0.0
  0
LINE
  5
2A4
100
AcDbEntity
  8
BEMASSUNG
390
0
  6
DURCHGEHEND
 62
     3
100
AcDbLine
 10
165.237488
 20
141.67804
 30
0.0
 11
170.540802
 21
136.374725
 31
0.0
  0
LINE
  5
2A5
100
AcDbEntity
  8
BEMASSUNG
390
0
  6
DURCHGEHEND
 62
     3
100
AcDbLine
 10
165.465149
 20
126.519524
 30
0.0
 11
170.768463
 21
121.216209
 31
0.0
  0
LINE
  5
2A6
100
AcDbEntity
  8
BEMASSUNG
390
0
  6
DURCHGEHEND
 62
     3
100
AcDbLine
 10
93.889923
 20
72.634499
 30
0.0
 11
83.358337
 21
72.634499
 31
0.0
  0
LINE
  5
2A7
100
AcDbEntity
  8
BEMASSUNG
390
0
  6
DURCHGEHEND
 62
     3
100
AcDbLine
 10
93.889923
 20
67.134499
 30
0.0
 11
83.358337
 21
67.134499
 31
0.0
  0
LINE
  5
2A8
100
AcDbEntity
  8
BEMASSUNG
390
0
  6
DURCHGEHEND
 62
     3
100
AcDbLine
 10
85.390495
 20
84.960747
 30
0.0
 11
85.390495
 21
64.300568
 31
0.0
  0
TEXT
  5
2A9
100
AcDbEntity
  8
BEMASSUNG
390
0
100
AcDbText
 10
83.79644
 20
75.749428
 30
0.0
 40
7.055555
  1
22
 50
90.0
100
AcDbText
  0
LINE
  5
2AA
100
AcDbEntity
  8
BEMASSUNG
390
0
  6
DURCHGEHEND
 62
     3
100
AcDbLine
 10
82.692734
 20
75.340012
 30
0.0
 11
87.996048
 21
70.036697
 31
0.0
  0
LINE
  5
2AB
100
AcDbEntity
  8
BEMASSUNG
390
0
  6
DURCHGEHEND
 62
     3
100
AcDbLine
 10
82.531067
 20
69.920708
 30
0.0
 11
87.834381
 21
64.617393
 31
0.0
  0
ARC
  5
2AC
100
AcDbEntity
  8
ANSICHT
390
0
  6
DURCHGEHEND
 62
     1
100
AcDbCircle
 10
204.494431
 20
138.940964
 30
0.0
 40
0.039
100
AcDbArc
 50
16.389999
 51
83.589996
  0
ARC
  5
2AD
100
AcDbEntity
  8
ANSICHT
390
0
  6
DURCHGEHEND
 62
     1
100
AcDbCircle
 10
202.822433
 20
138.940964
 30
0.0
 40
0.039
100
AcDbArc
 50
96.323997
 51
163.524002
  0
ARC
  5
2AE
100
AcDbEntity
  8
ANSICHT
390
0
  6
DURCHGEHEND
 62
     1
100
AcDbCircle
 10
203.658432
 20
131.526962
 30
0.0
 40
7.5
100
AcDbArc
 50
83.566002
 51
96.432999
  0
LINE
  5
2AF
100
AcDbEntity
  8
ANSICHT
390
0
  6
DURCHGEHEND
 62
     1
100
AcDbLine
 10
190.433456
 20
134.114487
 30
0.0
 11
190.183456
 21
133.864487
 31
0.0
  0
LINE
  5
2B0
100
AcDbEntity
  8
ANSICHT
390
0
  6
DURCHGEHEND
 62
     1
100
AcDbLine
 10
190.183456
 20
129.13945
 30
0.0
 11
190.433456
 21
128.88945
 31
0.0
  0
LINE
  5
2B1
100
AcDbEntity
  8
ANSICHT
390
0
  6
DURCHGEHEND
 62
     1
100
AcDbLine
 10
191.933456
 20
134.114487
 30
0.0
 11
190.433456
 21
134.114487
 31
0.0
  0
LINE
  5
2B2
100
AcDbEntity
  8
ANSICHT
390
0
  6
DURCHGEHEND
 62
     1
100
AcDbLine
 10
190.433456
 20
128.88945
 30
0.0
 11
191.933456
 21
128.88945
 31
0.0
  0
LINE
  5
2B3
100
AcDbEntity
  8
ANSICHT
390
0
  6
DURCHGEHEND
 62
     1
100
AcDbLine
 10
193.933456
 20
134.114487
 30
0.0
 11
192.433456
 21
134.114487
 31
0.0
  0
LINE
  5
2B4
100
AcDbEntity
  8
ANSICHT
390
0
  6
DURCHGEHEND
 62
     1
100
AcDbLine
 10
192.433456
 20
128.88945
 30
0.0
 11
193.933456
 21
128.88945
 31
0.0
  0
LINE
  5
2B5
100
AcDbEntity
  8
ANSICHT
390
0
  6
DURCHGEHEND
 62
     1
100
AcDbLine
 10
195.933456
 20
134.114487
 30
0.0
 11
194.433456
 21
134.114487
 31
0.0
  0
LINE
  5
2B6
100
AcDbEntity
  8
ANSICHT
390
0
  6
DURCHGEHEND
 62
     1
100
AcDbLine
 10
194.433456
 20
128.88945
 30
0.0
 11
195.933456
 21
128.88945
 31
0.0
  0
LINE
  5
2B7
100
AcDbEntity
  8
ANSICHT
390
0
  6
DURCHGEHEND
 62
     1
100
AcDbLine
 10
197.933456
 20
134.114487
 30
0.0
 11
196.433456
 21
134.114487
 31
0.0
  0
LINE
  5
2B8
100
AcDbEntity
  8
ANSICHT
390
0
  6
DURCHGEHEND
 62
     1
100
AcDbLine
 10
196.433456
 20
128.88945
 30
0.0
 11
197.933456
 21
128.88945
 31
0.0
  0
LINE
  5
2B9
100
AcDbEntity
  8
ANSICHT
390
0
  6
DURCHGEHEND
 62
     1
100
AcDbLine
 10
202.558456
 20
134.114487
 30
0.0
 11
198.433456
 21
134.114487
 31
0.0
  0
LINE
  5
2BA
100
AcDbEntity
  8
ANSICHT
390
0
  6
DURCHGEHEND
 62
     1
100
AcDbLine
 10
198.433456
 20
128.88945
 30
0.0
 11
202.558456
 21
128.88945
 31
0.0
  0
ARC
  5
2BB
100
AcDbEntity
  8
ANSICHT
390
0
  6
DURCHGEHEND
 62
     1
100
AcDbCircle
 10
192.308456
 20
133.876999
 30
0.0
 40
0.125
100
AcDbArc
 50
270.0
 51
360.0
  0
ARC
  5
2BC
100
AcDbEntity
  8
ANSICHT
390
0
  6
DURCHGEHEND
 62
     1
100
AcDbCircle
 10
192.308456
 20
129.126999
 30
0.0
 40
0.125
100
AcDbArc
 50
0.0
 51
90.0
  0
ARC
  5
2BD
100
AcDbEntity
  8
ANSICHT
390
0
  6
DURCHGEHEND
 62
     1
100
AcDbCircle
 10
192.058456
 20
133.876999
 30
0.0
 40
0.125
100
AcDbArc
 50
180.0
 51
270.0
  0
ARC
  5
2BE
100
AcDbEntity
  8
ANSICHT
390
0
  6
DURCHGEHEND
 62
     1
100
AcDbCircle
 10
192.058456
 20
129.126999
 30
0.0
 40
0.125
100
AcDbArc
 50
90.0
 51
180.0
  0
ARC
  5
2BF
100
AcDbEntity
  8
ANSICHT
390
0
  6
DURCHGEHEND
 62
     1
100
AcDbCircle
 10
194.058456
 20
133.876999
 30
0.0
 40
0.125
100
AcDbArc
 50
180.0
 51
270.0
  0
ARC
  5
2C0
100
AcDbEntity
  8
ANSICHT
390
0
  6
DURCHGEHEND
 62
     1
100
AcDbCircle
 10
194.058456
 20
129.126999
 30
0.0
 40
0.125
100
AcDbArc
 50
90.0
 51
180.0
  0
ARC
  5
2C1
100
AcDbEntity
  8
ANSICHT
390
0
  6
DURCHGEHEND
 62
     1
100
AcDbCircle
 10
194.308456
 20
133.876999
 30
0.0
 40
0.125
100
AcDbArc
 50
270.0
 51
360.0
  0
ARC
  5
2C2
100
AcDbEntity
  8
ANSICHT
390
0
  6
DURCHGEHEND
 62
     1
100
AcDbCircle
 10
194.308456
 20
129.126999
 30
0.0
 40
0.125
100
AcDbArc
 50
0.0
 51
90.0
  0
ARC
  5
2C3
100
AcDbEntity
  8
ANSICHT
390
0
  6
DURCHGEHEND
 62
     1
100
AcDbCircle
 10
196.308456
 20
133.876999
 30
0.0
 40
0.125
100
AcDbArc
 50
270.0
 51
360.0
  0
ARC
  5
2C4
100
AcDbEntity
  8
ANSICHT
390
0
  6
DURCHGEHEND
 62
     1
100
AcDbCircle
 10
196.308456
 20
129.126999
 30
0.0
 40
0.125
100
AcDbArc
 50
0.0
 51
90.0
  0
ARC
  5
2C5
100
AcDbEntity
  8
ANSICHT
390
0
  6
DURCHGEHEND
 62
     1
100
AcDbCircle
 10
196.058456
 20
133.876999
 30
0.0
 40
0.125
100
AcDbArc
 50
180.0
 51
270.0
  0
ARC
  5
2C6
100
AcDbEntity
  8
ANSICHT
390
0
  6
DURCHGEHEND
 62
     1
100
AcDbCircle
 10
196.058456
 20
129.126999
 30
0.0
 40
0.125
100
AcDbArc
 50
90.0
 51
180.0
  0
ARC
  5
2C7
100
AcDbEntity
  8
ANSICHT
390
0
  6
DURCHGEHEND
 62
     1
100
AcDbCircle
 10
198.058456
 20
133.876999
 30
0.0
 40
0.125
100
AcDbArc
 50
180.0
 51
270.0
  0
ARC
  5
2C8
100
AcDbEntity
  8
ANSICHT
390
0
  6
DURCHGEHEND
 62
     1
100
AcDbCircle
 10
198.058456
 20
129.126999
 30
0.0
 40
0.125
100
AcDbArc
 50
90.0
 51
180.0
  0
ARC
  5
2C9
100
AcDbEntity
  8
ANSICHT
390
0
  6
DURCHGEHEND
 62
     1
100
AcDbCircle
 10
198.308456
 20
133.876999
 30
0.0
 40
0.125
100
AcDbArc
 50
270.0
 51
360.0
  0
ARC
  5
2CA
100
AcDbEntity
  8
ANSICHT
390
0
  6
DURCHGEHEND
 62
     1
100
AcDbCircle
 10
198.308456
 20
129.126999
 30
0.0
 40
0.125
100
AcDbArc
 50
0.0
 51
90.0
  0
LINE
  5
2CB
100
AcDbEntity
  8
ANSICHT
390
0
  6
DURCHGEHEND
 62
     1
100
AcDbLine
 10
192.308456
 20
133.751999
 30
0.0
 11
192.058456
 21
133.751999
 31
0.0
  0
LINE
  5
2CC
100
AcDbEntity
  8
ANSICHT
390
0
  6
DURCHGEHEND
 62
     1
100
AcDbLine
 10
192.058456
 20
129.251999
 30
0.0
 11
192.308456
 21
129.251999
 31
0.0
  0
LINE
  5
2CD
100
AcDbEntity
  8
ANSICHT
390
0
  6
DURCHGEHEND
 62
     1
100
AcDbLine
 10
194.308456
 20
133.751999
 30
0.0
 11
194.058456
 21
133.751999
 31
0.0
  0
LINE
  5
2CE
100
AcDbEntity
  8
ANSICHT
390
0
  6
DURCHGEHEND
 62
     1
100
AcDbLine
 10
194.058456
 20
129.251999
 30
0.0
 11
194.308456
 21
129.251999
 31
0.0
  0
LINE
  5
2CF
100
AcDbEntity
  8
ANSICHT
390
0
  6
DURCHGEHEND
 62
     1
100
AcDbLine
 10
196.308456
 20
133.751999
 30
0.0
 11
196.058456
 21
133.751999
 31
0.0
  0
LINE
  5
2D0
100
AcDbEntity
  8
ANSICHT
390
0
  6
DURCHGEHEND
 62
     1
100
AcDbLine
 10
196.058456
 20
129.251999
 30
0.0
 11
196.308456
 21
129.251999
 31
0.0
  0
LINE
  5
2D1
100
AcDbEntity
  8
ANSICHT
390
0
  6
DURCHGEHEND
 62
     1
100
AcDbLine
 10
198.308456
 20
133.751999
 30
0.0
 11
198.058456
 21
133.751999
 31
0.0
  0
LINE
  5
2D2
100
AcDbEntity
  8
ANSICHT
390
0
  6
DURCHGEHEND
 62
     1
100
AcDbLine
 10
198.058456
 20
129.251999
 30
0.0
 11
198.308456
 21
129.251999
 31
0.0
  0
LINE
  5
2D3
100
AcDbEntity
  8
ANSICHT
390
0
  6
DURCHGEHEND
 62
     1
100
AcDbLine
 10
208.058456
 20
124.252007
 30
0.0
 11
208.058456
 21
124.20195
 31
0.0
  0
ARC
  5
2D4
100
AcDbEntity
  8
ANSICHT
390
0
  6
DURCHGEHEND
 62
     1
100
AcDbCircle
 10
207.933456
 20
124.201958
 30
0.0
 40
0.125
100
AcDbArc
 50
270.0
 51
360.0
  0
LINE
  5
2D5
100
AcDbEntity
  8
ANSICHT
390
0
  6
DURCHGEHEND
 62
     1
100
AcDbLine
 10
190.433456
 20
134.114487
 30
0.0
 11
190.433456
 21
128.88945
 31
0.0
  0
LINE
  5
2D6
100
AcDbEntity
  8
ANSICHT
390
0
  6
DURCHGEHEND
 62
     1
100
AcDbLine
 10
190.183456
 20
129.13945
 30
0.0
 11
190.183456
 21
133.864487
 31
0.0
  0
LINE
  5
2D7
100
AcDbEntity
  8
ANSICHT
390
0
  6
DURCHGEHEND
 62
     1
100
AcDbLine
 10
191.933456
 20
133.876999
 30
0.0
 11
191.933456
 21
128.88945
 31
0.0
  0
LINE
  5
2D8
100
AcDbEntity
  8
ANSICHT
390
0
  6
DURCHGEHEND
 62
     1
100
AcDbLine
 10
191.933456
 20
134.114487
 30
0.0
 11
191.933456
 21
133.876999
 31
0.0
  0
LINE
  5
2D9
100
AcDbEntity
  8
ANSICHT
390
0
  6
DURCHGEHEND
 62
     1
100
AcDbLine
 10
192.433456
 20
133.876999
 30
0.0
 11
192.433456
 21
128.88945
 31
0.0
  0
LINE
  5
2DA
100
AcDbEntity
  8
ANSICHT
390
0
  6
DURCHGEHEND
 62
     1
100
AcDbLine
 10
192.433456
 20
134.114487
 30
0.0
 11
192.433456
 21
133.850327
 31
0.0
  0
LINE
  5
2DB
100
AcDbEntity
  8
ANSICHT
390
0
  6
DURCHGEHEND
 62
     1
100
AcDbLine
 10
193.933456
 20
133.876999
 30
0.0
 11
193.933456
 21
128.88945
 31
0.0
  0
LINE
  5
2DC
100
AcDbEntity
  8
ANSICHT
390
0
  6
DURCHGEHEND
 62
     1
100
AcDbLine
 10
193.933456
 20
134.114487
 30
0.0
 11
193.933456
 21
133.876999
 31
0.0
  0
LINE
  5
2DD
100
AcDbEntity
  8
ANSICHT
390
0
  6
DURCHGEHEND
 62
     1
100
AcDbLine
 10
194.433456
 20
133.876999
 30
0.0
 11
194.433456
 21
128.88945
 31
0.0
  0
LINE
  5
2DE
100
AcDbEntity
  8
ANSICHT
390
0
  6
DURCHGEHEND
 62
     1
100
AcDbLine
 10
194.433456
 20
134.114487
 30
0.0
 11
194.433456
 21
133.876999
 31
0.0
  0
LINE
  5
2DF
100
AcDbEntity
  8
ANSICHT
390
0
  6
DURCHGEHEND
 62
     1
100
AcDbLine
 10
195.933456
 20
133.78862
 30
0.0
 11
195.933456
 21
128.88945
 31
0.0
  0
LINE
  5
2E0
100
AcDbEntity
  8
ANSICHT
390
0
  6
DURCHGEHEND
 62
     1
100
AcDbLine
 10
195.933456
 20
134.114487
 30
0.0
 11
195.933456
 21
133.876999
 31
0.0
  0
LINE
  5
2E1
100
AcDbEntity
  8
ANSICHT
390
0
  6
DURCHGEHEND
 62
     1
100
AcDbLine
 10
197.933456
 20
133.845352
 30
0.0
 11
197.933456
 21
128.88945
 31
0.0
  0
LINE
  5
2E2
100
AcDbEntity
  8
ANSICHT
390
0
  6
DURCHGEHEND
 62
     1
100
AcDbLine
 10
197.933456
 20
134.114487
 30
0.0
 11
197.933456
 21
133.845352
 31
0.0
  0
LINE
  5
2E3
100
AcDbEntity
  8
ANSICHT
390
0
  6
DURCHGEHEND
 62
     1
100
AcDbLine
 10
196.433456
 20
133.876999
 30
0.0
 11
196.433456
 21
128.88945
 31
0.0
  0
LINE
  5
2E4
100
AcDbEntity
  8
ANSICHT
390
0
  6
DURCHGEHEND
 62
     1
100
AcDbLine
 10
196.433456
 20
134.114487
 30
0.0
 11
196.433456
 21
133.876999
 31
0.0
  0
LINE
  5
2E5
100
AcDbEntity
  8
ANSICHT
390
0
  6
DURCHGEHEND
 62
     1
100
AcDbLine
 10
198.433456
 20
133.995743
 30
0.0
 11
198.433456
 21
128.88945
 31
0.0
  0
LINE
  5
2E6
100
AcDbEntity
  8
ANSICHT
390
0
  6
DURCHGEHEND
 62
     1
100
AcDbLine
 10
198.433456
 20
134.114487
 30
0.0
 11
198.433456
 21
133.876999
 31
0.0
  0
LINE
  5
2E7
100
AcDbEntity
  8
ANSICHT
390
0
  6
DURCHGEHEND
 62
     1
100
AcDbLine
 10
202.558456
 20
138.751999
 30
0.0
 11
202.558456
 21
124.251999
 31
0.0
  0
LINE
  5
2E8
100
AcDbEntity
  8
ANSICHT
390
0
  6
DURCHGEHEND
 62
     1
100
AcDbLine
 10
202.558456
 20
124.252007
 30
0.0
 11
202.558456
 21
124.051987
 31
0.0
  0
LINE
  5
2E9
100
AcDbEntity
  8
ANSICHT
390
0
  6
DURCHGEHEND
 62
     1
100
AcDbLine
 10
207.858444
 20
124.051994
 30
0.0
 11
202.558456
 21
124.051987
 31
0.0
  0
LINE
  5
2EA
100
AcDbEntity
  8
ANSICHT
390
0
  6
DURCHGEHEND
 62
     1
100
AcDbLine
 10
207.858444
 20
138.95195
 30
0.0
 11
202.558456
 21
138.95195
 31
0.0
  0
LINE
  5
2EB
100
AcDbEntity
  8
ANSICHT
390
0
  6
DURCHGEHEND
 62
     1
100
AcDbLine
 10
202.558456
 20
138.95195
 30
0.0
 11
202.558456
 21
138.751999
 31
0.0
  0
ARC
  5
2EC
100
AcDbEntity
  8
ANSICHT
390
0
  6
DURCHGEHEND
 62
     1
100
AcDbCircle
 10
207.858444
 20
124.252007
 30
0.0
 40
0.2
100
AcDbArc
 50
270.0
 51
360.0
  0
LINE
  5
2ED
100
AcDbEntity
  8
ANSICHT
390
0
  6
DURCHGEHEND
 62
     1
100
AcDbLine
 10
208.058456
 20
138.751999
 30
0.0
 11
208.058456
 21
124.251999
 31
0.0
  0
ARC
  5
2EE
100
AcDbEntity
  8
ANSICHT
390
0
  6
DURCHGEHEND
 62
     1
100
AcDbCircle
 10
207.858444
 20
138.751999
 30
0.0
 40
0.2
100
AcDbArc
 50
0.0
 51
90.0
  0
LINE
  5
2EF
100
AcDbEntity
  8
ANSICHT
390
0
  6
DURCHGEHEND
 62
     1
100
AcDbLine
 10
204.414291
 20
138.979721
 30
0.0
 11
202.818039
 21
138.979721
 31
0.0
  0
LINE
  5
2F0
100
AcDbEntity
  8
ANSICHT
390
0
  6
DURCHGEHEND
 62
     1
100
AcDbLine
 10
204.498764
 20
138.979721
 30
0.0
 11
204.414291
 21
138.979721
 31
0.0
  0
LINE
  5
2F1
100
AcDbEntity
  8
ANSICHT
390
0
  6
STRICHPUNKTIERT
 62
     4
100
AcDbLine
 10
189.587204
 20
131.504288
 30
0.0
 11
209.42276
 21
131.504288
 31
0.0
  0
ENDSEC
  0
SECTION
  2
OBJECTS
  0
DICTIONARY
  5
19
100
AcDbDictionary
280
     0
281
     1
  3
ACAD_GROUP
350
1A
  3
ACAD_MLINESTYLE
350
1B
  3
ACAD_LAYOUT
350
1E
  3
ACAD_PLOTSETTINGS
350
22
  3
ACAD_PLOTSTYLENAME
350
1F
  3
ACAD_WIPEOUT_VARS
350
23
  0
DICTIONARY
  5
1A
102
{ACAD_REACTORS
330
19
102
}
100
AcDbDictionary
280
     0
281
     1
  0
DICTIONARY
  5
1B
102
{ACAD_REACTORS
330
19
102
}
100
AcDbDictionary
280
     0
281
     1
  3
Standard
350
1C
  0
MLINESTYLE
  5
1C
102
{ACAD_REACTORS
330
1B
102
}
100
AcDbMlineStyle
  2
Standard
 70
     0
  3

 62
     0
 51
90.0
 52
90.0
 71
     2
 49
0.5
 62
   256
  6
ByLayer
 49
-0.5
 62
   256
  6
ByLayer
  0
ACDBDICTIONARYWDFLT
  5
1F
102
{ACAD_REACTORS
330
19
102
}
100
AcDbDictionary
281
     1
  3
Normal
350
1D
100
AcDbDictionaryWithDefault
340
1D
  0
ACDBPLACEHOLDER
  5
1D
102
{ACAD_REACTORS
330
1F
102
}
  0
LAYOUT
  5
20
102
{ACAD_REACTORS
330
1E
102
}
100
AcDbPlotSettings
  1

  2

  4

  6

 40
0.0
 41
0.0
 42
0.0
 43
0.0
 44
0.0
 45
0.0
 46
0.0
 47
0.0
 48
0.0
 49
0.0
140
0.0
141
0.0
142
1.0
143
1.0
 70
  1024
 72
     0
 73
     0
 74
     0
  7

 75
     0
147
1.0
148
0.0
149
0.0
100
AcDbLayout
  1
Model
 70
     0
 71
     0
 10
0.0
 20
0.0
 11
0.0
 21
0.0
 12
0.0
 22
0.0
 32
0.0
 14
0.0
 24
0.0
 34
0.0
 15
0.0
 25
0.0
 35
0.0
146
0.0
 13
0.0
 23
0.0
 33
0.0
 16
0.0
 26
0.0
 36
0.0
 17
0.0
 27
0.0
 37
0.0
 76
     0
330
A
331
0
345
0
346
0
  0
LAYOUT
  5
21
102
{ACAD_REACTORS
330
1E
102
}
100
AcDbPlotSettings
  1

  2

  4

  6

 40
0.0
 41
0.0
 42
0.0
 43
0.0
 44
0.0
 45
0.0
 46
0.0
 47
0.0
 48
0.0
 49
0.0
140
0.0
141
0.0
142
1.0
143
1.0
 70
     0
 72
     0
 73
     0
 74
     0
  7

 75
     0
147
1.0
148
0.0
149
0.0
100
AcDbLayout
  1
Layout1
 70
     0
 71
     0
 10
0.0
 20
0.0
 11
0.0
 21
0.0
 12
0.0
 22
0.0
 32
0.0
 14
0.0
 24
0.0
 34
0.0
 15
0.0
 25
0.0
 35
0.0
146
0.0
 13
0.0
 23
0.0
 33
0.0
 16
0.0
 26
0.0
 36
0.0
 17
0.0
 27
0.0
 37
0.0
 76
     0
330
B
331
0
345
0
346
0
  0
DICTIONARY
  5
1E
102
{ACAD_REACTORS
330
19
102
}
100
AcDbDictionary
280
     0
281
     1
  3
Layout1
350
21
  3
Model
350
20
  0
DICTIONARY
  5
22
102
{ACAD_REACTORS
330
19
102
}
100
AcDbDictionary
280
     0
281
     1
  0
WIPEOUTVARIABLES
  5
23
100
AcDbWipeoutVariables
 70
     1
  0
ENDSEC
  0
EOF
