  0
SECTION
  2
HEADER
  9
$ACADVER
  1
AC1015
  9
$ACADMAINTVER
 70
     6
  9
$DWGCODEPAGE
  3
ANSI_1252
  9
$INSBASE
 10
0.0
 20
0.0
 30
0.0
  9
$EXTMIN
 10
41.030941
 20
3.180404
 30
0.0
  9
$EXTMAX
 10
293.614227
 20
150.218689
 30
0.0
  9
$LIMMIN
 10
0.0
 20
0.0
  9
$LIMMAX
 10
0.0
 20
0.0
  9
$ORTHOMODE
 70
     0
  9
$REGENMODE
 70
     1
  9
$FILLMODE
 70
     1
  9
$QTEXTMODE
 70
     0
  9
$MIRRTEXT
 70
     1
  9
$LTSCALE
 40
1.0
  9
$ATTMODE
 70
     1
  9
$TEXTSIZE
 40
0.2
  9
$TRACEWID
 40
0.05
  9
$TEXTSTYLE
  7
Standard
  9
$CLAYER
  8
0
  9
$CELTYPE
  6
Continuous
  9
$CECOLOR
 62
   256
  9
$CELTSCALE
 40
1.0
  9
$DISPSILH
 70
     0
  9
$DIMSCALE
 40
1.0
  9
$DIMASZ
 40
0.18
  9
$DIMEXO
 40
0.0625
  9
$DIMDLI
 40
0.38
  9
$DIMRND
 40
0.0
  9
$DIMDLE
 40
0.0
  9
$DIMEXE
 40
0.18
  9
$DIMTP
 40
0.0
  9
$DIMTM
 40
0.0
  9
$DIMTXT
 40
0.18
  9
$DIMCEN
 40
0.09
  9
$DIMTSZ
 40
0.0
  9
$DIMTOL
 70
     0
  9
$DIMLIM
 70
     0
  9
$DIMTIH
 70
     1
  9
$DIMTOH
 70
     1
  9
$DIMSE1
 70
     0
  9
$DIMSE2
 70
     0
  9
$DIMTAD
 70
     0
  9
$DIMZIN
 70
     0
  9
$DIMBLK
  1

  9
$DIMASO
 70
     1
  9
$DIMSHO
 70
     1
  9
$DIMPOST
  1

  9
$DIMAPOST
  1

  9
$DIMALT
 70
     0
  9
$DIMALTD
 70
     2
  9
$DIMALTF
 40
25.4
  9
$DIMLFAC
 40
1.0
  9
$DIMTOFL
 70
     0
  9
$DIMTVP
 40
0.0
  9
$DIMTIX
 70
     0
  9
$DIMSOXD
 70
     0
  9
$DIMSAH
 70
     0
  9
$DIMBLK1
  1

  9
$DIMBLK2
  1

  9
$DIMSTYLE
  2
Standard
  9
$DIMCLRD
 70
     0
  9
$DIMCLRE
 70
     0
  9
$DIMCLRT
 70
     0
  9
$DIMTFAC
 40
1.0
  9
$DIMGAP
 40
0.09
  9
$DIMJUST
 70
     0
  9
$DIMSD1
 70
     0
  9
$DIMSD2
 70
     0
  9
$DIMTOLJ
 70
     1
  9
$DIMTZIN
 70
     0
  9
$DIMALTZ
 70
     0
  9
$DIMALTTZ
 70
     0
  9
$DIMUPT
 70
     0
  9
$DIMDEC
 70
     4
  9
$DIMTDEC
 70
     4
  9
$DIMALTU
 70
     2
  9
$DIMALTTD
 70
     2
  9
$DIMTXSTY
  7
Standard
  9
$DIMAUNIT
 70
     0
  9
$DIMADEC
 70
     0
  9
$DIMALTRND
 40
0.0
  9
$DIMAZIN
 70
     0
  9
$DIMDSEP
 70
     0
  9
$DIMATFIT
 70
     3
  9
$DIMFRAC
 70
     0
  9
$DIMLDRBLK
  1

  9
$DIMLUNIT
 70
     2
  9
$DIMLWD
 70
     0
  9
$DIMLWE
 70
     0
  9
$DIMTMOVE
 70
     0
  9
$LUNITS
 70
     2
  9
$LUPREC
 70
     4
  9
$SKETCHINC
 40
0.1
  9
$FILLETRAD
 40
0.0
  9
$AUNITS
 70
     0
  9
$AUPREC
 70
     0
  9
$MENU
  1
acad
  9
$ELEVATION
 40
0.0
  9
$PELEVATION
 40
0.0
  9
$THICKNESS
 40
0.0
  9
$LIMCHECK
 70
     0
  9
$CHAMFERA
 40
0.0
  9
$CHAMFERB
 40
0.0
  9
$CHAMFERC
 40
0.0
  9
$CHAMFERD
 40
0.0
  9
$SKPOLY
 70
     0
  9
$TDCREATE
 40
0.000000000
  9
$TDUCREATE
 40
0.000000000
  9
$TDUPDATE
 40
0.000000000
  9
$TDUUPDATE
 40
0.000000000
  9
$TDINDWG
 40
0.0000000000
  9
$TDUSRTIMER
 40
0.0000000000
  9
$USRTIMER
 70
     1
  9
$ANGBASE
 50
0.0
  9
$ANGDIR
 70
     0
  9
$PDMODE
 70
     0
  9
$PDSIZE
 40
0.0
  9
$PLINEWID
 40
0.0
  9
$SPLFRAME
 70
     0
  9
$SPLINETYPE
 70
     6
  9
$SPLINESEGS
 70
     8
  9
$HANDSEED
  5
1FB
  9
$SURFTAB1
 70
     6
  9
$SURFTAB2
 70
     6
  9
$SURFTYPE
 70
     6
  9
$SURFU
 70
     6
  9
$SURFV
 70
     6
  9
$UCSBASE
  2

  9
$UCSNAME
  2

  9
$UCSORG
 10
0.0
 20
0.0
 30
0.0
  9
$UCSXDIR
 10
1.0
 20
0.0
 30
0.0
  9
$UCSYDIR
 10
0.0
 20
1.0
 30
0.0
  9
$UCSORTHOREF
  2

  9
$UCSORTHOVIEW
 70
     0
  9
$UCSORGTOP
 10
0.0
 20
0.0
 30
0.0
  9
$UCSORGBOTTOM
 10
0.0
 20
0.0
 30
0.0
  9
$UCSORGLEFT
 10
0.0
 20
0.0
 30
0.0
  9
$UCSORGRIGHT
 10
0.0
 20
0.0
 30
0.0
  9
$UCSORGFRONT
 10
0.0
 20
0.0
 30
0.0
  9
$UCSORGBACK
 10
0.0
 20
0.0
 30
0.0
  9
$PUCSBASE
  2

  9
$PUCSNAME
  2

  9
$PUCSORG
 10
0.0
 20
0.0
 30
0.0
  9
$PUCSXDIR
 10
1.0
 20
0.0
 30
0.0
  9
$PUCSYDIR
 10
0.0
 20
1.0
 30
0.0
  9
$PUCSORTHOREF
  2

  9
$PUCSORTHOVIEW
 70
     0
  9
$PUCSORGTOP
 10
0.0
 20
0.0
 30
0.0
  9
$PUCSORGBOTTOM
 10
0.0
 20
0.0
 30
0.0
  9
$PUCSORGLEFT
 10
0.0
 20
0.0
 30
0.0
  9
$PUCSORGRIGHT
 10
0.0
 20
0.0
 30
0.0
  9
$PUCSORGFRONT
 10
0.0
 20
0.0
 30
0.0
  9
$PUCSORGBACK
 10
0.0
 20
0.0
 30
0.0
  9
$USERI1
 70
     0
  9
$USERI2
 70
     0
  9
$USERI3
 70
     0
  9
$USERI4
 70
     0
  9
$USERI5
 70
     0
  9
$USERR1
 40
0.0
  9
$USERR2
 40
0.0
  9
$USERR3
 40
0.0
  9
$USERR4
 40
0.0
  9
$USERR5
 40
0.0
  9
$WORLDVIEW
 70
     1
  9
$SHADEDGE
 70
     3
  9
$SHADEDIF
 70
    70
  9
$TILEMODE
 70
     1
  9
$MAXACTVP
 70
    16
  9
$PINSBASE
 10
0.0
 20
0.0
 30
0.0
  9
$PLIMCHECK
 70
     0
  9
$PEXTMIN
 10
1.000000E+20
 20
1.000000E+20
 30
1.000000E+20
  9
$PEXTMAX
 10
-1.000000E+20
 20
-1.000000E+20
 30
-1.000000E+20
  9
$PLIMMIN
 10
0.0
 20
0.0
  9
$PLIMMAX
 10
12.0
 20
9.0
  9
$UNITMODE
 70
     0
  9
$VISRETAIN
 70
     0
  9
$PLINEGEN
 70
     1
  9
$PSLTSCALE
 70
     0
  9
$TREEDEPTH
 70
  3020
  9
$CMLSTYLE
  2
Standard
  9
$CMLJUST
 70
     0
  9
$CMLSCALE
 40
1.0
  9
$PROXYGRAPHICS
 70
     0
  9
$MEASUREMENT
 70
     0
  9
$CELWEIGHT
370
     0
  9
$ENDCAPS
280
     0
  9
$JOINSTYLE
280
     0
  9
$LWDISPLAY
290
     0
  9
$INSUNITS
 70
     0
  9
$HYPERLINKBASE
  1

  9
$STYLESHEET
  1

  9
$XEDIT
290
     1
  9
$CEPSNTYPE
380
     0
  9
$PSTYLEMODE
290
     1
  9
$FINGERPRINTGUID
  2

  9
$VERSIONGUID
  2

  9
$EXTNAMES
290
     1
  9
$PSVPSCALE
 40
0.0
  0
ENDSEC
  0
SECTION
  2
CLASSES
  0
CLASS
  1
LWPOLYLINE
  2
AcDbPolyline
  3
AutoCAD 2000
 90
        0
280
     0
281
     1
  0
CLASS
  1
IMAGE
  2
AcDbRasterImage
  3
ISM
 90
      127
280
     0
281
     1
  0
CLASS
  1
OLE2FRAME
  2
AcDbOle2Frame
  3
AutoCAD 2000
 90
        0
280
     0
281
     1
  0
CLASS
  1
HATCH
  2
AcDbHatch
  3
AutoCAD 2000
 90
        0
280
     0
281
     1
  0
CLASS
  1
DICTIONARYVAR
  2
AcDbDictionaryVar
  3
AutoCAD 2000
 90
        0
280
     0
281
     0
  0
CLASS
  1
RASTERVARIABLES
  2
AcDbRasterVariables
  3
ISM
 90
        0
280
     0
281
     0
  0
CLASS
  1
IMAGEDEF
  2
AcDbRasterImageDef
  3
ISM
 90
        0
280
     0
281
     0
  0
CLASS
  1
IMAGEDEF_REACTOR
  2
AcDbRasterImageDefReactor
  3
ISM
 90
        1
280
     0
281
     0
  0
CLASS
  1
IDBUFFER
  2
AcDbIdBuffer
  3
AutoCAD 2000
 90
        0
280
     0
281
     0
  0
CLASS
  1
SPATIAL_FILTER
  2
AcDbSpatialFilter
  3
AutoCAD 2000
 90
        0
280
     0
281
     0
  0
CLASS
  1
XRECORD
  2
AcDbXrecord
  3
AutoCAD 2000
 90
        0
280
     0
281
     0
  0
CLASS
  1
SORTENTSTABLE
  2
AcDbSortentsTable
  3
AutoCAD 2000
 90
        0
280
     0
281
     0
  0
CLASS
  1
LAYER_INDEX
  2
AcDbLayerIndex
  3
AutoCAD 2000
 90
        0
280
     0
281
     0
  0
CLASS
  1
SPATIAL_INDEX
  2
AcDbSpatialIndex
  3
AutoCAD 2000
 90
        0
280
     0
281
     0
  0
CLASS
  1
OBJECT_PTR
  2
CAseDLPNTableRecord
  3
"ASE-LPNTableRecord"
 90
        1
280
     0
281
     0
  0
CLASS
  1
LAYOUT
  2
AcDbLayout
  3
AutoCAD 2000
 90
        0
280
     0
281
     0
  0
CLASS
  1
PLOTSETTINGS
  2
AcDbPlotSettings
  3
AutoCAD 2000
 90
        0
280
     0
281
     0
  0
CLASS
  1
ACDBDICTIONARYWDFLT
  2
AcDbDictionaryWithDefault
  3
AutoCAD 2000
 90
        0
280
     0
281
     0
  0
CLASS
  1
ACDBPLACEHOLDER
  2
AcDbPlaceHolder
  3
AutoCAD 2000
 90
        0
280
     0
281
     0
  0
CLASS
  1
VBA_PROJECT
  2
AcDbVbaProject
  3
acadvba
 90
        0
280
     0
281
     0
  0
CLASS
  1
WIPEOUT
  2
AcDbWipeout
  3
WipeOut|AutoCAD Express Tool|expresstools@autodesk.com
 90
      127
280
     0
281
     1
  0
CLASS
  1
WIPEOUTVARIABLES
  2
AcDbWipeoutVariables
  3
WipeOut|AutoCAD Express Tool|expresstools@autodesk.com
 90
        0
280
     0
281
     0
  0
CLASS
  1
RTEXT
  2
RText
  3
RText|AutoCAD Express Tool|expresstools@autodesk.com
 90
        0
280
     0
281
     1
  0
CLASS
  1
ARCALIGNEDTEXT
  2
AcDbArcAlignedText
  3
ATEXT|AutoCAD Express Tool|expresstools@autodesk.com
 90
        0
280
     0
281
     1
  0
ENDSEC
  0
SECTION
  2
TABLES
  0
TABLE
  2
VPORT
  5
7
100
AcDbSymbolTable
 70
     1
  0
VPORT
  5
15
100
AcDbSymbolTableRecord
100
AcDbViewportTableRecord
  2
*ACTIVE
 70
     0
 10
0.0
 20
0.0
 11
1.0
 21
1.0
 12
6.591288
 22
4.579184
 13
0.0
 23
0.0
 14
1.0
 24
1.0
 15
0.0
 25
0.0
 16
0.0
 26
0.0
 36
1.0
 17
0.0
 27
0.0
 37
0.0
 40
9.158369
 41
0.688564
 42
50.0
 43
0.0
 44
0.0
 50
0.0
 51
0.0
 71
     0
 72
   100
 73
     1
 74
     1
 75
     0
 76
     0
 77
     0
 78
     0
281
     0
 65
     0
110
0.0
120
0.0
130
0.0
111
1.0
121
0.0
131
0.0
112
0.0
122
1.0
132
0.0
345
0
346
0
 79
     0
146
0.0
  0
ENDTAB
  0
TABLE
  2
LTYPE
  5
4
100
AcDbSymbolTable
 70
   217
  0
LTYPE
  5
11
100
AcDbSymbolTableRecord
100
AcDbLinetypeTableRecord
  2
ByBlock
 70
    64
  3

 72
    65
 73
     0
 40
0.0
  0
LTYPE
  5
12
100
AcDbSymbolTableRecord
100
AcDbLinetypeTableRecord
  2
ByLayer
 70
    64
  3

 72
    65
 73
     0
 40
0.0
  0
LTYPE
  5
13
100
AcDbSymbolTableRecord
100
AcDbLinetypeTableRecord
  2
Continuous
 70
    64
  3
Solid line
 72
    65
 73
     0
 40
0.0
  0
LTYPE
  5
25
100
AcDbSymbolTableRecord
100
AcDbLinetypeTableRecord
  2
DURCHGEHEND
 70
    64
  3

 72
    65
 73
     0
 40
0.0
  0
LTYPE
  5
26
100
AcDbSymbolTableRecord
100
AcDbLinetypeTableRecord
  2
GESTRICHELT
 70
    64
  3

 72
    65
 73
     2
 40
10.0
 49
5.0
 74
     0
 49
-5.0
 74
     0
  0
LTYPE
  5
27
100
AcDbSymbolTableRecord
100
AcDbLinetypeTableRecord
  2
MITTELLINIE
 70
    64
  3

 72
    65
 73
     4
 40
20.0
 49
10.0
 74
     0
 49
-2.0
 74
     0
 49
5.0
 74
     0
 49
-3.0
 74
     0
  0
LTYPE
  5
28
100
AcDbSymbolTableRecord
100
AcDbLinetypeTableRecord
  2
PUNKTIERT
 70
    64
  3

 72
    65
 73
     2
 40
0.25
 49
0.0
 74
     0
 49
-0.25
 74
     0
  0
LTYPE
  5
29
100
AcDbSymbolTableRecord
100
AcDbLinetypeTableRecord
  2
STRICHPUNKTIERT
 70
    64
  3

 72
    65
 73
     4
 40
8.0
 49
5.0
 74
     0
 49
-1.0
 74
     0
 49
1.0
 74
     0
 49
-1.0
 74
     0
  0
LTYPE
  5
2A
100
AcDbSymbolTableRecord
100
AcDbLinetypeTableRecord
  2
STRICH-PUNKT-PUNKT
 70
    64
  3

 72
    65
 73
     6
 40
10.0
 49
5.0
 74
     0
 49
-1.0
 74
     0
 49
1.0
 74
     0
 49
-1.0
 74
     0
 49
1.0
 74
     0
 49
-1.0
 74
     0
  0
LTYPE
  5
2B
100
AcDbSymbolTableRecord
100
AcDbLinetypeTableRecord
  2
STARTPFEIL
 70
    64
  3

 72
    65
 73
     0
 40
0.0
  0
LTYPE
  5
2C
100
AcDbSymbolTableRecord
100
AcDbLinetypeTableRecord
  2
ENDPFEIL
 70
    64
  3

 72
    65
 73
     0
 40
0.0
  0
LTYPE
  5
2D
100
AcDbSymbolTableRecord
100
AcDbLinetypeTableRecord
  2
ENDPUNKT
 70
    64
  3

 72
    65
 73
     0
 40
0.0
  0
LTYPE
  5
2E
100
AcDbSymbolTableRecord
100
AcDbLinetypeTableRecord
  2
PFEIL
 70
    64
  3

 72
    65
 73
     0
 40
0.0
  0
LTYPE
  5
2F
100
AcDbSymbolTableRecord
100
AcDbLinetypeTableRecord
  2
STITCHLINE
 70
    64
  3

 72
    65
 73
     2
 40
6.0
 49
3.0
 74
     0
 49
-3.0
 74
     0
  0
LTYPE
  5
30
100
AcDbSymbolTableRecord
100
AcDbLinetypeTableRecord
  2
MITTELLINIE_2
 70
    64
  3

 72
    65
 73
     4
 40
17.0
 49
10.0
 74
     0
 49
-2.0
 74
     0
 49
3.0
 74
     0
 49
-2.0
 74
     0
  0
LTYPE
  5
31
100
AcDbSymbolTableRecord
100
AcDbLinetypeTableRecord
  2
VERDECKTE_LINIE
 70
    64
  3

 72
    65
 73
     2
 40
4.0
 49
2.0
 74
     0
 49
-2.0
 74
     0
  0
LTYPE
  5
32
100
AcDbSymbolTableRecord
100
AcDbLinetypeTableRecord
  2
PHANTOMLINIE
 70
    64
  3

 72
    65
 73
     6
 40
21.0
 49
10.0
 74
     0
 49
-2.0
 74
     0
 49
3.0
 74
     0
 49
-1.0
 74
     0
 49
3.0
 74
     0
 49
-2.0
 74
     0
  0
LTYPE
  5
33
100
AcDbSymbolTableRecord
100
AcDbLinetypeTableRecord
  2
BRUCHLINIE_1
 70
    64
  3

 72
    65
 73
     0
 40
0.0
  0
LTYPE
  5
34
100
AcDbSymbolTableRecord
100
AcDbLinetypeTableRecord
  2
BRUCHLINIE_2
 70
    64
  3

 72
    65
 73
     0
 40
0.0
  0
LTYPE
  5
35
100
AcDbSymbolTableRecord
100
AcDbLinetypeTableRecord
  2
_DURCHGEHEND
 70
    64
  3

 72
    65
 73
     0
 40
0.0
  0
LTYPE
  5
36
100
AcDbSymbolTableRecord
100
AcDbLinetypeTableRecord
  2
_GESTRICHELT
 70
    64
  3

 72
    65
 73
     2
 40
10.0
 49
5.0
 74
     0
 49
-5.0
 74
     0
  0
LTYPE
  5
37
100
AcDbSymbolTableRecord
100
AcDbLinetypeTableRecord
  2
_MITTELLINIE
 70
    64
  3

 72
    65
 73
     4
 40
20.0
 49
10.0
 74
     0
 49
-2.0
 74
     0
 49
5.0
 74
     0
 49
-3.0
 74
     0
  0
LTYPE
  5
38
100
AcDbSymbolTableRecord
100
AcDbLinetypeTableRecord
  2
_PUNKTIERT
 70
    64
  3

 72
    65
 73
     2
 40
0.25
 49
0.0
 74
     0
 49
-0.25
 74
     0
  0
LTYPE
  5
39
100
AcDbSymbolTableRecord
100
AcDbLinetypeTableRecord
  2
_STRICHPUNKTIERT
 70
    64
  3

 72
    65
 73
     4
 40
8.0
 49
5.0
 74
     0
 49
-1.0
 74
     0
 49
1.0
 74
     0
 49
-1.0
 74
     0
  0
LTYPE
  5
3A
100
AcDbSymbolTableRecord
100
AcDbLinetypeTableRecord
  2
_STRICH-PUNKT-PUNKT
 70
    64
  3

 72
    65
 73
     6
 40
10.0
 49
5.0
 74
     0
 49
-1.0
 74
     0
 49
1.0
 74
     0
 49
-1.0
 74
     0
 49
1.0
 74
     0
 49
-1.0
 74
     0
  0
LTYPE
  5
3B
100
AcDbSymbolTableRecord
100
AcDbLinetypeTableRecord
  2
_STARTPFEIL
 70
    64
  3

 72
    65
 73
     0
 40
0.0
  0
LTYPE
  5
3C
100
AcDbSymbolTableRecord
100
AcDbLinetypeTableRecord
  2
_ENDPFEIL
 70
    64
  3

 72
    65
 73
     0
 40
0.0
  0
LTYPE
  5
3D
100
AcDbSymbolTableRecord
100
AcDbLinetypeTableRecord
  2
_ENDPUNKT
 70
    64
  3

 72
    65
 73
     0
 40
0.0
  0
LTYPE
  5
3E
100
AcDbSymbolTableRecord
100
AcDbLinetypeTableRecord
  2
_PFEIL
 70
    64
  3

 72
    65
 73
     0
 40
0.0
  0
LTYPE
  5
3F
100
AcDbSymbolTableRecord
100
AcDbLinetypeTableRecord
  2
_STITCHLINE
 70
    64
  3

 72
    65
 73
     2
 40
6.0
 49
3.0
 74
     0
 49
-3.0
 74
     0
  0
LTYPE
  5
40
100
AcDbSymbolTableRecord
100
AcDbLinetypeTableRecord
  2
_MITTELLINIE_2
 70
    64
  3

 72
    65
 73
     4
 40
17.0
 49
10.0
 74
     0
 49
-2.0
 74
     0
 49
3.0
 74
     0
 49
-2.0
 74
     0
  0
LTYPE
  5
41
100
AcDbSymbolTableRecord
100
AcDbLinetypeTableRecord
  2
_VERDECKTE_LINIE
 70
    64
  3

 72
    65
 73
     2
 40
4.0
 49
2.0
 74
     0
 49
-2.0
 74
     0
  0
LTYPE
  5
42
100
AcDbSymbolTableRecord
100
AcDbLinetypeTableRecord
  2
_PHANTOMLINIE
 70
    64
  3

 72
    65
 73
     6
 40
21.0
 49
10.0
 74
     0
 49
-2.0
 74
     0
 49
3.0
 74
     0
 49
-1.0
 74
     0
 49
3.0
 74
     0
 49
-2.0
 74
     0
  0
LTYPE
  5
43
100
AcDbSymbolTableRecord
100
AcDbLinetypeTableRecord
  2
_BRUCHLINIE_1
 70
    64
  3

 72
    65
 73
     0
 40
0.0
  0
LTYPE
  5
44
100
AcDbSymbolTableRecord
100
AcDbLinetypeTableRecord
  2
_BRUCHLINIE_2
 70
    64
  3

 72
    65
 73
     0
 40
0.0
  0
LTYPE
  5
45
100
AcDbSymbolTableRecord
100
AcDbLinetypeTableRecord
  2
CONTINUOUS
 70
    64
  3

 72
    65
 73
     0
 40
0.0
  0
LTYPE
  5
46
100
AcDbSymbolTableRecord
100
AcDbLinetypeTableRecord
  2
_DURCHGEHEND
 70
    64
  3

 72
    65
 73
     0
 40
0.0
  0
LTYPE
  5
47
100
AcDbSymbolTableRecord
100
AcDbLinetypeTableRecord
  2
_GESTRICHELT
 70
    64
  3

 72
    65
 73
     2
 40
10.0
 49
5.0
 74
     0
 49
-5.0
 74
     0
  0
LTYPE
  5
48
100
AcDbSymbolTableRecord
100
AcDbLinetypeTableRecord
  2
_MITTELLINIE
 70
    64
  3

 72
    65
 73
     4
 40
20.0
 49
10.0
 74
     0
 49
-2.0
 74
     0
 49
5.0
 74
     0
 49
-3.0
 74
     0
  0
LTYPE
  5
49
100
AcDbSymbolTableRecord
100
AcDbLinetypeTableRecord
  2
_PUNKTIERT
 70
    64
  3

 72
    65
 73
     2
 40
0.25
 49
0.0
 74
     0
 49
-0.25
 74
     0
  0
LTYPE
  5
4A
100
AcDbSymbolTableRecord
100
AcDbLinetypeTableRecord
  2
_STRICHPUNKTIERT
 70
    64
  3

 72
    65
 73
     4
 40
8.0
 49
5.0
 74
     0
 49
-1.0
 74
     0
 49
1.0
 74
     0
 49
-1.0
 74
     0
  0
LTYPE
  5
4B
100
AcDbSymbolTableRecord
100
AcDbLinetypeTableRecord
  2
_STRICH-PUNKT-PUNKT
 70
    64
  3

 72
    65
 73
     6
 40
10.0
 49
5.0
 74
     0
 49
-1.0
 74
     0
 49
1.0
 74
     0
 49
-1.0
 74
     0
 49
1.0
 74
     0
 49
-1.0
 74
     0
  0
LTYPE
  5
4C
100
AcDbSymbolTableRecord
100
AcDbLinetypeTableRecord
  2
_STARTPFEIL
 70
    64
  3

 72
    65
 73
     0
 40
0.0
  0
LTYPE
  5
4D
100
AcDbSymbolTableRecord
100
AcDbLinetypeTableRecord
  2
_ENDPFEIL
 70
    64
  3

 72
    65
 73
     0
 40
0.0
  0
LTYPE
  5
4E
100
AcDbSymbolTableRecord
100
AcDbLinetypeTableRecord
  2
_ENDPUNKT
 70
    64
  3

 72
    65
 73
     0
 40
0.0
  0
LTYPE
  5
4F
100
AcDbSymbolTableRecord
100
AcDbLinetypeTableRecord
  2
_PFEIL
 70
    64
  3

 72
    65
 73
     0
 40
0.0
  0
LTYPE
  5
50
100
AcDbSymbolTableRecord
100
AcDbLinetypeTableRecord
  2
_STITCHLINE
 70
    64
  3

 72
    65
 73
     2
 40
6.0
 49
3.0
 74
     0
 49
-3.0
 74
     0
  0
LTYPE
  5
51
100
AcDbSymbolTableRecord
100
AcDbLinetypeTableRecord
  2
_MITTELLINIE_2
 70
    64
  3

 72
    65
 73
     4
 40
17.0
 49
10.0
 74
     0
 49
-2.0
 74
     0
 49
3.0
 74
     0
 49
-2.0
 74
     0
  0
LTYPE
  5
52
100
AcDbSymbolTableRecord
100
AcDbLinetypeTableRecord
  2
_VERDECKTE_LINIE
 70
    64
  3

 72
    65
 73
     2
 40
4.0
 49
2.0
 74
     0
 49
-2.0
 74
     0
  0
LTYPE
  5
53
100
AcDbSymbolTableRecord
100
AcDbLinetypeTableRecord
  2
_PHANTOMLINIE
 70
    64
  3

 72
    65
 73
     6
 40
21.0
 49
10.0
 74
     0
 49
-2.0
 74
     0
 49
3.0
 74
     0
 49
-1.0
 74
     0
 49
3.0
 74
     0
 49
-2.0
 74
     0
  0
LTYPE
  5
54
100
AcDbSymbolTableRecord
100
AcDbLinetypeTableRecord
  2
_BRUCHLINIE_1
 70
    64
  3

 72
    65
 73
     0
 40
0.0
  0
LTYPE
  5
55
100
AcDbSymbolTableRecord
100
AcDbLinetypeTableRecord
  2
_BRUCHLINIE_2
 70
    64
  3

 72
    65
 73
     0
 40
0.0
  0
LTYPE
  5
56
100
AcDbSymbolTableRecord
100
AcDbLinetypeTableRecord
  2
_DURCHGEHEND
 70
    64
  3

 72
    65
 73
     0
 40
0.0
  0
LTYPE
  5
57
100
AcDbSymbolTableRecord
100
AcDbLinetypeTableRecord
  2
_GESTRICHELT
 70
    64
  3

 72
    65
 73
     2
 40
10.0
 49
5.0
 74
     0
 49
-5.0
 74
     0
  0
LTYPE
  5
58
100
AcDbSymbolTableRecord
100
AcDbLinetypeTableRecord
  2
_MITTELLINIE
 70
    64
  3

 72
    65
 73
     4
 40
20.0
 49
10.0
 74
     0
 49
-2.0
 74
     0
 49
5.0
 74
     0
 49
-3.0
 74
     0
  0
LTYPE
  5
59
100
AcDbSymbolTableRecord
100
AcDbLinetypeTableRecord
  2
_PUNKTIERT
 70
    64
  3

 72
    65
 73
     2
 40
0.25
 49
0.0
 74
     0
 49
-0.25
 74
     0
  0
LTYPE
  5
5A
100
AcDbSymbolTableRecord
100
AcDbLinetypeTableRecord
  2
_STRICHPUNKTIERT
 70
    64
  3

 72
    65
 73
     4
 40
8.0
 49
5.0
 74
     0
 49
-1.0
 74
     0
 49
1.0
 74
     0
 49
-1.0
 74
     0
  0
LTYPE
  5
5B
100
AcDbSymbolTableRecord
100
AcDbLinetypeTableRecord
  2
_STRICH-PUNKT-PUNKT
 70
    64
  3

 72
    65
 73
     6
 40
10.0
 49
5.0
 74
     0
 49
-1.0
 74
     0
 49
1.0
 74
     0
 49
-1.0
 74
     0
 49
1.0
 74
     0
 49
-1.0
 74
     0
  0
LTYPE
  5
5C
100
AcDbSymbolTableRecord
100
AcDbLinetypeTableRecord
  2
_STARTPFEIL
 70
    64
  3

 72
    65
 73
     0
 40
0.0
  0
LTYPE
  5
5D
100
AcDbSymbolTableRecord
100
AcDbLinetypeTableRecord
  2
_ENDPFEIL
 70
    64
  3

 72
    65
 73
     0
 40
0.0
  0
LTYPE
  5
5E
100
AcDbSymbolTableRecord
100
AcDbLinetypeTableRecord
  2
_ENDPUNKT
 70
    64
  3

 72
    65
 73
     0
 40
0.0
  0
LTYPE
  5
5F
100
AcDbSymbolTableRecord
100
AcDbLinetypeTableRecord
  2
_PFEIL
 70
    64
  3

 72
    65
 73
     0
 40
0.0
  0
LTYPE
  5
60
100
AcDbSymbolTableRecord
100
AcDbLinetypeTableRecord
  2
_STITCHLINE
 70
    64
  3

 72
    65
 73
     2
 40
6.0
 49
3.0
 74
     0
 49
-3.0
 74
     0
  0
LTYPE
  5
61
100
AcDbSymbolTableRecord
100
AcDbLinetypeTableRecord
  2
_MITTELLINIE_2
 70
    64
  3

 72
    65
 73
     4
 40
17.0
 49
10.0
 74
     0
 49
-2.0
 74
     0
 49
3.0
 74
     0
 49
-2.0
 74
     0
  0
LTYPE
  5
62
100
AcDbSymbolTableRecord
100
AcDbLinetypeTableRecord
  2
_VERDECKTE_LINIE
 70
    64
  3

 72
    65
 73
     2
 40
4.0
 49
2.0
 74
     0
 49
-2.0
 74
     0
  0
LTYPE
  5
63
100
AcDbSymbolTableRecord
100
AcDbLinetypeTableRecord
  2
_PHANTOMLINIE
 70
    64
  3

 72
    65
 73
     6
 40
21.0
 49
10.0
 74
     0
 49
-2.0
 74
     0
 49
3.0
 74
     0
 49
-1.0
 74
     0
 49
3.0
 74
     0
 49
-2.0
 74
     0
  0
LTYPE
  5
64
100
AcDbSymbolTableRecord
100
AcDbLinetypeTableRecord
  2
_BRUCHLINIE_1
 70
    64
  3

 72
    65
 73
     0
 40
0.0
  0
LTYPE
  5
65
100
AcDbSymbolTableRecord
100
AcDbLinetypeTableRecord
  2
_BRUCHLINIE_2
 70
    64
  3

 72
    65
 73
     0
 40
0.0
  0
LTYPE
  5
66
100
AcDbSymbolTableRecord
100
AcDbLinetypeTableRecord
  2
SLDCENTERLINES0
 70
    64
  3

 72
    65
 73
     4
 40
19.05
 49
15.24
 74
     0
 49
-1.27
 74
     0
 49
1.27
 74
     0
 49
-1.27
 74
     0
  0
LTYPE
  5
67
100
AcDbSymbolTableRecord
100
AcDbLinetypeTableRecord
  2
SLDTANVISIBLE0
 70
    64
  3

 72
    65
 73
     6
 40
12.7
 49
6.35
 74
     0
 49
-1.27
 74
     0
 49
1.27
 74
     0
 49
-1.27
 74
     0
 49
1.27
 74
     0
 49
-1.27
 74
     0
  0
LTYPE
  5
68
100
AcDbSymbolTableRecord
100
AcDbLinetypeTableRecord
  2
_DURCHGEHEND
 70
    64
  3

 72
    65
 73
     0
 40
0.0
  0
LTYPE
  5
69
100
AcDbSymbolTableRecord
100
AcDbLinetypeTableRecord
  2
_GESTRICHELT
 70
    64
  3

 72
    65
 73
     2
 40
10.0
 49
5.0
 74
     0
 49
-5.0
 74
     0
  0
LTYPE
  5
6A
100
AcDbSymbolTableRecord
100
AcDbLinetypeTableRecord
  2
_MITTELLINIE
 70
    64
  3

 72
    65
 73
     4
 40
20.0
 49
10.0
 74
     0
 49
-2.0
 74
     0
 49
5.0
 74
     0
 49
-3.0
 74
     0
  0
LTYPE
  5
6B
100
AcDbSymbolTableRecord
100
AcDbLinetypeTableRecord
  2
_PUNKTIERT
 70
    64
  3

 72
    65
 73
     2
 40
0.25
 49
0.0
 74
     0
 49
-0.25
 74
     0
  0
LTYPE
  5
6C
100
AcDbSymbolTableRecord
100
AcDbLinetypeTableRecord
  2
_STRICHPUNKTIERT
 70
    64
  3

 72
    65
 73
     4
 40
8.0
 49
5.0
 74
     0
 49
-1.0
 74
     0
 49
1.0
 74
     0
 49
-1.0
 74
     0
  0
LTYPE
  5
6D
100
AcDbSymbolTableRecord
100
AcDbLinetypeTableRecord
  2
_STRICH-PUNKT-PUNKT
 70
    64
  3

 72
    65
 73
     6
 40
10.0
 49
5.0
 74
     0
 49
-1.0
 74
     0
 49
1.0
 74
     0
 49
-1.0
 74
     0
 49
1.0
 74
     0
 49
-1.0
 74
     0
  0
LTYPE
  5
6E
100
AcDbSymbolTableRecord
100
AcDbLinetypeTableRecord
  2
_STARTPFEIL
 70
    64
  3

 72
    65
 73
     0
 40
0.0
  0
LTYPE
  5
6F
100
AcDbSymbolTableRecord
100
AcDbLinetypeTableRecord
  2
_ENDPFEIL
 70
    64
  3

 72
    65
 73
     0
 40
0.0
  0
LTYPE
  5
70
100
AcDbSymbolTableRecord
100
AcDbLinetypeTableRecord
  2
_ENDPUNKT
 70
    64
  3

 72
    65
 73
     0
 40
0.0
  0
LTYPE
  5
71
100
AcDbSymbolTableRecord
100
AcDbLinetypeTableRecord
  2
_PFEIL
 70
    64
  3

 72
    65
 73
     0
 40
0.0
  0
LTYPE
  5
72
100
AcDbSymbolTableRecord
100
AcDbLinetypeTableRecord
  2
_STITCHLINE
 70
    64
  3

 72
    65
 73
     2
 40
6.0
 49
3.0
 74
     0
 49
-3.0
 74
     0
  0
LTYPE
  5
73
100
AcDbSymbolTableRecord
100
AcDbLinetypeTableRecord
  2
_MITTELLINIE_2
 70
    64
  3

 72
    65
 73
     4
 40
17.0
 49
10.0
 74
     0
 49
-2.0
 74
     0
 49
3.0
 74
     0
 49
-2.0
 74
     0
  0
LTYPE
  5
74
100
AcDbSymbolTableRecord
100
AcDbLinetypeTableRecord
  2
_VERDECKTE_LINIE
 70
    64
  3

 72
    65
 73
     2
 40
4.0
 49
2.0
 74
     0
 49
-2.0
 74
     0
  0
LTYPE
  5
75
100
AcDbSymbolTableRecord
100
AcDbLinetypeTableRecord
  2
_PHANTOMLINIE
 70
    64
  3

 72
    65
 73
     6
 40
21.0
 49
10.0
 74
     0
 49
-2.0
 74
     0
 49
3.0
 74
     0
 49
-1.0
 74
     0
 49
3.0
 74
     0
 49
-2.0
 74
     0
  0
LTYPE
  5
76
100
AcDbSymbolTableRecord
100
AcDbLinetypeTableRecord
  2
_BRUCHLINIE_1
 70
    64
  3

 72
    65
 73
     0
 40
0.0
  0
LTYPE
  5
77
100
AcDbSymbolTableRecord
100
AcDbLinetypeTableRecord
  2
_BRUCHLINIE_2
 70
    64
  3

 72
    65
 73
     0
 40
0.0
  0
LTYPE
  5
78
100
AcDbSymbolTableRecord
100
AcDbLinetypeTableRecord
  2
_DURCHGEHEND
 70
    64
  3

 72
    65
 73
     0
 40
0.0
  0
LTYPE
  5
79
100
AcDbSymbolTableRecord
100
AcDbLinetypeTableRecord
  2
_GESTRICHELT
 70
    64
  3

 72
    65
 73
     2
 40
10.0
 49
5.0
 74
     0
 49
-5.0
 74
     0
  0
LTYPE
  5
7A
100
AcDbSymbolTableRecord
100
AcDbLinetypeTableRecord
  2
_MITTELLINIE
 70
    64
  3

 72
    65
 73
     4
 40
20.0
 49
10.0
 74
     0
 49
-2.0
 74
     0
 49
5.0
 74
     0
 49
-3.0
 74
     0
  0
LTYPE
  5
7B
100
AcDbSymbolTableRecord
100
AcDbLinetypeTableRecord
  2
_PUNKTIERT
 70
    64
  3

 72
    65
 73
     2
 40
0.25
 49
0.0
 74
     0
 49
-0.25
 74
     0
  0
LTYPE
  5
7C
100
AcDbSymbolTableRecord
100
AcDbLinetypeTableRecord
  2
_STRICHPUNKTIERT
 70
    64
  3

 72
    65
 73
     4
 40
8.0
 49
5.0
 74
     0
 49
-1.0
 74
     0
 49
1.0
 74
     0
 49
-1.0
 74
     0
  0
LTYPE
  5
7D
100
AcDbSymbolTableRecord
100
AcDbLinetypeTableRecord
  2
_STRICH-PUNKT-PUNKT
 70
    64
  3

 72
    65
 73
     6
 40
10.0
 49
5.0
 74
     0
 49
-1.0
 74
     0
 49
1.0
 74
     0
 49
-1.0
 74
     0
 49
1.0
 74
     0
 49
-1.0
 74
     0
  0
LTYPE
  5
7E
100
AcDbSymbolTableRecord
100
AcDbLinetypeTableRecord
  2
_STARTPFEIL
 70
    64
  3

 72
    65
 73
     0
 40
0.0
  0
LTYPE
  5
7F
100
AcDbSymbolTableRecord
100
AcDbLinetypeTableRecord
  2
_ENDPFEIL
 70
    64
  3

 72
    65
 73
     0
 40
0.0
  0
LTYPE
  5
80
100
AcDbSymbolTableRecord
100
AcDbLinetypeTableRecord
  2
_ENDPUNKT
 70
    64
  3

 72
    65
 73
     0
 40
0.0
  0
LTYPE
  5
81
100
AcDbSymbolTableRecord
100
AcDbLinetypeTableRecord
  2
_PFEIL
 70
    64
  3

 72
    65
 73
     0
 40
0.0
  0
LTYPE
  5
82
100
AcDbSymbolTableRecord
100
AcDbLinetypeTableRecord
  2
_STITCHLINE
 70
    64
  3

 72
    65
 73
     2
 40
6.0
 49
3.0
 74
     0
 49
-3.0
 74
     0
  0
LTYPE
  5
83
100
AcDbSymbolTableRecord
100
AcDbLinetypeTableRecord
  2
_MITTELLINIE_2
 70
    64
  3

 72
    65
 73
     4
 40
17.0
 49
10.0
 74
     0
 49
-2.0
 74
     0
 49
3.0
 74
     0
 49
-2.0
 74
     0
  0
LTYPE
  5
84
100
AcDbSymbolTableRecord
100
AcDbLinetypeTableRecord
  2
_VERDECKTE_LINIE
 70
    64
  3

 72
    65
 73
     2
 40
4.0
 49
2.0
 74
     0
 49
-2.0
 74
     0
  0
LTYPE
  5
85
100
AcDbSymbolTableRecord
100
AcDbLinetypeTableRecord
  2
_PHANTOMLINIE
 70
    64
  3

 72
    65
 73
     6
 40
21.0
 49
10.0
 74
     0
 49
-2.0
 74
     0
 49
3.0
 74
     0
 49
-1.0
 74
     0
 49
3.0
 74
     0
 49
-2.0
 74
     0
  0
LTYPE
  5
86
100
AcDbSymbolTableRecord
100
AcDbLinetypeTableRecord
  2
_BRUCHLINIE_1
 70
    64
  3

 72
    65
 73
     0
 40
0.0
  0
LTYPE
  5
87
100
AcDbSymbolTableRecord
100
AcDbLinetypeTableRecord
  2
_BRUCHLINIE_2
 70
    64
  3

 72
    65
 73
     0
 40
0.0
  0
LTYPE
  5
88
100
AcDbSymbolTableRecord
100
AcDbLinetypeTableRecord
  2
_DURCHGEHEND
 70
    64
  3

 72
    65
 73
     0
 40
0.0
  0
LTYPE
  5
89
100
AcDbSymbolTableRecord
100
AcDbLinetypeTableRecord
  2
_GESTRICHELT
 70
    64
  3

 72
    65
 73
     2
 40
10.0
 49
5.0
 74
     0
 49
-5.0
 74
     0
  0
LTYPE
  5
8A
100
AcDbSymbolTableRecord
100
AcDbLinetypeTableRecord
  2
_MITTELLINIE
 70
    64
  3

 72
    65
 73
     4
 40
20.0
 49
10.0
 74
     0
 49
-2.0
 74
     0
 49
5.0
 74
     0
 49
-3.0
 74
     0
  0
LTYPE
  5
8B
100
AcDbSymbolTableRecord
100
AcDbLinetypeTableRecord
  2
_PUNKTIERT
 70
    64
  3

 72
    65
 73
     2
 40
0.25
 49
0.0
 74
     0
 49
-0.25
 74
     0
  0
LTYPE
  5
8C
100
AcDbSymbolTableRecord
100
AcDbLinetypeTableRecord
  2
_STRICHPUNKTIERT
 70
    64
  3

 72
    65
 73
     4
 40
8.0
 49
5.0
 74
     0
 49
-1.0
 74
     0
 49
1.0
 74
     0
 49
-1.0
 74
     0
  0
LTYPE
  5
8D
100
AcDbSymbolTableRecord
100
AcDbLinetypeTableRecord
  2
_STRICH-PUNKT-PUNKT
 70
    64
  3

 72
    65
 73
     6
 40
10.0
 49
5.0
 74
     0
 49
-1.0
 74
     0
 49
1.0
 74
     0
 49
-1.0
 74
     0
 49
1.0
 74
     0
 49
-1.0
 74
     0
  0
LTYPE
  5
8E
100
AcDbSymbolTableRecord
100
AcDbLinetypeTableRecord
  2
_STARTPFEIL
 70
    64
  3

 72
    65
 73
     0
 40
0.0
  0
LTYPE
  5
8F
100
AcDbSymbolTableRecord
100
AcDbLinetypeTableRecord
  2
_ENDPFEIL
 70
    64
  3

 72
    65
 73
     0
 40
0.0
  0
LTYPE
  5
90
100
AcDbSymbolTableRecord
100
AcDbLinetypeTableRecord
  2
_ENDPUNKT
 70
    64
  3

 72
    65
 73
     0
 40
0.0
  0
LTYPE
  5
91
100
AcDbSymbolTableRecord
100
AcDbLinetypeTableRecord
  2
_PFEIL
 70
    64
  3

 72
    65
 73
     0
 40
0.0
  0
LTYPE
  5
92
100
AcDbSymbolTableRecord
100
AcDbLinetypeTableRecord
  2
_STITCHLINE
 70
    64
  3

 72
    65
 73
     2
 40
6.0
 49
3.0
 74
     0
 49
-3.0
 74
     0
  0
LTYPE
  5
93
100
AcDbSymbolTableRecord
100
AcDbLinetypeTableRecord
  2
_MITTELLINIE_2
 70
    64
  3

 72
    65
 73
     4
 40
17.0
 49
10.0
 74
     0
 49
-2.0
 74
     0
 49
3.0
 74
     0
 49
-2.0
 74
     0
  0
LTYPE
  5
94
100
AcDbSymbolTableRecord
100
AcDbLinetypeTableRecord
  2
_VERDECKTE_LINIE
 70
    64
  3

 72
    65
 73
     2
 40
4.0
 49
2.0
 74
     0
 49
-2.0
 74
     0
  0
LTYPE
  5
95
100
AcDbSymbolTableRecord
100
AcDbLinetypeTableRecord
  2
_PHANTOMLINIE
 70
    64
  3

 72
    65
 73
     6
 40
21.0
 49
10.0
 74
     0
 49
-2.0
 74
     0
 49
3.0
 74
     0
 49
-1.0
 74
     0
 49
3.0
 74
     0
 49
-2.0
 74
     0
  0
LTYPE
  5
96
100
AcDbSymbolTableRecord
100
AcDbLinetypeTableRecord
  2
_BRUCHLINIE_1
 70
    64
  3

 72
    65
 73
     0
 40
0.0
  0
LTYPE
  5
97
100
AcDbSymbolTableRecord
100
AcDbLinetypeTableRecord
  2
_BRUCHLINIE_2
 70
    64
  3

 72
    65
 73
     0
 40
0.0
  0
LTYPE
  5
98
100
AcDbSymbolTableRecord
100
AcDbLinetypeTableRecord
  2
_DURCHGEHEND
 70
    64
  3

 72
    65
 73
     0
 40
0.0
  0
LTYPE
  5
99
100
AcDbSymbolTableRecord
100
AcDbLinetypeTableRecord
  2
_GESTRICHELT
 70
    64
  3

 72
    65
 73
     2
 40
10.0
 49
5.0
 74
     0
 49
-5.0
 74
     0
  0
LTYPE
  5
9A
100
AcDbSymbolTableRecord
100
AcDbLinetypeTableRecord
  2
_MITTELLINIE
 70
    64
  3

 72
    65
 73
     4
 40
20.0
 49
10.0
 74
     0
 49
-2.0
 74
     0
 49
5.0
 74
     0
 49
-3.0
 74
     0
  0
LTYPE
  5
9B
100
AcDbSymbolTableRecord
100
AcDbLinetypeTableRecord
  2
_PUNKTIERT
 70
    64
  3

 72
    65
 73
     2
 40
0.25
 49
0.0
 74
     0
 49
-0.25
 74
     0
  0
LTYPE
  5
9C
100
AcDbSymbolTableRecord
100
AcDbLinetypeTableRecord
  2
_STRICHPUNKTIERT
 70
    64
  3

 72
    65
 73
     4
 40
8.0
 49
5.0
 74
     0
 49
-1.0
 74
     0
 49
1.0
 74
     0
 49
-1.0
 74
     0
  0
LTYPE
  5
9D
100
AcDbSymbolTableRecord
100
AcDbLinetypeTableRecord
  2
_STRICH-PUNKT-PUNKT
 70
    64
  3

 72
    65
 73
     6
 40
10.0
 49
5.0
 74
     0
 49
-1.0
 74
     0
 49
1.0
 74
     0
 49
-1.0
 74
     0
 49
1.0
 74
     0
 49
-1.0
 74
     0
  0
LTYPE
  5
9E
100
AcDbSymbolTableRecord
100
AcDbLinetypeTableRecord
  2
_STARTPFEIL
 70
    64
  3

 72
    65
 73
     0
 40
0.0
  0
LTYPE
  5
9F
100
AcDbSymbolTableRecord
100
AcDbLinetypeTableRecord
  2
_ENDPFEIL
 70
    64
  3

 72
    65
 73
     0
 40
0.0
  0
LTYPE
  5
A0
100
AcDbSymbolTableRecord
100
AcDbLinetypeTableRecord
  2
_ENDPUNKT
 70
    64
  3

 72
    65
 73
     0
 40
0.0
  0
LTYPE
  5
A1
100
AcDbSymbolTableRecord
100
AcDbLinetypeTableRecord
  2
_PFEIL
 70
    64
  3

 72
    65
 73
     0
 40
0.0
  0
LTYPE
  5
A2
100
AcDbSymbolTableRecord
100
AcDbLinetypeTableRecord
  2
_STITCHLINE
 70
    64
  3

 72
    65
 73
     2
 40
6.0
 49
3.0
 74
     0
 49
-3.0
 74
     0
  0
LTYPE
  5
A3
100
AcDbSymbolTableRecord
100
AcDbLinetypeTableRecord
  2
_MITTELLINIE_2
 70
    64
  3

 72
    65
 73
     4
 40
17.0
 49
10.0
 74
     0
 49
-2.0
 74
     0
 49
3.0
 74
     0
 49
-2.0
 74
     0
  0
LTYPE
  5
A4
100
AcDbSymbolTableRecord
100
AcDbLinetypeTableRecord
  2
_VERDECKTE_LINIE
 70
    64
  3

 72
    65
 73
     2
 40
4.0
 49
2.0
 74
     0
 49
-2.0
 74
     0
  0
LTYPE
  5
A5
100
AcDbSymbolTableRecord
100
AcDbLinetypeTableRecord
  2
_PHANTOMLINIE
 70
    64
  3

 72
    65
 73
     6
 40
21.0
 49
10.0
 74
     0
 49
-2.0
 74
     0
 49
3.0
 74
     0
 49
-1.0
 74
     0
 49
3.0
 74
     0
 49
-2.0
 74
     0
  0
LTYPE
  5
A6
100
AcDbSymbolTableRecord
100
AcDbLinetypeTableRecord
  2
_BRUCHLINIE_1
 70
    64
  3

 72
    65
 73
     0
 40
0.0
  0
LTYPE
  5
A7
100
AcDbSymbolTableRecord
100
AcDbLinetypeTableRecord
  2
_BRUCHLINIE_2
 70
    64
  3

 72
    65
 73
     0
 40
0.0
  0
LTYPE
  5
A8
100
AcDbSymbolTableRecord
100
AcDbLinetypeTableRecord
  2
_DURCHGEHEND
 70
    64
  3

 72
    65
 73
     0
 40
0.0
  0
LTYPE
  5
A9
100
AcDbSymbolTableRecord
100
AcDbLinetypeTableRecord
  2
_GESTRICHELT
 70
    64
  3

 72
    65
 73
     2
 40
10.0
 49
5.0
 74
     0
 49
-5.0
 74
     0
  0
LTYPE
  5
AA
100
AcDbSymbolTableRecord
100
AcDbLinetypeTableRecord
  2
_MITTELLINIE
 70
    64
  3

 72
    65
 73
     4
 40
20.0
 49
10.0
 74
     0
 49
-2.0
 74
     0
 49
5.0
 74
     0
 49
-3.0
 74
     0
  0
LTYPE
  5
AB
100
AcDbSymbolTableRecord
100
AcDbLinetypeTableRecord
  2
_PUNKTIERT
 70
    64
  3

 72
    65
 73
     2
 40
0.25
 49
0.0
 74
     0
 49
-0.25
 74
     0
  0
LTYPE
  5
AC
100
AcDbSymbolTableRecord
100
AcDbLinetypeTableRecord
  2
_STRICHPUNKTIERT
 70
    64
  3

 72
    65
 73
     4
 40
8.0
 49
5.0
 74
     0
 49
-1.0
 74
     0
 49
1.0
 74
     0
 49
-1.0
 74
     0
  0
LTYPE
  5
AD
100
AcDbSymbolTableRecord
100
AcDbLinetypeTableRecord
  2
_STRICH-PUNKT-PUNKT
 70
    64
  3

 72
    65
 73
     6
 40
10.0
 49
5.0
 74
     0
 49
-1.0
 74
     0
 49
1.0
 74
     0
 49
-1.0
 74
     0
 49
1.0
 74
     0
 49
-1.0
 74
     0
  0
LTYPE
  5
AE
100
AcDbSymbolTableRecord
100
AcDbLinetypeTableRecord
  2
_STARTPFEIL
 70
    64
  3

 72
    65
 73
     0
 40
0.0
  0
LTYPE
  5
AF
100
AcDbSymbolTableRecord
100
AcDbLinetypeTableRecord
  2
_ENDPFEIL
 70
    64
  3

 72
    65
 73
     0
 40
0.0
  0
LTYPE
  5
B0
100
AcDbSymbolTableRecord
100
AcDbLinetypeTableRecord
  2
_ENDPUNKT
 70
    64
  3

 72
    65
 73
     0
 40
0.0
  0
LTYPE
  5
B1
100
AcDbSymbolTableRecord
100
AcDbLinetypeTableRecord
  2
_PFEIL
 70
    64
  3

 72
    65
 73
     0
 40
0.0
  0
LTYPE
  5
B2
100
AcDbSymbolTableRecord
100
AcDbLinetypeTableRecord
  2
_STITCHLINE
 70
    64
  3

 72
    65
 73
     2
 40
6.0
 49
3.0
 74
     0
 49
-3.0
 74
     0
  0
LTYPE
  5
B3
100
AcDbSymbolTableRecord
100
AcDbLinetypeTableRecord
  2
_MITTELLINIE_2
 70
    64
  3

 72
    65
 73
     4
 40
17.0
 49
10.0
 74
     0
 49
-2.0
 74
     0
 49
3.0
 74
     0
 49
-2.0
 74
     0
  0
LTYPE
  5
B4
100
AcDbSymbolTableRecord
100
AcDbLinetypeTableRecord
  2
_VERDECKTE_LINIE
 70
    64
  3

 72
    65
 73
     2
 40
4.0
 49
2.0
 74
     0
 49
-2.0
 74
     0
  0
LTYPE
  5
B5
100
AcDbSymbolTableRecord
100
AcDbLinetypeTableRecord
  2
_PHANTOMLINIE
 70
    64
  3

 72
    65
 73
     6
 40
21.0
 49
10.0
 74
     0
 49
-2.0
 74
     0
 49
3.0
 74
     0
 49
-1.0
 74
     0
 49
3.0
 74
     0
 49
-2.0
 74
     0
  0
LTYPE
  5
B6
100
AcDbSymbolTableRecord
100
AcDbLinetypeTableRecord
  2
_BRUCHLINIE_1
 70
    64
  3

 72
    65
 73
     0
 40
0.0
  0
LTYPE
  5
B7
100
AcDbSymbolTableRecord
100
AcDbLinetypeTableRecord
  2
_BRUCHLINIE_2
 70
    64
  3

 72
    65
 73
     0
 40
0.0
  0
LTYPE
  5
B8
100
AcDbSymbolTableRecord
100
AcDbLinetypeTableRecord
  2
4_2-0_7-0_7-0_7
 70
    64
  3

 72
    65
 73
     4
 40
6.35
 49
4.233334
 74
     0
 49
-0.705556
 74
     0
 49
0.705556
 74
     0
 49
-0.705556
 74
     0
  0
LTYPE
  5
B9
100
AcDbSymbolTableRecord
100
AcDbLinetypeTableRecord
  2
0_7-0_7
 70
    64
  3

 72
    65
 73
     2
 40
1.411111
 49
0.705556
 74
     0
 49
-0.705556
 74
     0
  0
LTYPE
  5
BA
100
AcDbSymbolTableRecord
100
AcDbLinetypeTableRecord
  2
_DURCHGEHEND
 70
    64
  3

 72
    65
 73
     0
 40
0.0
  0
LTYPE
  5
BB
100
AcDbSymbolTableRecord
100
AcDbLinetypeTableRecord
  2
_GESTRICHELT
 70
    64
  3

 72
    65
 73
     2
 40
10.0
 49
5.0
 74
     0
 49
-5.0
 74
     0
  0
LTYPE
  5
BC
100
AcDbSymbolTableRecord
100
AcDbLinetypeTableRecord
  2
_MITTELLINIE
 70
    64
  3

 72
    65
 73
     4
 40
20.0
 49
10.0
 74
     0
 49
-2.0
 74
     0
 49
5.0
 74
     0
 49
-3.0
 74
     0
  0
LTYPE
  5
BD
100
AcDbSymbolTableRecord
100
AcDbLinetypeTableRecord
  2
_PUNKTIERT
 70
    64
  3

 72
    65
 73
     2
 40
0.25
 49
0.0
 74
     0
 49
-0.25
 74
     0
  0
LTYPE
  5
BE
100
AcDbSymbolTableRecord
100
AcDbLinetypeTableRecord
  2
_STRICHPUNKTIERT
 70
    64
  3

 72
    65
 73
     4
 40
8.0
 49
5.0
 74
     0
 49
-1.0
 74
     0
 49
1.0
 74
     0
 49
-1.0
 74
     0
  0
LTYPE
  5
BF
100
AcDbSymbolTableRecord
100
AcDbLinetypeTableRecord
  2
_STRICH-PUNKT-PUNKT
 70
    64
  3

 72
    65
 73
     6
 40
10.0
 49
5.0
 74
     0
 49
-1.0
 74
     0
 49
1.0
 74
     0
 49
-1.0
 74
     0
 49
1.0
 74
     0
 49
-1.0
 74
     0
  0
LTYPE
  5
C0
100
AcDbSymbolTableRecord
100
AcDbLinetypeTableRecord
  2
_STARTPFEIL
 70
    64
  3

 72
    65
 73
     0
 40
0.0
  0
LTYPE
  5
C1
100
AcDbSymbolTableRecord
100
AcDbLinetypeTableRecord
  2
_ENDPFEIL
 70
    64
  3

 72
    65
 73
     0
 40
0.0
  0
LTYPE
  5
C2
100
AcDbSymbolTableRecord
100
AcDbLinetypeTableRecord
  2
_ENDPUNKT
 70
    64
  3

 72
    65
 73
     0
 40
0.0
  0
LTYPE
  5
C3
100
AcDbSymbolTableRecord
100
AcDbLinetypeTableRecord
  2
_PFEIL
 70
    64
  3

 72
    65
 73
     0
 40
0.0
  0
LTYPE
  5
C4
100
AcDbSymbolTableRecord
100
AcDbLinetypeTableRecord
  2
_STITCHLINE
 70
    64
  3

 72
    65
 73
     2
 40
6.0
 49
3.0
 74
     0
 49
-3.0
 74
     0
  0
LTYPE
  5
C5
100
AcDbSymbolTableRecord
100
AcDbLinetypeTableRecord
  2
_MITTELLINIE_2
 70
    64
  3

 72
    65
 73
     4
 40
17.0
 49
10.0
 74
     0
 49
-2.0
 74
     0
 49
3.0
 74
     0
 49
-2.0
 74
     0
  0
LTYPE
  5
C6
100
AcDbSymbolTableRecord
100
AcDbLinetypeTableRecord
  2
_VERDECKTE_LINIE
 70
    64
  3

 72
    65
 73
     2
 40
4.0
 49
2.0
 74
     0
 49
-2.0
 74
     0
  0
LTYPE
  5
C7
100
AcDbSymbolTableRecord
100
AcDbLinetypeTableRecord
  2
_PHANTOMLINIE
 70
    64
  3

 72
    65
 73
     6
 40
21.0
 49
10.0
 74
     0
 49
-2.0
 74
     0
 49
3.0
 74
     0
 49
-1.0
 74
     0
 49
3.0
 74
     0
 49
-2.0
 74
     0
  0
LTYPE
  5
C8
100
AcDbSymbolTableRecord
100
AcDbLinetypeTableRecord
  2
_BRUCHLINIE_1
 70
    64
  3

 72
    65
 73
     0
 40
0.0
  0
LTYPE
  5
C9
100
AcDbSymbolTableRecord
100
AcDbLinetypeTableRecord
  2
_BRUCHLINIE_2
 70
    64
  3

 72
    65
 73
     0
 40
0.0
  0
LTYPE
  5
CA
100
AcDbSymbolTableRecord
100
AcDbLinetypeTableRecord
  2
_DURCHGEHEND
 70
    64
  3

 72
    65
 73
     0
 40
0.0
  0
LTYPE
  5
CB
100
AcDbSymbolTableRecord
100
AcDbLinetypeTableRecord
  2
_GESTRICHELT
 70
    64
  3

 72
    65
 73
     2
 40
10.0
 49
5.0
 74
     0
 49
-5.0
 74
     0
  0
LTYPE
  5
CC
100
AcDbSymbolTableRecord
100
AcDbLinetypeTableRecord
  2
_MITTELLINIE
 70
    64
  3

 72
    65
 73
     4
 40
20.0
 49
10.0
 74
     0
 49
-2.0
 74
     0
 49
5.0
 74
     0
 49
-3.0
 74
     0
  0
LTYPE
  5
CD
100
AcDbSymbolTableRecord
100
AcDbLinetypeTableRecord
  2
_PUNKTIERT
 70
    64
  3

 72
    65
 73
     2
 40
0.25
 49
0.0
 74
     0
 49
-0.25
 74
     0
  0
LTYPE
  5
CE
100
AcDbSymbolTableRecord
100
AcDbLinetypeTableRecord
  2
_STRICHPUNKTIERT
 70
    64
  3

 72
    65
 73
     4
 40
8.0
 49
5.0
 74
     0
 49
-1.0
 74
     0
 49
1.0
 74
     0
 49
-1.0
 74
     0
  0
LTYPE
  5
CF
100
AcDbSymbolTableRecord
100
AcDbLinetypeTableRecord
  2
_STRICH-PUNKT-PUNKT
 70
    64
  3

 72
    65
 73
     6
 40
10.0
 49
5.0
 74
     0
 49
-1.0
 74
     0
 49
1.0
 74
     0
 49
-1.0
 74
     0
 49
1.0
 74
     0
 49
-1.0
 74
     0
  0
LTYPE
  5
D0
100
AcDbSymbolTableRecord
100
AcDbLinetypeTableRecord
  2
_STARTPFEIL
 70
    64
  3

 72
    65
 73
     0
 40
0.0
  0
LTYPE
  5
D1
100
AcDbSymbolTableRecord
100
AcDbLinetypeTableRecord
  2
_ENDPFEIL
 70
    64
  3

 72
    65
 73
     0
 40
0.0
  0
LTYPE
  5
D2
100
AcDbSymbolTableRecord
100
AcDbLinetypeTableRecord
  2
_ENDPUNKT
 70
    64
  3

 72
    65
 73
     0
 40
0.0
  0
LTYPE
  5
D3
100
AcDbSymbolTableRecord
100
AcDbLinetypeTableRecord
  2
_PFEIL
 70
    64
  3

 72
    65
 73
     0
 40
0.0
  0
LTYPE
  5
D4
100
AcDbSymbolTableRecord
100
AcDbLinetypeTableRecord
  2
_STITCHLINE
 70
    64
  3

 72
    65
 73
     2
 40
6.0
 49
3.0
 74
     0
 49
-3.0
 74
     0
  0
LTYPE
  5
D5
100
AcDbSymbolTableRecord
100
AcDbLinetypeTableRecord
  2
_MITTELLINIE_2
 70
    64
  3

 72
    65
 73
     4
 40
17.0
 49
10.0
 74
     0
 49
-2.0
 74
     0
 49
3.0
 74
     0
 49
-2.0
 74
     0
  0
LTYPE
  5
D6
100
AcDbSymbolTableRecord
100
AcDbLinetypeTableRecord
  2
_VERDECKTE_LINIE
 70
    64
  3

 72
    65
 73
     2
 40
4.0
 49
2.0
 74
     0
 49
-2.0
 74
     0
  0
LTYPE
  5
D7
100
AcDbSymbolTableRecord
100
AcDbLinetypeTableRecord
  2
_PHANTOMLINIE
 70
    64
  3

 72
    65
 73
     6
 40
21.0
 49
10.0
 74
     0
 49
-2.0
 74
     0
 49
3.0
 74
     0
 49
-1.0
 74
     0
 49
3.0
 74
     0
 49
-2.0
 74
     0
  0
LTYPE
  5
D8
100
AcDbSymbolTableRecord
100
AcDbLinetypeTableRecord
  2
_BRUCHLINIE_1
 70
    64
  3

 72
    65
 73
     0
 40
0.0
  0
LTYPE
  5
D9
100
AcDbSymbolTableRecord
100
AcDbLinetypeTableRecord
  2
_BRUCHLINIE_2
 70
    64
  3

 72
    65
 73
     0
 40
0.0
  0
LTYPE
  5
DA
100
AcDbSymbolTableRecord
100
AcDbLinetypeTableRecord
  2
_DURCHGEHEND
 70
    64
  3

 72
    65
 73
     0
 40
0.0
  0
LTYPE
  5
DB
100
AcDbSymbolTableRecord
100
AcDbLinetypeTableRecord
  2
_GESTRICHELT
 70
    64
  3

 72
    65
 73
     2
 40
10.0
 49
5.0
 74
     0
 49
-5.0
 74
     0
  0
LTYPE
  5
DC
100
AcDbSymbolTableRecord
100
AcDbLinetypeTableRecord
  2
_MITTELLINIE
 70
    64
  3

 72
    65
 73
     4
 40
20.0
 49
10.0
 74
     0
 49
-2.0
 74
     0
 49
5.0
 74
     0
 49
-3.0
 74
     0
  0
LTYPE
  5
DD
100
AcDbSymbolTableRecord
100
AcDbLinetypeTableRecord
  2
_PUNKTIERT
 70
    64
  3

 72
    65
 73
     2
 40
0.25
 49
0.0
 74
     0
 49
-0.25
 74
     0
  0
LTYPE
  5
DE
100
AcDbSymbolTableRecord
100
AcDbLinetypeTableRecord
  2
_STRICHPUNKTIERT
 70
    64
  3

 72
    65
 73
     4
 40
8.0
 49
5.0
 74
     0
 49
-1.0
 74
     0
 49
1.0
 74
     0
 49
-1.0
 74
     0
  0
LTYPE
  5
DF
100
AcDbSymbolTableRecord
100
AcDbLinetypeTableRecord
  2
_STRICH-PUNKT-PUNKT
 70
    64
  3

 72
    65
 73
     6
 40
10.0
 49
5.0
 74
     0
 49
-1.0
 74
     0
 49
1.0
 74
     0
 49
-1.0
 74
     0
 49
1.0
 74
     0
 49
-1.0
 74
     0
  0
LTYPE
  5
E0
100
AcDbSymbolTableRecord
100
AcDbLinetypeTableRecord
  2
_STARTPFEIL
 70
    64
  3

 72
    65
 73
     0
 40
0.0
  0
LTYPE
  5
E1
100
AcDbSymbolTableRecord
100
AcDbLinetypeTableRecord
  2
_ENDPFEIL
 70
    64
  3

 72
    65
 73
     0
 40
0.0
  0
LTYPE
  5
E2
100
AcDbSymbolTableRecord
100
AcDbLinetypeTableRecord
  2
_ENDPUNKT
 70
    64
  3

 72
    65
 73
     0
 40
0.0
  0
LTYPE
  5
E3
100
AcDbSymbolTableRecord
100
AcDbLinetypeTableRecord
  2
_PFEIL
 70
    64
  3

 72
    65
 73
     0
 40
0.0
  0
LTYPE
  5
E4
100
AcDbSymbolTableRecord
100
AcDbLinetypeTableRecord
  2
_STITCHLINE
 70
    64
  3

 72
    65
 73
     2
 40
6.0
 49
3.0
 74
     0
 49
-3.0
 74
     0
  0
LTYPE
  5
E5
100
AcDbSymbolTableRecord
100
AcDbLinetypeTableRecord
  2
_MITTELLINIE_2
 70
    64
  3

 72
    65
 73
     4
 40
17.0
 49
10.0
 74
     0
 49
-2.0
 74
     0
 49
3.0
 74
     0
 49
-2.0
 74
     0
  0
LTYPE
  5
E6
100
AcDbSymbolTableRecord
100
AcDbLinetypeTableRecord
  2
_VERDECKTE_LINIE
 70
    64
  3

 72
    65
 73
     2
 40
4.0
 49
2.0
 74
     0
 49
-2.0
 74
     0
  0
LTYPE
  5
E7
100
AcDbSymbolTableRecord
100
AcDbLinetypeTableRecord
  2
_PHANTOMLINIE
 70
    64
  3

 72
    65
 73
     6
 40
21.0
 49
10.0
 74
     0
 49
-2.0
 74
     0
 49
3.0
 74
     0
 49
-1.0
 74
     0
 49
3.0
 74
     0
 49
-2.0
 74
     0
  0
LTYPE
  5
E8
100
AcDbSymbolTableRecord
100
AcDbLinetypeTableRecord
  2
_BRUCHLINIE_1
 70
    64
  3

 72
    65
 73
     0
 40
0.0
  0
LTYPE
  5
E9
100
AcDbSymbolTableRecord
100
AcDbLinetypeTableRecord
  2
_BRUCHLINIE_2
 70
    64
  3

 72
    65
 73
     0
 40
0.0
  0
LTYPE
  5
EA
100
AcDbSymbolTableRecord
100
AcDbLinetypeTableRecord
  2
_DURCHGEHEND
 70
    64
  3

 72
    65
 73
     0
 40
0.0
  0
LTYPE
  5
EB
100
AcDbSymbolTableRecord
100
AcDbLinetypeTableRecord
  2
_GESTRICHELT
 70
    64
  3

 72
    65
 73
     2
 40
10.0
 49
5.0
 74
     0
 49
-5.0
 74
     0
  0
LTYPE
  5
EC
100
AcDbSymbolTableRecord
100
AcDbLinetypeTableRecord
  2
_MITTELLINIE
 70
    64
  3

 72
    65
 73
     4
 40
20.0
 49
10.0
 74
     0
 49
-2.0
 74
     0
 49
5.0
 74
     0
 49
-3.0
 74
     0
  0
LTYPE
  5
ED
100
AcDbSymbolTableRecord
100
AcDbLinetypeTableRecord
  2
_PUNKTIERT
 70
    64
  3

 72
    65
 73
     2
 40
0.25
 49
0.0
 74
     0
 49
-0.25
 74
     0
  0
LTYPE
  5
EE
100
AcDbSymbolTableRecord
100
AcDbLinetypeTableRecord
  2
_STRICHPUNKTIERT
 70
    64
  3

 72
    65
 73
     4
 40
8.0
 49
5.0
 74
     0
 49
-1.0
 74
     0
 49
1.0
 74
     0
 49
-1.0
 74
     0
  0
LTYPE
  5
EF
100
AcDbSymbolTableRecord
100
AcDbLinetypeTableRecord
  2
_STRICH-PUNKT-PUNKT
 70
    64
  3

 72
    65
 73
     6
 40
10.0
 49
5.0
 74
     0
 49
-1.0
 74
     0
 49
1.0
 74
     0
 49
-1.0
 74
     0
 49
1.0
 74
     0
 49
-1.0
 74
     0
  0
LTYPE
  5
F0
100
AcDbSymbolTableRecord
100
AcDbLinetypeTableRecord
  2
_STARTPFEIL
 70
    64
  3

 72
    65
 73
     0
 40
0.0
  0
LTYPE
  5
F1
100
AcDbSymbolTableRecord
100
AcDbLinetypeTableRecord
  2
_ENDPFEIL
 70
    64
  3

 72
    65
 73
     0
 40
0.0
  0
LTYPE
  5
F2
100
AcDbSymbolTableRecord
100
AcDbLinetypeTableRecord
  2
_ENDPUNKT
 70
    64
  3

 72
    65
 73
     0
 40
0.0
  0
LTYPE
  5
F3
100
AcDbSymbolTableRecord
100
AcDbLinetypeTableRecord
  2
_PFEIL
 70
    64
  3

 72
    65
 73
     0
 40
0.0
  0
LTYPE
  5
F4
100
AcDbSymbolTableRecord
100
AcDbLinetypeTableRecord
  2
_STITCHLINE
 70
    64
  3

 72
    65
 73
     2
 40
6.0
 49
3.0
 74
     0
 49
-3.0
 74
     0
  0
LTYPE
  5
F5
100
AcDbSymbolTableRecord
100
AcDbLinetypeTableRecord
  2
_MITTELLINIE_2
 70
    64
  3

 72
    65
 73
     4
 40
17.0
 49
10.0
 74
     0
 49
-2.0
 74
     0
 49
3.0
 74
     0
 49
-2.0
 74
     0
  0
LTYPE
  5
F6
100
AcDbSymbolTableRecord
100
AcDbLinetypeTableRecord
  2
_VERDECKTE_LINIE
 70
    64
  3

 72
    65
 73
     2
 40
4.0
 49
2.0
 74
     0
 49
-2.0
 74
     0
  0
LTYPE
  5
F7
100
AcDbSymbolTableRecord
100
AcDbLinetypeTableRecord
  2
_PHANTOMLINIE
 70
    64
  3

 72
    65
 73
     6
 40
21.0
 49
10.0
 74
     0
 49
-2.0
 74
     0
 49
3.0
 74
     0
 49
-1.0
 74
     0
 49
3.0
 74
     0
 49
-2.0
 74
     0
  0
LTYPE
  5
F8
100
AcDbSymbolTableRecord
100
AcDbLinetypeTableRecord
  2
_BRUCHLINIE_1
 70
    64
  3

 72
    65
 73
     0
 40
0.0
  0
LTYPE
  5
F9
100
AcDbSymbolTableRecord
100
AcDbLinetypeTableRecord
  2
_BRUCHLINIE_2
 70
    64
  3

 72
    65
 73
     0
 40
0.0
  0
LTYPE
  5
FA
100
AcDbSymbolTableRecord
100
AcDbLinetypeTableRecord
  2
CONTINUOUS
 70
    64
  3

 72
    65
 73
     0
 40
0.0
  0
ENDTAB
  0
TABLE
  2
LAYER
  5
2
100
AcDbSymbolTable
 70
     8
  0
LAYER
  5
14
100
AcDbSymbolTableRecord
100
AcDbLayerTableRecord
  2
0
 70
     0
 62
     7
  6
Continuous
290
     1
370
    -3
390
1D
  0
LAYER
  5
FB
100
AcDbSymbolTableRecord
100
AcDbLayerTableRecord
  2
STANDARDEBENE
 70
     0
 62
     7
  6
Continuous
290
     1
370
    -3
390
1D
  0
LAYER
  5
FC
100
AcDbSymbolTableRecord
100
AcDbLayerTableRecord
  2
ARMATUR
 70
     0
 62
     7
  6
Continuous
290
     1
370
    -3
390
1D
  0
LAYER
  5
FD
100
AcDbSymbolTableRecord
100
AcDbLayerTableRecord
  2
ACHSEN
 70
     0
 62
     7
  6
Continuous
290
     1
370
    -3
390
1D
  0
LAYER
  5
FE
100
AcDbSymbolTableRecord
100
AcDbLayerTableRecord
  2
TEXT
 70
     0
 62
     7
  6
Continuous
290
     1
370
    -3
390
1D
  0
LAYER
  5
FF
100
AcDbSymbolTableRecord
100
AcDbLayerTableRecord
  2
BEMASSUNG
 70
     0
 62
     7
  6
Continuous
290
     1
370
    -3
390
1D
  0
LAYER
  5
100
100
AcDbSymbolTableRecord
100
AcDbLayerTableRecord
  2
WAND
 70
     0
 62
     7
  6
Continuous
290
     1
370
    -3
390
1D
  0
LAYER
  5
101
100
AcDbSymbolTableRecord
100
AcDbLayerTableRecord
  2
ANSICHT
 70
     0
 62
     7
  6
Continuous
290
     1
370
    -3
390
1D
  0
ENDTAB
  0
TABLE
  2
STYLE
  5
3
100
AcDbSymbolTable
 70
     1
  0
STYLE
  5
17
100
AcDbSymbolTableRecord
100
AcDbTextStyleTableRecord
  2
Standard
 70
     0
 40
0.0
 41
1.0
 50
0.0
 71
     0
 42
0.0
  3
txt
  4

  0
ENDTAB
  0
TABLE
  2
VIEW
  5
5
100
AcDbSymbolTable
 70
     0
  0
ENDTAB
  0
TABLE
  2
UCS
  5
6
100
AcDbSymbolTable
 70
     1
  0
UCS
  5
24
100
AcDbSymbolTableRecord
100
AcDbUCSTableRecord
  2
ISODRAW_6_2
 70
     0
 10
0.0
 20
0.0
 30
0.0
 11
0.0
 21
1.0
 31
0.0
 12
0.0
 22
0.0
 32
1.0
 79
     0
146
0.0
  0
ENDTAB
  0
TABLE
  2
APPID
  5
8
100
AcDbSymbolTable
 70
     1
  0
APPID
  5
16
100
AcDbSymbolTableRecord
100
AcDbRegAppTableRecord
  2
ACAD
 70
     0
  0
ENDTAB
  0
TABLE
  2
DIMSTYLE
  5
9
100
AcDbSymbolTable
 70
     1
100
AcDbDimStyleTable
 71
     0
  0
DIMSTYLE
105
18
100
AcDbSymbolTableRecord
100
AcDbDimStyleTableRecord
  2
Standard
 70
     0
  3

  4

 40
1.0
 41
0.18
 42
0.0625
 43
0.38
 44
0.18
 45
0.0
 46
0.0
 47
0.0
 48
0.0
 71
     0
 72
     0
 73
     1
 74
     1
 75
     0
 76
     0
 77
     0
 78
     0
 79
     0
140
0.18
141
0.09
142
0.0
143
25.4
144
1.0
145
0.0
146
1.0
147
0.09
148
0.0
170
     0
171
     2
172
     0
173
     0
174
     0
175
     0
176
     0
177
     0
178
     0
179
     0
271
     4
272
     4
273
     2
274
     2
275
     0
276
     0
277
     2
278
    46
279
     0
280
     0
281
     0
282
     0
283
     1
284
     0
285
     0
286
     0
288
     0
289
     3
340
17
341
0
342
0
343
0
344
0
371
    -2
372
    -2
  0
ENDTAB
  0
TABLE
  2
BLOCK_RECORD
  5
1
100
AcDbSymbolTable
 70
     0
  0
BLOCK_RECORD
  5
A
100
AcDbSymbolTableRecord
100
AcDbBlockTableRecord
  2
*MODEL_SPACE
340
20
  0
BLOCK_RECORD
  5
B
100
AcDbSymbolTableRecord
100
AcDbBlockTableRecord
  2
*PAPER_SPACE
340
21
  0
ENDTAB
  0
ENDSEC
  0
SECTION
  2
BLOCKS
  0
BLOCK
  5
D
100
AcDbEntity
  8
0
390
0
100
AcDbBlockBegin
  2
*MODEL_SPACE
 70
     0
 10
0.0
 20
0.0
 30
0.0
  3
*MODEL_SPACE
  1

  0
ENDBLK
  5
E
100
AcDbEntity
  8
0
390
0
100
AcDbBlockEnd
  0
BLOCK
  5
F
100
AcDbEntity
 67
     1
  8
0
390
0
100
AcDbBlockBegin
  2
*PAPER_SPACE
 70
     0
 10
0.0
 20
0.0
 30
0.0
  3
*PAPER_SPACE
  1

  0
ENDBLK
  5
10
100
AcDbEntity
 67
     1
  8
0
390
0
100
AcDbBlockEnd
  0
ENDSEC
  0
SECTION
  2
ENTITIES
  0
LINE
  5
102
100
AcDbEntity
  8
ARMATUR
390
0
  6
DURCHGEHEND
 62
     1
100
AcDbLine
 10
85.395821
 20
102.220573
 30
0.0
 11
135.395828
 21
102.220573
 31
0.0
  0
LINE
  5
103
100
AcDbEntity
  8
ARMATUR
390
0
  6
DURCHGEHEND
 62
     1
100
AcDbLine
 10
124.990906
 20
104.533073
 30
0.0
 11
124.853424
 21
104.670578
 31
0.0
  0
LINE
  5
104
100
AcDbEntity
  8
ARMATUR
390
0
  6
DURCHGEHEND
 62
     1
100
AcDbLine
 10
124.103424
 20
104.670578
 30
0.0
 11
123.965912
 21
104.533073
 31
0.0
  0
LINE
  5
105
100
AcDbEntity
  8
ARMATUR
390
0
  6
DURCHGEHEND
 62
     1
100
AcDbLine
 10
89.990906
 20
104.533073
 30
0.0
 11
89.853409
 21
104.670578
 31
0.0
  0
LINE
  5
106
100
AcDbEntity
  8
ARMATUR
390
0
  6
DURCHGEHEND
 62
     1
100
AcDbLine
 10
89.103409
 20
104.670578
 30
0.0
 11
88.965912
 21
104.533073
 31
0.0
  0
LINE
  5
107
100
AcDbEntity
  8
ARMATUR
390
0
  6
DURCHGEHEND
 62
     1
100
AcDbLine
 10
77.178406
 20
117.220573
 30
0.0
 11
136.778412
 21
117.220573
 31
0.0
  0
LINE
  5
108
100
AcDbEntity
  8
ARMATUR
390
0
  6
DURCHGEHEND
 62
     1
100
AcDbLine
 10
136.778412
 20
102.220573
 30
0.0
 11
77.178406
 21
102.220573
 31
0.0
  0
LINE
  5
109
100
AcDbEntity
  8
ARMATUR
390
0
  6
DURCHGEHEND
 62
     1
100
AcDbLine
 10
76.978409
 20
102.420578
 30
0.0
 11
76.978409
 21
117.020576
 31
0.0
  0
ARC
  5
10A
100
AcDbEntity
  8
ARMATUR
390
0
  6
DURCHGEHEND
 62
     1
100
AcDbCircle
 10
77.178406
 20
102.420578
 30
0.0
 40
0.200005
100
AcDbArc
 50
180.0
 51
270.0
  0
ARC
  5
10B
100
AcDbEntity
  8
ARMATUR
390
0
  6
DURCHGEHEND
 62
     1
100
AcDbCircle
 10
77.178406
 20
117.020576
 30
0.0
 40
0.200005
100
AcDbArc
 50
90.0
 51
180.0
  0
LINE
  5
10C
100
AcDbEntity
  8
ARMATUR
390
0
  6
DURCHGEHEND
 62
     1
100
AcDbLine
 10
136.978424
 20
117.020576
 30
0.0
 11
136.978424
 21
102.420578
 31
0.0
  0
ARC
  5
10D
100
AcDbEntity
  8
ARMATUR
390
0
  6
DURCHGEHEND
 62
     1
100
AcDbCircle
 10
136.778412
 20
117.020576
 30
0.0
 40
0.199997
100
AcDbArc
 50
0.0
 51
90.0
  0
LINE
  5
10E
100
AcDbEntity
  8
ARMATUR
390
0
  6
DURCHGEHEND
 62
     1
100
AcDbLine
 10
129.665924
 20
104.533073
 30
0.0
 11
129.665924
 21
114.908073
 31
0.0
  0
LINE
  5
10F
100
AcDbEntity
  8
ARMATUR
390
0
  6
DURCHGEHEND
 62
     1
100
AcDbLine
 10
84.290909
 20
114.908073
 30
0.0
 11
84.290909
 21
104.533073
 31
0.0
  0
LINE
  5
110
100
AcDbEntity
  8
ARMATUR
390
0
  6
DURCHGEHEND
 62
     1
100
AcDbLine
 10
84.290909
 20
104.533073
 30
0.0
 11
129.665924
 21
104.533073
 31
0.0
  0
LINE
  5
111
100
AcDbEntity
  8
ARMATUR
390
0
  6
DURCHGEHEND
 62
     1
100
AcDbLine
 10
129.665924
 20
114.908073
 30
0.0
 11
84.290909
 21
114.908073
 31
0.0
  0
ARC
  5
112
100
AcDbEntity
  8
ARMATUR
390
0
  6
DURCHGEHEND
 62
     1
100
AcDbCircle
 10
136.778412
 20
102.420578
 30
0.0
 40
0.199997
100
AcDbArc
 50
270.0
 51
360.0
  0
LINE
  5
113
100
AcDbEntity
  8
ARMATUR
390
0
  6
DURCHGEHEND
 62
     1
100
AcDbLine
 10
87.415909
 20
108.345573
 30
0.0
 11
87.415909
 21
109.845573
 31
0.0
  0
ARC
  5
114
100
AcDbEntity
  8
ARMATUR
390
0
  6
DURCHGEHEND
 62
     1
100
AcDbCircle
 10
125.665924
 20
108.345573
 30
0.0
 40
0.875
100
AcDbArc
 50
270.0
 51
360.0
  0
ARC
  5
115
100
AcDbEntity
  8
ARMATUR
390
0
  6
DURCHGEHEND
 62
     1
100
AcDbCircle
 10
88.290909
 20
108.345573
 30
0.0
 40
0.875
100
AcDbArc
 50
180.0
 51
270.0
  0
LINE
  5
116
100
AcDbEntity
  8
ARMATUR
390
0
  6
DURCHGEHEND
 62
     1
100
AcDbLine
 10
125.665924
 20
107.470573
 30
0.0
 11
88.290909
 21
107.470573
 31
0.0
  0
LINE
  5
117
100
AcDbEntity
  8
ARMATUR
390
0
  6
DURCHGEHEND
 62
     1
100
AcDbLine
 10
88.290909
 20
110.720573
 30
0.0
 11
125.665924
 21
110.720573
 31
0.0
  0
ARC
  5
118
100
AcDbEntity
  8
ARMATUR
390
0
  6
DURCHGEHEND
 62
     1
100
AcDbCircle
 10
125.665924
 20
109.845573
 30
0.0
 40
0.875
100
AcDbArc
 50
0.0
 51
90.0
  0
ARC
  5
119
100
AcDbEntity
  8
ARMATUR
390
0
  6
DURCHGEHEND
 62
     1
100
AcDbCircle
 10
88.290909
 20
109.845573
 30
0.0
 40
0.875
100
AcDbArc
 50
90.0
 51
180.0
  0
LINE
  5
11A
100
AcDbEntity
  8
ARMATUR
390
0
  6
DURCHGEHEND
 62
     1
100
AcDbLine
 10
126.540924
 20
109.845573
 30
0.0
 11
126.540924
 21
108.345573
 31
0.0
  0
LINE
  5
11B
100
AcDbEntity
  8
ARMATUR
390
0
  6
DURCHGEHEND
 62
     1
100
AcDbLine
 10
127.128418
 20
114.770576
 30
0.0
 11
86.828415
 21
114.770576
 31
0.0
  0
LINE
  5
11C
100
AcDbEntity
  8
ARMATUR
390
0
  6
DURCHGEHEND
 62
     1
100
AcDbLine
 10
127.128418
 20
114.770576
 30
0.0
 11
129.3284
 21
114.770576
 31
0.0
  0
ARC
  5
11D
100
AcDbEntity
  8
ARMATUR
390
0
  6
DURCHGEHEND
 62
     1
100
AcDbCircle
 10
127.128418
 20
114.57058
 30
0.0
 40
0.199997
100
AcDbArc
 50
90.0
 51
180.0
  0
LINE
  5
11E
100
AcDbEntity
  8
ARMATUR
390
0
  6
DURCHGEHEND
 62
     1
100
AcDbLine
 10
84.628403
 20
114.770576
 30
0.0
 11
86.828415
 21
114.770576
 31
0.0
  0
LINE
  5
11F
100
AcDbEntity
  8
ARMATUR
390
0
  6
DURCHGEHEND
 62
     1
100
AcDbLine
 10
87.978409
 20
107.270576
 30
0.0
 11
125.978424
 21
107.270576
 31
0.0
  0
ARC
  5
120
100
AcDbEntity
  8
ARMATUR
390
0
  6
DURCHGEHEND
 62
     1
100
AcDbCircle
 10
84.628403
 20
114.57058
 30
0.0
 40
0.200005
100
AcDbArc
 50
90.0
 51
180.0
  0
ARC
  5
121
100
AcDbEntity
  8
ARMATUR
390
0
  6
DURCHGEHEND
 62
     1
100
AcDbCircle
 10
86.828415
 20
114.57058
 30
0.0
 40
0.199997
100
AcDbArc
 50
0.0
 51
90.0
  0
LINE
  5
122
100
AcDbEntity
  8
ARMATUR
390
0
  6
DURCHGEHEND
 62
     1
100
AcDbLine
 10
87.028412
 20
114.57058
 30
0.0
 11
87.028412
 21
108.220573
 31
0.0
  0
LINE
  5
123
100
AcDbEntity
  8
ARMATUR
390
0
  6
DURCHGEHEND
 62
     1
100
AcDbLine
 10
84.428406
 20
104.870575
 30
0.0
 11
84.428406
 21
114.57058
 31
0.0
  0
ARC
  5
124
100
AcDbEntity
  8
ARMATUR
390
0
  6
DURCHGEHEND
 62
     1
100
AcDbCircle
 10
87.978409
 20
108.220573
 30
0.0
 40
0.949997
100
AcDbArc
 50
180.0
 51
270.0
  0
ARC
  5
125
100
AcDbEntity
  8
ARMATUR
390
0
  6
DURCHGEHEND
 62
     1
100
AcDbCircle
 10
84.628403
 20
104.870575
 30
0.0
 40
0.200005
100
AcDbArc
 50
180.0
 51
270.0
  0
LINE
  5
126
100
AcDbEntity
  8
ARMATUR
390
0
  6
DURCHGEHEND
 62
     1
100
AcDbLine
 10
129.3284
 20
104.670578
 30
0.0
 11
84.628403
 21
104.670578
 31
0.0
  0
LINE
  5
127
100
AcDbEntity
  8
ARMATUR
390
0
  6
DURCHGEHEND
 62
     1
100
AcDbLine
 10
126.928406
 20
108.220573
 30
0.0
 11
126.928406
 21
114.57058
 31
0.0
  0
ARC
  5
128
100
AcDbEntity
  8
ARMATUR
390
0
  6
DURCHGEHEND
 62
     1
100
AcDbCircle
 10
129.3284
 20
104.870575
 30
0.0
 40
0.200012
100
AcDbArc
 50
270.0
 51
360.0
  0
ARC
  5
129
100
AcDbEntity
  8
ARMATUR
390
0
  6
DURCHGEHEND
 62
     1
100
AcDbCircle
 10
125.978424
 20
108.220573
 30
0.0
 40
0.949997
100
AcDbArc
 50
270.0
 51
360.0
  0
ARC
  5
12A
100
AcDbEntity
  8
ARMATUR
390
0
  6
DURCHGEHEND
 62
     1
100
AcDbCircle
 10
129.3284
 20
114.57058
 30
0.0
 40
0.200012
100
AcDbArc
 50
0.0
 51
90.0
  0
LINE
  5
12B
100
AcDbEntity
  8
ARMATUR
390
0
  6
DURCHGEHEND
 62
     1
100
AcDbLine
 10
129.528412
 20
114.57058
 30
0.0
 11
129.528412
 21
104.870575
 31
0.0
  0
LINE
  5
12C
100
AcDbEntity
  8
ARMATUR
390
0
  6
DURCHGEHEND
 62
     1
100
AcDbLine
 10
177.161545
 20
113.045654
 30
0.0
 11
174.161545
 21
113.045654
 31
0.0
  0
LINE
  5
12D
100
AcDbEntity
  8
ARMATUR
390
0
  6
DURCHGEHEND
 62
     1
100
AcDbLine
 10
174.161545
 20
107.845657
 30
0.0
 11
177.161545
 21
107.845657
 31
0.0
  0
LINE
  5
12E
100
AcDbEntity
  8
ARMATUR
390
0
  6
DURCHGEHEND
 62
     1
100
AcDbLine
 10
172.161545
 20
113.045654
 30
0.0
 11
171.911545
 21
112.795654
 31
0.0
  0
LINE
  5
12F
100
AcDbEntity
  8
ARMATUR
390
0
  6
DURCHGEHEND
 62
     1
100
AcDbLine
 10
171.911545
 20
108.095657
 30
0.0
 11
172.161545
 21
107.845657
 31
0.0
  0
LINE
  5
130
100
AcDbEntity
  8
ARMATUR
390
0
  6
DURCHGEHEND
 62
     1
100
AcDbLine
 10
173.661545
 20
113.045654
 30
0.0
 11
172.161545
 21
113.045654
 31
0.0
  0
LINE
  5
131
100
AcDbEntity
  8
ARMATUR
390
0
  6
DURCHGEHEND
 62
     1
100
AcDbLine
 10
172.161545
 20
107.845657
 30
0.0
 11
173.661545
 21
107.845657
 31
0.0
  0
ARC
  5
132
100
AcDbEntity
  8
ARMATUR
390
0
  6
DURCHGEHEND
 62
     1
100
AcDbCircle
 10
173.786545
 20
108.070663
 30
0.0
 40
0.125
100
AcDbArc
 50
90.0
 51
180.0
  0
ARC
  5
133
100
AcDbEntity
  8
ARMATUR
390
0
  6
DURCHGEHEND
 62
     1
100
AcDbCircle
 10
173.786545
 20
112.820663
 30
0.0
 40
0.125
100
AcDbArc
 50
180.0
 51
270.0
  0
ARC
  5
134
100
AcDbEntity
  8
ARMATUR
390
0
  6
DURCHGEHEND
 62
     1
100
AcDbCircle
 10
174.036545
 20
112.820663
 30
0.0
 40
0.125
100
AcDbArc
 50
270.0
 51
360.0
  0
ARC
  5
135
100
AcDbEntity
  8
ARMATUR
390
0
  6
DURCHGEHEND
 62
     1
100
AcDbCircle
 10
174.036545
 20
108.070663
 30
0.0
 40
0.125
100
AcDbArc
 50
0.0
 51
90.0
  0
LINE
  5
136
100
AcDbEntity
  8
ARMATUR
390
0
  6
DURCHGEHEND
 62
     1
100
AcDbLine
 10
174.036545
 20
112.695663
 30
0.0
 11
173.786545
 21
112.695663
 31
0.0
  0
LINE
  5
137
100
AcDbEntity
  8
ARMATUR
390
0
  6
DURCHGEHEND
 62
     1
100
AcDbLine
 10
173.786545
 20
108.195663
 30
0.0
 11
174.036545
 21
108.195663
 31
0.0
  0
LINE
  5
138
100
AcDbEntity
  8
ARMATUR
390
0
  6
DURCHGEHEND
 62
     1
100
AcDbLine
 10
174.161545
 20
113.045654
 30
0.0
 11
174.161545
 21
107.845657
 31
0.0
  0
LINE
  5
139
100
AcDbEntity
  8
ARMATUR
390
0
  6
DURCHGEHEND
 62
     1
100
AcDbLine
 10
172.161545
 20
113.045654
 30
0.0
 11
172.161545
 21
107.845657
 31
0.0
  0
LINE
  5
13A
100
AcDbEntity
  8
ARMATUR
390
0
  6
DURCHGEHEND
 62
     1
100
AcDbLine
 10
171.911545
 20
108.095657
 30
0.0
 11
171.911545
 21
112.795654
 31
0.0
  0
LINE
  5
13B
100
AcDbEntity
  8
ARMATUR
390
0
  6
DURCHGEHEND
 62
     1
100
AcDbLine
 10
173.661545
 20
113.045654
 30
0.0
 11
173.661545
 21
107.845657
 31
0.0
  0
LINE
  5
13C
100
AcDbEntity
  8
ARMATUR
390
0
  6
DURCHGEHEND
 62
     1
100
AcDbLine
 10
177.186539
 20
117.220657
 30
0.0
 11
177.186539
 21
102.620659
 31
0.0
  0
ARC
  5
13D
100
AcDbEntity
  8
ARMATUR
390
0
  6
DURCHGEHEND
 62
     1
100
AcDbCircle
 10
179.236542
 20
102.620659
 30
0.0
 40
0.199997
100
AcDbArc
 50
270.0
 51
360.0
  0
LINE
  5
13E
100
AcDbEntity
  8
ARMATUR
390
0
  6
DURCHGEHEND
 62
     1
100
AcDbLine
 10
179.236542
 20
102.420654
 30
0.0
 11
177.186539
 21
102.420654
 31
0.0
  0
LINE
  5
13F
100
AcDbEntity
  8
ARMATUR
390
0
  6
DURCHGEHEND
 62
     1
100
AcDbLine
 10
177.186539
 20
102.420654
 30
0.0
 11
177.186539
 21
102.620659
 31
0.0
  0
LINE
  5
140
100
AcDbEntity
  8
ARMATUR
390
0
  6
DURCHGEHEND
 62
     1
100
AcDbLine
 10
179.436539
 20
117.220657
 30
0.0
 11
179.436539
 21
102.620659
 31
0.0
  0
ARC
  5
141
100
AcDbEntity
  8
ARMATUR
390
0
  6
DURCHGEHEND
 62
     1
100
AcDbCircle
 10
179.236542
 20
117.220657
 30
0.0
 40
0.199997
100
AcDbArc
 50
0.0
 51
90.0
  0
LINE
  5
142
100
AcDbEntity
  8
ARMATUR
390
0
  6
DURCHGEHEND
 62
     1
100
AcDbLine
 10
177.186539
 20
117.420654
 30
0.0
 11
179.236542
 21
117.420654
 31
0.0
  0
LINE
  5
143
100
AcDbEntity
  8
ARMATUR
390
0
  6
DURCHGEHEND
 62
     1
100
AcDbLine
 10
177.186539
 20
117.220657
 30
0.0
 11
177.186539
 21
117.420654
 31
0.0
  0
LINE
  5
144
100
AcDbEntity
  8
ARMATUR
390
0
  6
DURCHGEHEND
 62
     1
100
AcDbLine
 10
179.436539
 20
114.970657
 30
0.0
 11
187.686539
 21
114.970657
 31
0.0
  0
LINE
  5
145
100
AcDbEntity
  8
ARMATUR
390
0
  6
DURCHGEHEND
 62
     1
100
AcDbLine
 10
187.686539
 20
114.970657
 30
0.0
 11
187.686539
 21
114.77066
 31
0.0
  0
LINE
  5
146
100
AcDbEntity
  8
ARMATUR
390
0
  6
DURCHGEHEND
 62
     1
100
AcDbLine
 10
187.686539
 20
114.77066
 30
0.0
 11
187.686539
 21
105.070656
 31
0.0
  0
LINE
  5
147
100
AcDbEntity
  8
ARMATUR
390
0
  6
DURCHGEHEND
 62
     1
100
AcDbLine
 10
187.686539
 20
104.870659
 30
0.0
 11
179.436539
 21
104.870659
 31
0.0
  0
LINE
  5
148
100
AcDbEntity
  8
ARMATUR
390
0
  6
DURCHGEHEND
 62
     1
100
AcDbLine
 10
187.686539
 20
105.070656
 30
0.0
 11
187.686539
 21
104.870659
 31
0.0
  0
LINE
  5
149
100
AcDbEntity
  8
ARMATUR
390
0
  6
DURCHGEHEND
 62
     1
100
AcDbLine
 10
207.186539
 20
114.77066
 30
0.0
 11
207.186539
 21
105.070656
 31
0.0
  0
LINE
  5
14A
100
AcDbEntity
  8
ARMATUR
390
0
  6
DURCHGEHEND
 62
     1
100
AcDbLine
 10
206.986542
 20
104.870659
 30
0.0
 11
187.936539
 21
104.870659
 31
0.0
  0
LINE
  5
14B
100
AcDbEntity
  8
ARMATUR
390
0
  6
DURCHGEHEND
 62
     1
100
AcDbLine
 10
187.936539
 20
104.870659
 30
0.0
 11
187.936539
 21
105.070656
 31
0.0
  0
LINE
  5
14C
100
AcDbEntity
  8
ARMATUR
390
0
  6
DURCHGEHEND
 62
     1
100
AcDbLine
 10
187.936539
 20
114.970657
 30
0.0
 11
206.986542
 21
114.970657
 31
0.0
  0
LINE
  5
14D
100
AcDbEntity
  8
ARMATUR
390
0
  6
DURCHGEHEND
 62
     1
100
AcDbLine
 10
187.936539
 20
114.77066
 30
0.0
 11
187.936539
 21
114.970657
 31
0.0
  0
LINE
  5
14E
100
AcDbEntity
  8
ARMATUR
390
0
  6
DURCHGEHEND
 62
     1
100
AcDbLine
 10
187.936539
 20
105.070656
 30
0.0
 11
187.936539
 21
114.77066
 31
0.0
  0
ARC
  5
14F
100
AcDbEntity
  8
ARMATUR
390
0
  6
DURCHGEHEND
 62
     1
100
AcDbCircle
 10
206.986542
 20
114.77066
 30
0.0
 40
0.199997
100
AcDbArc
 50
0.0
 51
90.0
  0
ARC
  5
150
100
AcDbEntity
  8
ARMATUR
390
0
  6
DURCHGEHEND
 62
     1
100
AcDbCircle
 10
206.986542
 20
105.070656
 30
0.0
 40
0.199997
100
AcDbArc
 50
270.0
 51
360.0
  0
LINE
  5
151
100
AcDbEntity
  8
ARMATUR
390
0
  6
DURCHGEHEND
 62
     1
100
AcDbLine
 10
187.936539
 20
105.045654
 30
0.0
 11
187.686539
 21
105.045654
 31
0.0
  0
LINE
  5
152
100
AcDbEntity
  8
ARMATUR
390
0
  6
DURCHGEHEND
 62
     1
100
AcDbLine
 10
187.936539
 20
114.795654
 30
0.0
 11
187.686539
 21
114.795654
 31
0.0
  0
LINE
  5
153
100
AcDbEntity
  8
ARMATUR
390
0
  6
DURCHGEHEND
 62
     1
100
AcDbLine
 10
207.186539
 20
108.420654
 30
0.0
 11
207.186539
 21
107.27066
 31
0.0
  0
LINE
  5
154
100
AcDbEntity
  8
ARMATUR
390
0
  6
DURCHGEHEND
 62
     1
100
AcDbLine
 10
207.186539
 20
114.77066
 30
0.0
 11
207.186539
 21
108.420654
 31
0.0
  0
LINE
  5
155
100
AcDbEntity
  8
ARMATUR
390
0
  6
DURCHGEHEND
 62
     3
100
AcDbLine
 10
171.911545
 20
112.608398
 30
0.0
 11
173.66156
 21
112.608398
 31
0.0
  0
LINE
  5
156
100
AcDbEntity
  8
ARMATUR
390
0
  6
DURCHGEHEND
 62
     3
100
AcDbLine
 10
174.16153
 20
112.608398
 30
0.0
 11
177.186508
 21
112.608398
 31
0.0
  0
LINE
  5
157
100
AcDbEntity
  8
ARMATUR
390
0
  6
DURCHGEHEND
 62
     3
100
AcDbLine
 10
171.911545
 20
108.258255
 30
0.0
 11
173.66156
 21
108.258255
 31
0.0
  0
LINE
  5
158
100
AcDbEntity
  8
ARMATUR
390
0
  6
DURCHGEHEND
 62
     3
100
AcDbLine
 10
174.16153
 20
108.258255
 30
0.0
 11
177.186508
 21
108.258255
 31
0.0
  0
LINE
  5
159
100
AcDbEntity
  8
ACHSEN
390
0
  6
_STRICHPUNKTIERT
 62
     4
100
AcDbLine
 10
171.33989
 20
110.485474
 30
0.0
 11
208.012619
 21
110.485474
 31
0.0
  0
LINE
  5
15A
100
AcDbEntity
  8
ACHSEN
390
0
  6
_STRICHPUNKTIERT
 62
     4
100
AcDbLine
 10
76.23745
 20
109.750061
 30
0.0
 11
137.751144
 21
109.750061
 31
0.0
  0
LINE
  5
15B
100
AcDbEntity
  8
ACHSEN
390
0
  6
STRICHPUNKTIERT
 62
     4
100
AcDbLine
 10
106.980705
 20
118.886253
 30
0.0
 11
106.980705
 21
99.405502
 31
0.0
  0
LINE
  5
15C
100
AcDbEntity
  8
ACHSEN
390
0
  6
STRICHPUNKTIERT
 62
     4
100
AcDbLine
 10
127.665039
 20
109.095573
 30
0.0
 11
86.173347
 21
109.095573
 31
0.0
  0
TEXT
  5
15D
100
AcDbEntity
  8
TEXT
390
0
100
AcDbText
 10
185.529175
 20
143.515915
 30
0.0
 40
7.055555
  1
120
100
AcDbText
  0
TEXT
  5
15E
100
AcDbEntity
  8
TEXT
390
0
100
AcDbText
 10
159.170242
 20
85.79377
 30
0.0
 40
7.055555
  1
G 1/2
 50
90.0
100
AcDbText
  0
TEXT
  5
15F
100
AcDbEntity
  8
TEXT
390
0
100
AcDbText
 10
99.478363
 20
133.00351
 30
0.0
 40
7.055555
  1
160
100
AcDbText
  0
TEXT
  5
160
100
AcDbEntity
  8
TEXT
390
0
100
AcDbText
 10
100.170395
 20
142.830078
 30
0.0
 40
7.055555
  1
240
100
AcDbText
  0
TEXT
  5
161
100
AcDbEntity
  8
TEXT
390
0
100
AcDbText
 10
47.733719
 20
105.561539
 30
0.0
 40
7.055555
  1
60
 50
90.0
100
AcDbText
  0
TEXT
  5
162
100
AcDbEntity
  8
TEXT
390
0
100
AcDbText
 10
220.654587
 20
105.253891
 30
0.0
 40
7.055555
  1
40
 50
90.0
100
AcDbText
  0
TEXT
  5
163
100
AcDbEntity
  8
TEXT
390
0
100
AcDbText
 10
62.492302
 20
89.797943
 30
0.0
 40
7.055555
  1
12,5
 50
90.0
100
AcDbText
  0
LINE
  5
164
100
AcDbEntity
  8
BEMASSUNG
390
0
  6
_DURCHGEHEND
 62
     3
100
AcDbLine
 10
76.96537
 20
142.876984
 30
0.0
 11
76.96537
 21
117.992874
 31
0.0
  0
LINE
  5
165
100
AcDbEntity
  8
BEMASSUNG
390
0
  6
DURCHGEHEND
 62
     3
100
AcDbLine
 10
136.905151
 20
142.863281
 30
0.0
 11
136.905151
 21
117.751427
 31
0.0
  0
LINE
  5
166
100
AcDbEntity
  8
BEMASSUNG
390
0
  6
DURCHGEHEND
 62
     3
100
AcDbLine
 10
207.234406
 20
142.134125
 30
0.0
 11
206.145996
 21
140.909424
 31
0.0
  0
LINE
  5
167
100
AcDbEntity
  8
BEMASSUNG
390
0
  6
DURCHGEHEND
 62
     3
100
AcDbLine
 10
208.322784
 20
143.358826
 30
0.0
 11
207.234406
 21
142.134125
 31
0.0
  0
LINE
  5
168
100
AcDbEntity
  8
BEMASSUNG
390
0
  6
DURCHGEHEND
 62
     3
100
AcDbLine
 10
208.806015
 20
142.134201
 30
0.0
 11
176.120438
 21
142.134201
 31
0.0
  0
LINE
  5
169
100
AcDbEntity
  8
BEMASSUNG
390
0
  6
DURCHGEHEND
 62
     3
100
AcDbLine
 10
207.234406
 20
143.45224
 30
0.0
 11
207.234406
 21
115.710732
 31
0.0
  0
LINE
  5
16A
100
AcDbEntity
  8
BEMASSUNG
390
0
  6
DURCHGEHEND
 62
     3
100
AcDbLine
 10
177.279785
 20
142.159286
 30
0.0
 11
176.191376
 21
140.934586
 31
0.0
  0
LINE
  5
16B
100
AcDbEntity
  8
BEMASSUNG
390
0
  6
DURCHGEHEND
 62
     3
100
AcDbLine
 10
178.368164
 20
143.383987
 30
0.0
 11
177.279785
 21
142.159286
 31
0.0
  0
LINE
  5
16C
100
AcDbEntity
  8
BEMASSUNG
390
0
  6
_DURCHGEHEND
 62
     3
100
AcDbLine
 10
177.200775
 20
143.348114
 30
0.0
 11
177.200775
 21
124.460846
 31
0.0
  0
POLYLINE
  5
16D
100
AcDbEntity
  8
BEMASSUNG
390
0
  6
_DURCHGEHEND
 62
     3
100
AcDb3dPolyline
 66
     1
 10
0.0
 20
0.0
 30
0.0
 70
    12
 75
     5
  0
VERTEX
  5
16E
100
AcDbEntity
  8
0
390
0
100
AcDbVertex
100
AcDb3dPolylineVertex
 10
49.555145
 20
100.873512
 30
0.0
 70
    48
  0
VERTEX
  5
16F
100
AcDbEntity
  8
0
390
0
100
AcDbVertex
100
AcDb3dPolylineVertex
 10
49.555145
 20
100.873512
 30
0.0
 70
    40
  0
VERTEX
  5
170
100
AcDbEntity
  8
0
390
0
100
AcDbVertex
100
AcDb3dPolylineVertex
 10
46.902283
 20
103.853249
 30
0.0
 70
    40
  0
VERTEX
  5
171
100
AcDbEntity
  8
0
390
0
100
AcDbVertex
100
AcDb3dPolylineVertex
 10
49.555145
 20
100.873512
 30
0.0
 70
    48
  0
VERTEX
  5
172
100
AcDbEntity
  8
0
390
0
100
AcDbVertex
100
AcDb3dPolylineVertex
 10
46.902283
 20
103.853249
 30
0.0
 70
    48
  0
VERTEX
  5
173
100
AcDbEntity
  8
0
390
0
100
AcDbVertex
100
AcDb3dPolylineVertex
 10
46.902283
 20
103.853249
 30
0.0
 70
    48
  0
SEQEND
  5
174
100
AcDbEntity
  8
0
390
0
  0
LINE
  5
175
100
AcDbEntity
  8
BEMASSUNG
390
0
  6
_DURCHGEHEND
 62
     3
100
AcDbLine
 10
171.197342
 20
107.810051
 30
0.0
 11
159.109222
 21
107.810051
 31
0.0
  0
LINE
  5
176
100
AcDbEntity
  8
BEMASSUNG
390
0
  6
_DURCHGEHEND
 62
     3
100
AcDbLine
 10
171.262924
 20
113.045654
 30
0.0
 11
159.103897
 21
113.045654
 31
0.0
  0
LINE
  5
177
100
AcDbEntity
  8
BEMASSUNG
390
0
  6
DURCHGEHEND
 62
     3
100
AcDbLine
 10
160.429291
 20
114.6604
 30
0.0
 11
160.429291
 21
85.282333
 31
0.0
  0
POLYLINE
  5
178
100
AcDbEntity
  8
BEMASSUNG
390
0
  6
_DURCHGEHEND
 62
     3
100
AcDb3dPolyline
 66
     1
 10
0.0
 20
0.0
 30
0.0
 70
    12
 75
     5
  0
VERTEX
  5
179
100
AcDbEntity
  8
0
390
0
100
AcDbVertex
100
AcDb3dPolylineVertex
 10
161.82312
 20
106.118011
 30
0.0
 70
    48
  0
VERTEX
  5
17A
100
AcDbEntity
  8
0
390
0
100
AcDbVertex
100
AcDb3dPolylineVertex
 10
161.82312
 20
106.118011
 30
0.0
 70
    40
  0
VERTEX
  5
17B
100
AcDbEntity
  8
0
390
0
100
AcDbVertex
100
AcDb3dPolylineVertex
 10
159.170242
 20
109.097748
 30
0.0
 70
    40
  0
VERTEX
  5
17C
100
AcDbEntity
  8
0
390
0
100
AcDbVertex
100
AcDb3dPolylineVertex
 10
161.82312
 20
106.118011
 30
0.0
 70
    48
  0
VERTEX
  5
17D
100
AcDbEntity
  8
0
390
0
100
AcDbVertex
100
AcDb3dPolylineVertex
 10
159.170242
 20
109.097748
 30
0.0
 70
    48
  0
VERTEX
  5
17E
100
AcDbEntity
  8
0
390
0
100
AcDbVertex
100
AcDb3dPolylineVertex
 10
159.170242
 20
109.097748
 30
0.0
 70
    48
  0
SEQEND
  5
17F
100
AcDbEntity
  8
0
390
0
  0
POLYLINE
  5
180
100
AcDbEntity
  8
BEMASSUNG
390
0
  6
_DURCHGEHEND
 62
     3
100
AcDb3dPolyline
 66
     1
 10
0.0
 20
0.0
 30
0.0
 70
    12
 75
     5
  0
VERTEX
  5
181
100
AcDbEntity
  8
0
390
0
100
AcDbVertex
100
AcDb3dPolylineVertex
 10
161.82312
 20
111.373215
 30
0.0
 70
    48
  0
VERTEX
  5
182
100
AcDbEntity
  8
0
390
0
100
AcDbVertex
100
AcDb3dPolylineVertex
 10
161.82312
 20
111.373215
 30
0.0
 70
    40
  0
VERTEX
  5
183
100
AcDbEntity
  8
0
390
0
100
AcDbVertex
100
AcDb3dPolylineVertex
 10
159.170242
 20
114.352936
 30
0.0
 70
    40
  0
VERTEX
  5
184
100
AcDbEntity
  8
0
390
0
100
AcDbVertex
100
AcDb3dPolylineVertex
 10
161.82312
 20
111.373215
 30
0.0
 70
    48
  0
VERTEX
  5
185
100
AcDbEntity
  8
0
390
0
100
AcDbVertex
100
AcDb3dPolylineVertex
 10
159.170242
 20
114.352936
 30
0.0
 70
    48
  0
VERTEX
  5
186
100
AcDbEntity
  8
0
390
0
100
AcDbVertex
100
AcDb3dPolylineVertex
 10
159.170242
 20
114.352936
 30
0.0
 70
    48
  0
SEQEND
  5
187
100
AcDbEntity
  8
0
390
0
  0
LINE
  5
188
100
AcDbEntity
  8
BEMASSUNG
390
0
  6
DURCHGEHEND
 62
     3
100
AcDbLine
 10
87.082748
 20
131.855133
 30
0.0
 11
85.994354
 21
130.630432
 31
0.0
  0
LINE
  5
189
100
AcDbEntity
  8
BEMASSUNG
390
0
  6
DURCHGEHEND
 62
     3
100
AcDbLine
 10
88.171158
 20
133.079865
 30
0.0
 11
87.082748
 21
131.855133
 31
0.0
  0
LINE
  5
18A
100
AcDbEntity
  8
BEMASSUNG
390
0
  6
DURCHGEHEND
 62
     3
100
AcDbLine
 10
75.801476
 20
141.63855
 30
0.0
 11
138.189301
 21
141.63855
 31
0.0
  0
LINE
  5
18B
100
AcDbEntity
  8
BEMASSUNG
390
0
  6
DURCHGEHEND
 62
     3
100
AcDbLine
 10
86.015068
 20
131.845123
 30
0.0
 11
128.51416
 21
131.845123
 31
0.0
  0
LINE
  5
18C
100
AcDbEntity
  8
BEMASSUNG
390
0
  6
DURCHGEHEND
 62
     3
100
AcDbLine
 10
126.943695
 20
131.855133
 30
0.0
 11
125.855286
 21
130.630432
 31
0.0
  0
LINE
  5
18D
100
AcDbEntity
  8
BEMASSUNG
390
0
  6
DURCHGEHEND
 62
     3
100
AcDbLine
 10
128.032104
 20
133.079865
 30
0.0
 11
126.943695
 21
131.855133
 31
0.0
  0
LINE
  5
18E
100
AcDbEntity
  8
BEMASSUNG
390
0
  6
DURCHGEHEND
 62
     3
100
AcDbLine
 10
86.62693
 20
107.506615
 30
0.0
 11
62.334579
 21
107.506615
 31
0.0
  0
LINE
  5
18F
100
AcDbEntity
  8
BEMASSUNG
390
0
  6
DURCHGEHEND
 62
     3
100
AcDbLine
 10
86.449493
 20
110.65242
 30
0.0
 11
62.210197
 21
110.65242
 31
0.0
  0
LINE
  5
190
100
AcDbEntity
  8
BEMASSUNG
390
0
  6
DURCHGEHEND
 62
     3
100
AcDbLine
 10
63.701317
 20
112.280655
 30
0.0
 11
63.701317
 21
90.766922
 31
0.0
  0
POLYLINE
  5
191
100
AcDbEntity
  8
BEMASSUNG
390
0
  6
_DURCHGEHEND
 62
     3
100
AcDb3dPolyline
 66
     1
 10
0.0
 20
0.0
 30
0.0
 70
    12
 75
     5
  0
VERTEX
  5
192
100
AcDbEntity
  8
0
390
0
100
AcDbVertex
100
AcDb3dPolylineVertex
 10
65.046501
 20
109.142632
 30
0.0
 70
    48
  0
VERTEX
  5
193
100
AcDbEntity
  8
0
390
0
100
AcDbVertex
100
AcDb3dPolylineVertex
 10
65.046501
 20
109.142632
 30
0.0
 70
    40
  0
VERTEX
  5
194
100
AcDbEntity
  8
0
390
0
100
AcDbVertex
100
AcDb3dPolylineVertex
 10
62.393623
 20
112.122353
 30
0.0
 70
    40
  0
VERTEX
  5
195
100
AcDbEntity
  8
0
390
0
100
AcDbVertex
100
AcDb3dPolylineVertex
 10
65.046501
 20
109.142632
 30
0.0
 70
    48
  0
VERTEX
  5
196
100
AcDbEntity
  8
0
390
0
100
AcDbVertex
100
AcDb3dPolylineVertex
 10
62.393623
 20
112.122353
 30
0.0
 70
    48
  0
VERTEX
  5
197
100
AcDbEntity
  8
0
390
0
100
AcDbVertex
100
AcDb3dPolylineVertex
 10
62.393623
 20
112.122353
 30
0.0
 70
    48
  0
SEQEND
  5
198
100
AcDbEntity
  8
0
390
0
  0
POLYLINE
  5
199
100
AcDbEntity
  8
BEMASSUNG
390
0
  6
_DURCHGEHEND
 62
     3
100
AcDb3dPolyline
 66
     1
 10
0.0
 20
0.0
 30
0.0
 70
    12
 75
     5
  0
VERTEX
  5
19A
100
AcDbEntity
  8
0
390
0
100
AcDbVertex
100
AcDb3dPolylineVertex
 10
65.106697
 20
105.848022
 30
0.0
 70
    48
  0
VERTEX
  5
19B
100
AcDbEntity
  8
0
390
0
100
AcDbVertex
100
AcDb3dPolylineVertex
 10
65.106697
 20
105.848022
 30
0.0
 70
    40
  0
VERTEX
  5
19C
100
AcDbEntity
  8
0
390
0
100
AcDbVertex
100
AcDb3dPolylineVertex
 10
62.453819
 20
108.827744
 30
0.0
 70
    40
  0
VERTEX
  5
19D
100
AcDbEntity
  8
0
390
0
100
AcDbVertex
100
AcDb3dPolylineVertex
 10
65.106697
 20
105.848022
 30
0.0
 70
    48
  0
VERTEX
  5
19E
100
AcDbEntity
  8
0
390
0
100
AcDbVertex
100
AcDb3dPolylineVertex
 10
62.453819
 20
108.827744
 30
0.0
 70
    48
  0
VERTEX
  5
19F
100
AcDbEntity
  8
0
390
0
100
AcDbVertex
100
AcDb3dPolylineVertex
 10
62.453819
 20
108.827744
 30
0.0
 70
    48
  0
SEQEND
  5
1A0
100
AcDbEntity
  8
0
390
0
  0
LINE
  5
1A1
100
AcDbEntity
  8
BEMASSUNG
390
0
  6
DURCHGEHEND
 62
     3
100
AcDbLine
 10
76.956947
 20
141.63913
 30
0.0
 11
75.868553
 21
140.414429
 31
0.0
  0
LINE
  5
1A2
100
AcDbEntity
  8
BEMASSUNG
390
0
  6
DURCHGEHEND
 62
     3
100
AcDbLine
 10
78.045357
 20
142.863861
 30
0.0
 11
76.956947
 21
141.63913
 31
0.0
  0
LINE
  5
1A3
100
AcDbEntity
  8
BEMASSUNG
390
0
  6
DURCHGEHEND
 62
     3
100
AcDbLine
 10
136.785889
 20
141.63855
 30
0.0
 11
135.697479
 21
140.413849
 31
0.0
  0
LINE
  5
1A4
100
AcDbEntity
  8
BEMASSUNG
390
0
  6
DURCHGEHEND
 62
     3
100
AcDbLine
 10
137.874283
 20
142.863281
 30
0.0
 11
136.785889
 21
141.63858
 31
0.0
  0
LINE
  5
1A5
100
AcDbEntity
  8
BEMASSUNG
390
0
  6
_DURCHGEHEND
 62
     3
100
AcDbLine
 10
126.943695
 20
133.485046
 30
0.0
 11
126.943695
 21
115.786835
 31
0.0
  0
LINE
  5
1A6
100
AcDbEntity
  8
BEMASSUNG
390
0
  6
_DURCHGEHEND
 62
     3
100
AcDbLine
 10
87.082748
 20
133.332977
 30
0.0
 11
87.082748
 21
115.786835
 31
0.0
  0
LINE
  5
1A7
100
AcDbEntity
  8
BEMASSUNG
390
0
  6
_DURCHGEHEND
 62
     3
100
AcDbLine
 10
75.828362
 20
117.430397
 30
0.0
 11
46.588711
 21
117.430397
 31
0.0
  0
LINE
  5
1A8
100
AcDbEntity
  8
BEMASSUNG
390
0
  6
DURCHGEHEND
 62
     3
100
AcDbLine
 10
48.161316
 20
119.015175
 30
0.0
 11
48.161316
 21
100.234161
 31
0.0
  0
POLYLINE
  5
1A9
100
AcDbEntity
  8
BEMASSUNG
390
0
  6
_DURCHGEHEND
 62
     3
100
AcDb3dPolyline
 66
     1
 10
0.0
 20
0.0
 30
0.0
 70
    12
 75
     5
  0
VERTEX
  5
1AA
100
AcDbEntity
  8
0
390
0
100
AcDbVertex
100
AcDb3dPolylineVertex
 10
49.555145
 20
115.866631
 30
0.0
 70
    48
  0
VERTEX
  5
1AB
100
AcDbEntity
  8
0
390
0
100
AcDbVertex
100
AcDb3dPolylineVertex
 10
49.555145
 20
115.866631
 30
0.0
 70
    40
  0
VERTEX
  5
1AC
100
AcDbEntity
  8
0
390
0
100
AcDbVertex
100
AcDb3dPolylineVertex
 10
46.902283
 20
118.846352
 30
0.0
 70
    40
  0
VERTEX
  5
1AD
100
AcDbEntity
  8
0
390
0
100
AcDbVertex
100
AcDb3dPolylineVertex
 10
49.555145
 20
115.866631
 30
0.0
 70
    48
  0
VERTEX
  5
1AE
100
AcDbEntity
  8
0
390
0
100
AcDbVertex
100
AcDb3dPolylineVertex
 10
46.902283
 20
118.846352
 30
0.0
 70
    48
  0
VERTEX
  5
1AF
100
AcDbEntity
  8
0
390
0
100
AcDbVertex
100
AcDb3dPolylineVertex
 10
46.902283
 20
118.846352
 30
0.0
 70
    48
  0
SEQEND
  5
1B0
100
AcDbEntity
  8
0
390
0
  0
LINE
  5
1B1
100
AcDbEntity
  8
BEMASSUNG
390
0
  6
_DURCHGEHEND
 62
     3
100
AcDbLine
 10
75.787323
 20
102.475433
 30
0.0
 11
65.336945
 21
102.475433
 31
0.0
  0
LINE
  5
1B2
100
AcDbEntity
  8
BEMASSUNG
390
0
  6
_DURCHGEHEND
 62
     3
100
AcDbLine
 10
55.453892
 20
102.475433
 30
0.0
 11
46.698524
 21
102.475433
 31
0.0
  0
LINE
  5
1B3
100
AcDbEntity
  8
BEMASSUNG
390
0
  6
DURCHGEHEND
 62
     3
100
AcDbLine
 10
221.4785
 20
116.446953
 30
0.0
 11
221.4785
 21
103.467422
 31
0.0
  0
LINE
  5
1B4
100
AcDbEntity
  8
BEMASSUNG
390
0
  6
_DURCHGEHEND
 62
     3
100
AcDbLine
 10
223.218628
 20
114.912216
 30
0.0
 11
207.864288
 21
114.912216
 31
0.0
  0
POLYLINE
  5
1B5
100
AcDbEntity
  8
BEMASSUNG
390
0
  6
_DURCHGEHEND
 62
     3
100
AcDb3dPolyline
 66
     1
 10
0.0
 20
0.0
 30
0.0
 70
    12
 75
     5
  0
VERTEX
  5
1B6
100
AcDbEntity
  8
0
390
0
100
AcDbVertex
100
AcDb3dPolylineVertex
 10
222.913116
 20
113.319244
 30
0.0
 70
    48
  0
VERTEX
  5
1B7
100
AcDbEntity
  8
0
390
0
100
AcDbVertex
100
AcDb3dPolylineVertex
 10
222.913116
 20
113.319244
 30
0.0
 70
    40
  0
VERTEX
  5
1B8
100
AcDbEntity
  8
0
390
0
100
AcDbVertex
100
AcDb3dPolylineVertex
 10
220.260254
 20
116.298965
 30
0.0
 70
    40
  0
VERTEX
  5
1B9
100
AcDbEntity
  8
0
390
0
100
AcDbVertex
100
AcDb3dPolylineVertex
 10
222.913116
 20
113.319244
 30
0.0
 70
    48
  0
VERTEX
  5
1BA
100
AcDbEntity
  8
0
390
0
100
AcDbVertex
100
AcDb3dPolylineVertex
 10
220.260254
 20
116.298965
 30
0.0
 70
    48
  0
VERTEX
  5
1BB
100
AcDbEntity
  8
0
390
0
100
AcDbVertex
100
AcDb3dPolylineVertex
 10
220.260254
 20
116.298965
 30
0.0
 70
    48
  0
SEQEND
  5
1BC
100
AcDbEntity
  8
0
390
0
  0
LINE
  5
1BD
100
AcDbEntity
  8
BEMASSUNG
390
0
  6
_DURCHGEHEND
 62
     3
100
AcDbLine
 10
223.218628
 20
104.874496
 30
0.0
 11
207.864288
 21
104.874496
 31
0.0
  0
POLYLINE
  5
1BE
100
AcDbEntity
  8
BEMASSUNG
390
0
  6
_DURCHGEHEND
 62
     3
100
AcDb3dPolyline
 66
     1
 10
0.0
 20
0.0
 30
0.0
 70
    12
 75
     5
  0
VERTEX
  5
1BF
100
AcDbEntity
  8
0
390
0
100
AcDbVertex
100
AcDb3dPolylineVertex
 10
222.913116
 20
103.316673
 30
0.0
 70
    48
  0
VERTEX
  5
1C0
100
AcDbEntity
  8
0
390
0
100
AcDbVertex
100
AcDb3dPolylineVertex
 10
222.913116
 20
103.316673
 30
0.0
 70
    40
  0
VERTEX
  5
1C1
100
AcDbEntity
  8
0
390
0
100
AcDbVertex
100
AcDb3dPolylineVertex
 10
220.260254
 20
106.296394
 30
0.0
 70
    40
  0
VERTEX
  5
1C2
100
AcDbEntity
  8
0
390
0
100
AcDbVertex
100
AcDb3dPolylineVertex
 10
222.913116
 20
103.316673
 30
0.0
 70
    48
  0
VERTEX
  5
1C3
100
AcDbEntity
  8
0
390
0
100
AcDbVertex
100
AcDb3dPolylineVertex
 10
220.260254
 20
106.296394
 30
0.0
 70
    48
  0
VERTEX
  5
1C4
100
AcDbEntity
  8
0
390
0
100
AcDbVertex
100
AcDb3dPolylineVertex
 10
220.260254
 20
106.296394
 30
0.0
 70
    48
  0
SEQEND
  5
1C5
100
AcDbEntity
  8
0
390
0
  0
LINE
  5
1C6
100
AcDbEntity
  8
WAND
390
0
  6
DURCHGEHEND
 62
     6
100
AcDbLine
 10
177.186508
 20
123.510048
 30
0.0
 11
177.186523
 21
98.474541
 31
0.0
  0
LINE
  5
1C7
100
AcDbEntity
  8
ANSICHT
390
0
  6
DURCHGEHEND
 62
     1
100
AcDbLine
 10
109.580711
 20
62.355507
 30
0.0
 11
109.580711
 21
67.355507
 31
0.0
  0
LINE
  5
1C8
100
AcDbEntity
  8
ANSICHT
390
0
  6
DURCHGEHEND
 62
     1
100
AcDbLine
 10
104.380707
 20
67.355507
 30
0.0
 11
104.380707
 21
62.355507
 31
0.0
  0
LINE
  5
1C9
100
AcDbEntity
  8
ANSICHT
390
0
  6
DURCHGEHEND
 62
     1
100
AcDbLine
 10
109.580711
 20
67.355507
 30
0.0
 11
109.330711
 21
67.605507
 31
0.0
  0
LINE
  5
1CA
100
AcDbEntity
  8
ANSICHT
390
0
  6
DURCHGEHEND
 62
     1
100
AcDbLine
 10
104.630707
 20
67.605507
 30
0.0
 11
104.380707
 21
67.355507
 31
0.0
  0
LINE
  5
1CB
100
AcDbEntity
  8
ANSICHT
390
0
  6
DURCHGEHEND
 62
     1
100
AcDbLine
 10
125.730705
 20
62.330498
 30
0.0
 11
125.730705
 21
62.355507
 31
0.0
  0
LINE
  5
1CC
100
AcDbEntity
  8
ANSICHT
390
0
  6
DURCHGEHEND
 62
     1
100
AcDbLine
 10
125.730705
 20
62.355507
 30
0.0
 11
88.230705
 21
62.355507
 31
0.0
  0
LINE
  5
1CD
100
AcDbEntity
  8
ANSICHT
390
0
  6
DURCHGEHEND
 62
     1
100
AcDbLine
 10
106.980705
 20
67.355507
 30
0.0
 11
104.380707
 21
67.355507
 31
0.0
  0
LINE
  5
1CE
100
AcDbEntity
  8
ANSICHT
390
0
  6
DURCHGEHEND
 62
     1
100
AcDbLine
 10
109.580711
 20
67.355507
 30
0.0
 11
106.980705
 21
67.355507
 31
0.0
  0
LINE
  5
1CF
100
AcDbEntity
  8
ANSICHT
390
0
  6
DURCHGEHEND
 62
     1
100
AcDbLine
 10
106.980705
 20
67.605507
 30
0.0
 11
109.330711
 21
67.605507
 31
0.0
  0
LINE
  5
1D0
100
AcDbEntity
  8
ANSICHT
390
0
  6
DURCHGEHEND
 62
     1
100
AcDbLine
 10
104.630707
 20
67.605507
 30
0.0
 11
106.980705
 21
67.605507
 31
0.0
  0
LINE
  5
1D1
100
AcDbEntity
  8
ANSICHT
390
0
  6
DURCHGEHEND
 62
     1
100
AcDbLine
 10
136.780701
 20
62.330498
 30
0.0
 11
136.980713
 21
62.330498
 31
0.0
  0
LINE
  5
1D2
100
AcDbEntity
  8
ANSICHT
390
0
  6
DURCHGEHEND
 62
     1
100
AcDbLine
 10
136.980713
 20
62.330498
 30
0.0
 11
136.980713
 21
60.280502
 31
0.0
  0
LINE
  5
1D3
100
AcDbEntity
  8
ANSICHT
390
0
  6
DURCHGEHEND
 62
     1
100
AcDbLine
 10
76.980705
 20
60.280502
 30
0.0
 11
76.980705
 21
62.330498
 31
0.0
  0
LINE
  5
1D4
100
AcDbEntity
  8
ANSICHT
390
0
  6
DURCHGEHEND
 62
     1
100
AcDbLine
 10
76.980705
 20
62.330498
 30
0.0
 11
77.18071
 21
62.330498
 31
0.0
  0
LINE
  5
1D5
100
AcDbEntity
  8
ANSICHT
390
0
  6
DURCHGEHEND
 62
     1
100
AcDbLine
 10
136.780701
 20
60.080498
 30
0.0
 11
77.18071
 21
60.080498
 31
0.0
  0
ARC
  5
1D6
100
AcDbEntity
  8
ANSICHT
390
0
  6
DURCHGEHEND
 62
     1
100
AcDbCircle
 10
77.18071
 20
60.280502
 30
0.0
 40
0.199997
100
AcDbArc
 50
180.0
 51
270.0
  0
LINE
  5
1D7
100
AcDbEntity
  8
ANSICHT
390
0
  6
DURCHGEHEND
 62
     1
100
AcDbLine
 10
136.780701
 20
62.330498
 30
0.0
 11
77.18071
 21
62.330498
 31
0.0
  0
ARC
  5
1D8
100
AcDbEntity
  8
ANSICHT
390
0
  6
DURCHGEHEND
 62
     1
100
AcDbCircle
 10
136.780701
 20
60.280502
 30
0.0
 40
0.200012
100
AcDbArc
 50
270.0
 51
360.0
  0
LINE
  5
1D9
100
AcDbEntity
  8
ANSICHT
390
0
  6
DURCHGEHEND
 62
     1
100
AcDbLine
 10
84.630707
 20
51.830498
 30
0.0
 11
84.43071
 21
51.830498
 31
0.0
  0
LINE
  5
1DA
100
AcDbEntity
  8
ANSICHT
390
0
  6
DURCHGEHEND
 62
     1
100
AcDbLine
 10
84.43071
 20
51.830498
 30
0.0
 11
84.43071
 21
60.080498
 31
0.0
  0
LINE
  5
1DB
100
AcDbEntity
  8
ANSICHT
390
0
  6
DURCHGEHEND
 62
     1
100
AcDbLine
 10
129.330719
 20
51.830498
 30
0.0
 11
84.630707
 21
51.830498
 31
0.0
  0
LINE
  5
1DC
100
AcDbEntity
  8
ANSICHT
390
0
  6
DURCHGEHEND
 62
     1
100
AcDbLine
 10
129.530701
 20
60.080498
 30
0.0
 11
129.530701
 21
51.830498
 31
0.0
  0
LINE
  5
1DD
100
AcDbEntity
  8
ANSICHT
390
0
  6
DURCHGEHEND
 62
     1
100
AcDbLine
 10
129.530701
 20
51.830498
 30
0.0
 11
129.330719
 21
51.830498
 31
0.0
  0
LINE
  5
1DE
100
AcDbEntity
  8
ANSICHT
390
0
  6
DURCHGEHEND
 62
     1
100
AcDbLine
 10
129.330719
 20
32.330498
 30
0.0
 11
127.130707
 21
32.330498
 31
0.0
  0
LINE
  5
1DF
100
AcDbEntity
  8
ANSICHT
390
0
  6
DURCHGEHEND
 62
     1
100
AcDbLine
 10
127.130707
 20
51.580498
 30
0.0
 11
129.330719
 21
51.580498
 31
0.0
  0
LINE
  5
1E0
100
AcDbEntity
  8
ANSICHT
390
0
  6
DURCHGEHEND
 62
     1
100
AcDbLine
 10
86.830711
 20
32.330498
 30
0.0
 11
84.630707
 21
32.330498
 31
0.0
  0
ARC
  5
1E1
100
AcDbEntity
  8
ANSICHT
390
0
  6
DURCHGEHEND
 62
     1
100
AcDbCircle
 10
84.630707
 20
32.530502
 30
0.0
 40
0.199997
100
AcDbArc
 50
180.0
 51
270.0
  0
LINE
  5
1E2
100
AcDbEntity
  8
ANSICHT
390
0
  6
DURCHGEHEND
 62
     1
100
AcDbLine
 10
84.630707
 20
51.580498
 30
0.0
 11
86.830711
 21
51.580498
 31
0.0
  0
ARC
  5
1E3
100
AcDbEntity
  8
ANSICHT
390
0
  6
DURCHGEHEND
 62
     1
100
AcDbCircle
 10
129.330719
 20
32.530502
 30
0.0
 40
0.199982
100
AcDbArc
 50
270.0
 51
360.0
  0
LINE
  5
1E4
100
AcDbEntity
  8
ANSICHT
390
0
  6
DURCHGEHEND
 62
     1
100
AcDbLine
 10
84.43071
 20
32.530502
 30
0.0
 11
84.43071
 21
51.580498
 31
0.0
  0
LINE
  5
1E5
100
AcDbEntity
  8
ANSICHT
390
0
  6
DURCHGEHEND
 62
     1
100
AcDbLine
 10
84.43071
 20
51.580498
 30
0.0
 11
84.630707
 21
51.580498
 31
0.0
  0
LINE
  5
1E6
100
AcDbEntity
  8
ANSICHT
390
0
  6
DURCHGEHEND
 62
     1
100
AcDbLine
 10
129.530701
 20
51.580498
 30
0.0
 11
129.530701
 21
32.530502
 31
0.0
  0
LINE
  5
1E7
100
AcDbEntity
  8
ANSICHT
390
0
  6
DURCHGEHEND
 62
     1
100
AcDbLine
 10
129.330719
 20
51.580498
 30
0.0
 11
129.530701
 21
51.580498
 31
0.0
  0
LINE
  5
1E8
100
AcDbEntity
  8
ANSICHT
390
0
  6
DURCHGEHEND
 62
     1
100
AcDbLine
 10
87.029137
 20
51.580498
 30
0.0
 11
87.029137
 21
51.830498
 31
0.0
  0
LINE
  5
1E9
100
AcDbEntity
  8
ANSICHT
390
0
  6
DURCHGEHEND
 62
     1
100
AcDbLine
 10
87.030708
 20
51.830498
 30
0.0
 11
87.030708
 21
32.330498
 31
0.0
  0
LINE
  5
1EA
100
AcDbEntity
  8
ANSICHT
390
0
  6
DURCHGEHEND
 62
     1
100
AcDbLine
 10
86.830711
 20
51.580498
 30
0.0
 11
87.029137
 21
51.580498
 31
0.0
  0
LINE
  5
1EB
100
AcDbEntity
  8
ANSICHT
390
0
  6
DURCHGEHEND
 62
     1
100
AcDbLine
 10
126.932274
 20
51.830498
 30
0.0
 11
126.932274
 21
51.580498
 31
0.0
  0
LINE
  5
1EC
100
AcDbEntity
  8
ANSICHT
390
0
  6
DURCHGEHEND
 62
     1
100
AcDbLine
 10
126.932274
 20
51.580498
 30
0.0
 11
127.130707
 21
51.580498
 31
0.0
  0
LINE
  5
1ED
100
AcDbEntity
  8
ANSICHT
390
0
  6
DURCHGEHEND
 62
     1
100
AcDbLine
 10
84.605705
 20
51.580498
 30
0.0
 11
84.605705
 21
51.830498
 31
0.0
  0
LINE
  5
1EE
100
AcDbEntity
  8
ANSICHT
390
0
  6
DURCHGEHEND
 62
     1
100
AcDbLine
 10
129.355713
 20
51.580498
 30
0.0
 11
129.355713
 21
51.830498
 31
0.0
  0
LINE
  5
1EF
100
AcDbEntity
  8
ANSICHT
390
0
  6
DURCHGEHEND
 62
     1
100
AcDbLine
 10
127.130707
 20
32.330498
 30
0.0
 11
125.980705
 21
32.330498
 31
0.0
  0
LINE
  5
1F0
100
AcDbEntity
  8
ANSICHT
390
0
  6
DURCHGEHEND
 62
     1
100
AcDbLine
 10
87.980705
 20
32.330498
 30
0.0
 11
86.830711
 21
32.330498
 31
0.0
  0
LINE
  5
1F1
100
AcDbEntity
  8
ANSICHT
390
0
  6
DURCHGEHEND
 62
     1
100
AcDbLine
 10
125.980705
 20
32.330498
 30
0.0
 11
87.980705
 21
32.330498
 31
0.0
  0
LINE
  5
1F2
100
AcDbEntity
  8
ANSICHT
390
0
  6
DURCHGEHEND
 62
     1
100
AcDbLine
 10
127.130707
 20
32.530502
 30
0.0
 11
127.130707
 21
32.330498
 31
0.0
  0
LINE
  5
1F3
100
AcDbEntity
  8
ANSICHT
390
0
  6
DURCHGEHEND
 62
     1
100
AcDbLine
 10
126.932274
 20
51.580498
 30
0.0
 11
126.932274
 21
32.530502
 31
0.0
  0
LINE
  5
1F4
100
AcDbEntity
  8
ANSICHT
390
0
  6
DURCHGEHEND
 62
     1
100
AcDbLine
 10
125.980705
 20
32.530502
 30
0.0
 11
125.980705
 21
32.330498
 31
0.0
  0
LINE
  5
1F5
100
AcDbEntity
  8
ANSICHT
390
0
  6
DURCHGEHEND
 62
     1
100
AcDbLine
 10
87.980705
 20
51.830498
 30
0.0
 11
87.980705
 21
32.530502
 31
0.0
  0
LINE
  5
1F6
100
AcDbEntity
  8
ANSICHT
390
0
  6
DURCHGEHEND
 62
     1
100
AcDbLine
 10
125.980705
 20
51.830498
 30
0.0
 11
125.980705
 21
32.530502
 31
0.0
  0
LINE
  5
1F7
100
AcDbEntity
  8
ANSICHT
390
0
  6
DURCHGEHEND
 62
     1
100
AcDbLine
 10
87.980705
 20
32.530502
 30
0.0
 11
87.980705
 21
32.330498
 31
0.0
  0
LINE
  5
1F8
100
AcDbEntity
  8
ANSICHT
390
0
  6
STRICHPUNKTIERT
 62
     4
100
AcDbLine
 10
107.009941
 20
68.956604
 30
0.0
 11
107.009941
 21
29.915478
 31
0.0
  0
LINE
  5
1F9
100
AcDbEntity
  8
ANSICHT
390
0
  6
DURCHGEHEND
 62
     3
100
AcDbLine
 10
104.630707
 20
67.605507
 30
0.0
 11
104.630707
 21
62.330498
 31
0.0
  0
LINE
  5
1FA
100
AcDbEntity
  8
ANSICHT
390
0
  6
DURCHGEHEND
 62
     3
100
AcDbLine
 10
109.330711
 20
67.605507
 30
0.0
 11
109.330711
 21
62.330498
 31
0.0
  0
ENDSEC
  0
SECTION
  2
OBJECTS
  0
DICTIONARY
  5
19
100
AcDbDictionary
280
     0
281
     1
  3
ACAD_GROUP
350
1A
  3
ACAD_MLINESTYLE
350
1B
  3
ACAD_LAYOUT
350
1E
  3
ACAD_PLOTSETTINGS
350
22
  3
ACAD_PLOTSTYLENAME
350
1F
  3
ACAD_WIPEOUT_VARS
350
23
  0
DICTIONARY
  5
1A
102
{ACAD_REACTORS
330
19
102
}
100
AcDbDictionary
280
     0
281
     1
  0
DICTIONARY
  5
1B
102
{ACAD_REACTORS
330
19
102
}
100
AcDbDictionary
280
     0
281
     1
  3
Standard
350
1C
  0
MLINESTYLE
  5
1C
102
{ACAD_REACTORS
330
1B
102
}
100
AcDbMlineStyle
  2
Standard
 70
     0
  3

 62
     0
 51
90.0
 52
90.0
 71
     2
 49
0.5
 62
   256
  6
ByLayer
 49
-0.5
 62
   256
  6
ByLayer
  0
ACDBDICTIONARYWDFLT
  5
1F
102
{ACAD_REACTORS
330
19
102
}
100
AcDbDictionary
281
     1
  3
Normal
350
1D
100
AcDbDictionaryWithDefault
340
1D
  0
ACDBPLACEHOLDER
  5
1D
102
{ACAD_REACTORS
330
1F
102
}
  0
LAYOUT
  5
20
102
{ACAD_REACTORS
330
1E
102
}
100
AcDbPlotSettings
  1

  2

  4

  6

 40
0.0
 41
0.0
 42
0.0
 43
0.0
 44
0.0
 45
0.0
 46
0.0
 47
0.0
 48
0.0
 49
0.0
140
0.0
141
0.0
142
1.0
143
1.0
 70
  1024
 72
     0
 73
     0
 74
     0
  7

 75
     0
147
1.0
148
0.0
149
0.0
100
AcDbLayout
  1
Model
 70
     0
 71
     0
 10
0.0
 20
0.0
 11
0.0
 21
0.0
 12
0.0
 22
0.0
 32
0.0
 14
0.0
 24
0.0
 34
0.0
 15
0.0
 25
0.0
 35
0.0
146
0.0
 13
0.0
 23
0.0
 33
0.0
 16
0.0
 26
0.0
 36
0.0
 17
0.0
 27
0.0
 37
0.0
 76
     0
330
A
331
0
345
0
346
0
  0
LAYOUT
  5
21
102
{ACAD_REACTORS
330
1E
102
}
100
AcDbPlotSettings
  1

  2

  4

  6

 40
0.0
 41
0.0
 42
0.0
 43
0.0
 44
0.0
 45
0.0
 46
0.0
 47
0.0
 48
0.0
 49
0.0
140
0.0
141
0.0
142
1.0
143
1.0
 70
     0
 72
     0
 73
     0
 74
     0
  7

 75
     0
147
1.0
148
0.0
149
0.0
100
AcDbLayout
  1
Layout1
 70
     0
 71
     0
 10
0.0
 20
0.0
 11
0.0
 21
0.0
 12
0.0
 22
0.0
 32
0.0
 14
0.0
 24
0.0
 34
0.0
 15
0.0
 25
0.0
 35
0.0
146
0.0
 13
0.0
 23
0.0
 33
0.0
 16
0.0
 26
0.0
 36
0.0
 17
0.0
 27
0.0
 37
0.0
 76
     0
330
B
331
0
345
0
346
0
  0
DICTIONARY
  5
1E
102
{ACAD_REACTORS
330
19
102
}
100
AcDbDictionary
280
     0
281
     1
  3
Layout1
350
21
  3
Model
350
20
  0
DICTIONARY
  5
22
102
{ACAD_REACTORS
330
19
102
}
100
AcDbDictionary
280
     0
281
     1
  0
WIPEOUTVARIABLES
  5
23
100
AcDbWipeoutVariables
 70
     1
  0
ENDSEC
  0
EOF
