  0
SECTION
  2
HEADER
  9
$ACADVER
  1
AC1015
  9
$ACADMAINTVER
 70
     6
  9
$DWGCODEPAGE
  3
ANSI_1252
  9
$INSBASE
 10
0.0
 20
0.0
 30
0.0
  9
$EXTMIN
 10
37.502987
 20
-77.974731
 30
0.0
  9
$EXTMAX
 10
293.614227
 20
197.531403
 30
0.0
  9
$LIMMIN
 10
0.0
 20
0.0
  9
$LIMMAX
 10
0.0
 20
0.0
  9
$ORTHOMODE
 70
     0
  9
$REGENMODE
 70
     1
  9
$FILLMODE
 70
     1
  9
$QTEXTMODE
 70
     0
  9
$MIRRTEXT
 70
     1
  9
$LTSCALE
 40
1.0
  9
$ATTMODE
 70
     1
  9
$TEXTSIZE
 40
0.2
  9
$TRACEWID
 40
0.05
  9
$TEXTSTYLE
  7
Standard
  9
$CLAYER
  8
0
  9
$CELTYPE
  6
Continuous
  9
$CECOLOR
 62
   256
  9
$CELTSCALE
 40
1.0
  9
$DISPSILH
 70
     0
  9
$DIMSCALE
 40
1.0
  9
$DIMASZ
 40
0.18
  9
$DIMEXO
 40
0.0625
  9
$DIMDLI
 40
0.38
  9
$DIMRND
 40
0.0
  9
$DIMDLE
 40
0.0
  9
$DIMEXE
 40
0.18
  9
$DIMTP
 40
0.0
  9
$DIMTM
 40
0.0
  9
$DIMTXT
 40
0.18
  9
$DIMCEN
 40
0.09
  9
$DIMTSZ
 40
0.0
  9
$DIMTOL
 70
     0
  9
$DIMLIM
 70
     0
  9
$DIMTIH
 70
     1
  9
$DIMTOH
 70
     1
  9
$DIMSE1
 70
     0
  9
$DIMSE2
 70
     0
  9
$DIMTAD
 70
     0
  9
$DIMZIN
 70
     0
  9
$DIMBLK
  1

  9
$DIMASO
 70
     1
  9
$DIMSHO
 70
     1
  9
$DIMPOST
  1

  9
$DIMAPOST
  1

  9
$DIMALT
 70
     0
  9
$DIMALTD
 70
     2
  9
$DIMALTF
 40
25.4
  9
$DIMLFAC
 40
1.0
  9
$DIMTOFL
 70
     0
  9
$DIMTVP
 40
0.0
  9
$DIMTIX
 70
     0
  9
$DIMSOXD
 70
     0
  9
$DIMSAH
 70
     0
  9
$DIMBLK1
  1

  9
$DIMBLK2
  1

  9
$DIMSTYLE
  2
Standard
  9
$DIMCLRD
 70
     0
  9
$DIMCLRE
 70
     0
  9
$DIMCLRT
 70
     0
  9
$DIMTFAC
 40
1.0
  9
$DIMGAP
 40
0.09
  9
$DIMJUST
 70
     0
  9
$DIMSD1
 70
     0
  9
$DIMSD2
 70
     0
  9
$DIMTOLJ
 70
     1
  9
$DIMTZIN
 70
     0
  9
$DIMALTZ
 70
     0
  9
$DIMALTTZ
 70
     0
  9
$DIMUPT
 70
     0
  9
$DIMDEC
 70
     4
  9
$DIMTDEC
 70
     4
  9
$DIMALTU
 70
     2
  9
$DIMALTTD
 70
     2
  9
$DIMTXSTY
  7
Standard
  9
$DIMAUNIT
 70
     0
  9
$DIMADEC
 70
     0
  9
$DIMALTRND
 40
0.0
  9
$DIMAZIN
 70
     0
  9
$DIMDSEP
 70
     0
  9
$DIMATFIT
 70
     3
  9
$DIMFRAC
 70
     0
  9
$DIMLDRBLK
  1

  9
$DIMLUNIT
 70
     2
  9
$DIMLWD
 70
     0
  9
$DIMLWE
 70
     0
  9
$DIMTMOVE
 70
     0
  9
$LUNITS
 70
     2
  9
$LUPREC
 70
     4
  9
$SKETCHINC
 40
0.1
  9
$FILLETRAD
 40
0.0
  9
$AUNITS
 70
     0
  9
$AUPREC
 70
     0
  9
$MENU
  1
acad
  9
$ELEVATION
 40
0.0
  9
$PELEVATION
 40
0.0
  9
$THICKNESS
 40
0.0
  9
$LIMCHECK
 70
     0
  9
$CHAMFERA
 40
0.0
  9
$CHAMFERB
 40
0.0
  9
$CHAMFERC
 40
0.0
  9
$CHAMFERD
 40
0.0
  9
$SKPOLY
 70
     0
  9
$TDCREATE
 40
0.000000000
  9
$TDUCREATE
 40
0.000000000
  9
$TDUPDATE
 40
0.000000000
  9
$TDUUPDATE
 40
0.000000000
  9
$TDINDWG
 40
0.0000000000
  9
$TDUSRTIMER
 40
0.0000000000
  9
$USRTIMER
 70
     1
  9
$ANGBASE
 50
0.0
  9
$ANGDIR
 70
     0
  9
$PDMODE
 70
     0
  9
$PDSIZE
 40
0.0
  9
$PLINEWID
 40
0.0
  9
$SPLFRAME
 70
     0
  9
$SPLINETYPE
 70
     6
  9
$SPLINESEGS
 70
     8
  9
$HANDSEED
  5
84E
  9
$SURFTAB1
 70
     6
  9
$SURFTAB2
 70
     6
  9
$SURFTYPE
 70
     6
  9
$SURFU
 70
     6
  9
$SURFV
 70
     6
  9
$UCSBASE
  2

  9
$UCSNAME
  2

  9
$UCSORG
 10
0.0
 20
0.0
 30
0.0
  9
$UCSXDIR
 10
1.0
 20
0.0
 30
0.0
  9
$UCSYDIR
 10
0.0
 20
1.0
 30
0.0
  9
$UCSORTHOREF
  2

  9
$UCSORTHOVIEW
 70
     0
  9
$UCSORGTOP
 10
0.0
 20
0.0
 30
0.0
  9
$UCSORGBOTTOM
 10
0.0
 20
0.0
 30
0.0
  9
$UCSORGLEFT
 10
0.0
 20
0.0
 30
0.0
  9
$UCSORGRIGHT
 10
0.0
 20
0.0
 30
0.0
  9
$UCSORGFRONT
 10
0.0
 20
0.0
 30
0.0
  9
$UCSORGBACK
 10
0.0
 20
0.0
 30
0.0
  9
$PUCSBASE
  2

  9
$PUCSNAME
  2

  9
$PUCSORG
 10
0.0
 20
0.0
 30
0.0
  9
$PUCSXDIR
 10
1.0
 20
0.0
 30
0.0
  9
$PUCSYDIR
 10
0.0
 20
1.0
 30
0.0
  9
$PUCSORTHOREF
  2

  9
$PUCSORTHOVIEW
 70
     0
  9
$PUCSORGTOP
 10
0.0
 20
0.0
 30
0.0
  9
$PUCSORGBOTTOM
 10
0.0
 20
0.0
 30
0.0
  9
$PUCSORGLEFT
 10
0.0
 20
0.0
 30
0.0
  9
$PUCSORGRIGHT
 10
0.0
 20
0.0
 30
0.0
  9
$PUCSORGFRONT
 10
0.0
 20
0.0
 30
0.0
  9
$PUCSORGBACK
 10
0.0
 20
0.0
 30
0.0
  9
$USERI1
 70
     0
  9
$USERI2
 70
     0
  9
$USERI3
 70
     0
  9
$USERI4
 70
     0
  9
$USERI5
 70
     0
  9
$USERR1
 40
0.0
  9
$USERR2
 40
0.0
  9
$USERR3
 40
0.0
  9
$USERR4
 40
0.0
  9
$USERR5
 40
0.0
  9
$WORLDVIEW
 70
     1
  9
$SHADEDGE
 70
     3
  9
$SHADEDIF
 70
    70
  9
$TILEMODE
 70
     1
  9
$MAXACTVP
 70
    16
  9
$PINSBASE
 10
0.0
 20
0.0
 30
0.0
  9
$PLIMCHECK
 70
     0
  9
$PEXTMIN
 10
1.000000E+20
 20
1.000000E+20
 30
1.000000E+20
  9
$PEXTMAX
 10
-1.000000E+20
 20
-1.000000E+20
 30
-1.000000E+20
  9
$PLIMMIN
 10
0.0
 20
0.0
  9
$PLIMMAX
 10
12.0
 20
9.0
  9
$UNITMODE
 70
     0
  9
$VISRETAIN
 70
     0
  9
$PLINEGEN
 70
     1
  9
$PSLTSCALE
 70
     0
  9
$TREEDEPTH
 70
  3020
  9
$CMLSTYLE
  2
Standard
  9
$CMLJUST
 70
     0
  9
$CMLSCALE
 40
1.0
  9
$PROXYGRAPHICS
 70
     0
  9
$MEASUREMENT
 70
     0
  9
$CELWEIGHT
370
     0
  9
$ENDCAPS
280
     0
  9
$JOINSTYLE
280
     0
  9
$LWDISPLAY
290
     0
  9
$INSUNITS
 70
     0
  9
$HYPERLINKBASE
  1

  9
$STYLESHEET
  1

  9
$XEDIT
290
     1
  9
$CEPSNTYPE
380
     0
  9
$PSTYLEMODE
290
     1
  9
$FINGERPRINTGUID
  2

  9
$VERSIONGUID
  2

  9
$EXTNAMES
290
     1
  9
$PSVPSCALE
 40
0.0
  0
ENDSEC
  0
SECTION
  2
CLASSES
  0
CLASS
  1
LWPOLYLINE
  2
AcDbPolyline
  3
AutoCAD 2000
 90
        0
280
     0
281
     1
  0
CLASS
  1
IMAGE
  2
AcDbRasterImage
  3
ISM
 90
      127
280
     0
281
     1
  0
CLASS
  1
OLE2FRAME
  2
AcDbOle2Frame
  3
AutoCAD 2000
 90
        0
280
     0
281
     1
  0
CLASS
  1
HATCH
  2
AcDbHatch
  3
AutoCAD 2000
 90
        0
280
     0
281
     1
  0
CLASS
  1
DICTIONARYVAR
  2
AcDbDictionaryVar
  3
AutoCAD 2000
 90
        0
280
     0
281
     0
  0
CLASS
  1
RASTERVARIABLES
  2
AcDbRasterVariables
  3
ISM
 90
        0
280
     0
281
     0
  0
CLASS
  1
IMAGEDEF
  2
AcDbRasterImageDef
  3
ISM
 90
        0
280
     0
281
     0
  0
CLASS
  1
IMAGEDEF_REACTOR
  2
AcDbRasterImageDefReactor
  3
ISM
 90
        1
280
     0
281
     0
  0
CLASS
  1
IDBUFFER
  2
AcDbIdBuffer
  3
AutoCAD 2000
 90
        0
280
     0
281
     0
  0
CLASS
  1
SPATIAL_FILTER
  2
AcDbSpatialFilter
  3
AutoCAD 2000
 90
        0
280
     0
281
     0
  0
CLASS
  1
XRECORD
  2
AcDbXrecord
  3
AutoCAD 2000
 90
        0
280
     0
281
     0
  0
CLASS
  1
SORTENTSTABLE
  2
AcDbSortentsTable
  3
AutoCAD 2000
 90
        0
280
     0
281
     0
  0
CLASS
  1
LAYER_INDEX
  2
AcDbLayerIndex
  3
AutoCAD 2000
 90
        0
280
     0
281
     0
  0
CLASS
  1
SPATIAL_INDEX
  2
AcDbSpatialIndex
  3
AutoCAD 2000
 90
        0
280
     0
281
     0
  0
CLASS
  1
OBJECT_PTR
  2
CAseDLPNTableRecord
  3
"ASE-LPNTableRecord"
 90
        1
280
     0
281
     0
  0
CLASS
  1
LAYOUT
  2
AcDbLayout
  3
AutoCAD 2000
 90
        0
280
     0
281
     0
  0
CLASS
  1
PLOTSETTINGS
  2
AcDbPlotSettings
  3
AutoCAD 2000
 90
        0
280
     0
281
     0
  0
CLASS
  1
ACDBDICTIONARYWDFLT
  2
AcDbDictionaryWithDefault
  3
AutoCAD 2000
 90
        0
280
     0
281
     0
  0
CLASS
  1
ACDBPLACEHOLDER
  2
AcDbPlaceHolder
  3
AutoCAD 2000
 90
        0
280
     0
281
     0
  0
CLASS
  1
VBA_PROJECT
  2
AcDbVbaProject
  3
acadvba
 90
        0
280
     0
281
     0
  0
CLASS
  1
WIPEOUT
  2
AcDbWipeout
  3
WipeOut|AutoCAD Express Tool|expresstools@autodesk.com
 90
      127
280
     0
281
     1
  0
CLASS
  1
WIPEOUTVARIABLES
  2
AcDbWipeoutVariables
  3
WipeOut|AutoCAD Express Tool|expresstools@autodesk.com
 90
        0
280
     0
281
     0
  0
CLASS
  1
RTEXT
  2
RText
  3
RText|AutoCAD Express Tool|expresstools@autodesk.com
 90
        0
280
     0
281
     1
  0
CLASS
  1
ARCALIGNEDTEXT
  2
AcDbArcAlignedText
  3
ATEXT|AutoCAD Express Tool|expresstools@autodesk.com
 90
        0
280
     0
281
     1
  0
ENDSEC
  0
SECTION
  2
TABLES
  0
TABLE
  2
VPORT
  5
7
100
AcDbSymbolTable
 70
     1
  0
VPORT
  5
15
100
AcDbSymbolTableRecord
100
AcDbViewportTableRecord
  2
*ACTIVE
 70
     0
 10
0.0
 20
0.0
 11
1.0
 21
1.0
 12
6.591288
 22
4.579184
 13
0.0
 23
0.0
 14
1.0
 24
1.0
 15
0.0
 25
0.0
 16
0.0
 26
0.0
 36
1.0
 17
0.0
 27
0.0
 37
0.0
 40
9.158369
 41
0.688564
 42
50.0
 43
0.0
 44
0.0
 50
0.0
 51
0.0
 71
     0
 72
   100
 73
     1
 74
     1
 75
     0
 76
     0
 77
     0
 78
     0
281
     0
 65
     0
110
0.0
120
0.0
130
0.0
111
1.0
121
0.0
131
0.0
112
0.0
122
1.0
132
0.0
345
0
346
0
 79
     0
146
0.0
  0
ENDTAB
  0
TABLE
  2
LTYPE
  5
4
100
AcDbSymbolTable
 70
   187
  0
LTYPE
  5
11
100
AcDbSymbolTableRecord
100
AcDbLinetypeTableRecord
  2
ByBlock
 70
    64
  3

 72
    65
 73
     0
 40
0.0
  0
LTYPE
  5
12
100
AcDbSymbolTableRecord
100
AcDbLinetypeTableRecord
  2
ByLayer
 70
    64
  3

 72
    65
 73
     0
 40
0.0
  0
LTYPE
  5
13
100
AcDbSymbolTableRecord
100
AcDbLinetypeTableRecord
  2
Continuous
 70
    64
  3
Solid line
 72
    65
 73
     0
 40
0.0
  0
LTYPE
  5
25
100
AcDbSymbolTableRecord
100
AcDbLinetypeTableRecord
  2
DURCHGEHEND
 70
    64
  3

 72
    65
 73
     0
 40
0.0
  0
LTYPE
  5
26
100
AcDbSymbolTableRecord
100
AcDbLinetypeTableRecord
  2
GESTRICHELT
 70
    64
  3

 72
    65
 73
     2
 40
10.0
 49
5.0
 74
     0
 49
-5.0
 74
     0
  0
LTYPE
  5
27
100
AcDbSymbolTableRecord
100
AcDbLinetypeTableRecord
  2
MITTELLINIE
 70
    64
  3

 72
    65
 73
     4
 40
20.0
 49
10.0
 74
     0
 49
-2.0
 74
     0
 49
5.0
 74
     0
 49
-3.0
 74
     0
  0
LTYPE
  5
28
100
AcDbSymbolTableRecord
100
AcDbLinetypeTableRecord
  2
PUNKTIERT
 70
    64
  3

 72
    65
 73
     2
 40
0.25
 49
0.0
 74
     0
 49
-0.25
 74
     0
  0
LTYPE
  5
29
100
AcDbSymbolTableRecord
100
AcDbLinetypeTableRecord
  2
STRICHPUNKTIERT
 70
    64
  3

 72
    65
 73
     4
 40
12.0
 49
5.0
 74
     0
 49
-3.0
 74
     0
 49
1.0
 74
     0
 49
-3.0
 74
     0
  0
LTYPE
  5
2A
100
AcDbSymbolTableRecord
100
AcDbLinetypeTableRecord
  2
STRICH-PUNKT-PUNKT
 70
    64
  3

 72
    65
 73
     6
 40
10.0
 49
5.0
 74
     0
 49
-1.0
 74
     0
 49
1.0
 74
     0
 49
-1.0
 74
     0
 49
1.0
 74
     0
 49
-1.0
 74
     0
  0
LTYPE
  5
2B
100
AcDbSymbolTableRecord
100
AcDbLinetypeTableRecord
  2
STARTPFEIL
 70
    64
  3

 72
    65
 73
     0
 40
0.0
  0
LTYPE
  5
2C
100
AcDbSymbolTableRecord
100
AcDbLinetypeTableRecord
  2
ENDPFEIL
 70
    64
  3

 72
    65
 73
     0
 40
0.0
  0
LTYPE
  5
2D
100
AcDbSymbolTableRecord
100
AcDbLinetypeTableRecord
  2
ENDPUNKT
 70
    64
  3

 72
    65
 73
     0
 40
0.0
  0
LTYPE
  5
2E
100
AcDbSymbolTableRecord
100
AcDbLinetypeTableRecord
  2
PFEIL
 70
    64
  3

 72
    65
 73
     0
 40
0.0
  0
LTYPE
  5
2F
100
AcDbSymbolTableRecord
100
AcDbLinetypeTableRecord
  2
STITCHLINE
 70
    64
  3

 72
    65
 73
     2
 40
6.0
 49
3.0
 74
     0
 49
-3.0
 74
     0
  0
LTYPE
  5
30
100
AcDbSymbolTableRecord
100
AcDbLinetypeTableRecord
  2
MITTELLINIE_2
 70
    64
  3

 72
    65
 73
     4
 40
17.0
 49
10.0
 74
     0
 49
-2.0
 74
     0
 49
3.0
 74
     0
 49
-2.0
 74
     0
  0
LTYPE
  5
31
100
AcDbSymbolTableRecord
100
AcDbLinetypeTableRecord
  2
VERDECKTE_LINIE
 70
    64
  3

 72
    65
 73
     2
 40
4.0
 49
2.0
 74
     0
 49
-2.0
 74
     0
  0
LTYPE
  5
32
100
AcDbSymbolTableRecord
100
AcDbLinetypeTableRecord
  2
PHANTOMLINIE
 70
    64
  3

 72
    65
 73
     6
 40
21.0
 49
10.0
 74
     0
 49
-2.0
 74
     0
 49
3.0
 74
     0
 49
-1.0
 74
     0
 49
3.0
 74
     0
 49
-2.0
 74
     0
  0
LTYPE
  5
33
100
AcDbSymbolTableRecord
100
AcDbLinetypeTableRecord
  2
BRUCHLINIE_1
 70
    64
  3

 72
    65
 73
     0
 40
0.0
  0
LTYPE
  5
34
100
AcDbSymbolTableRecord
100
AcDbLinetypeTableRecord
  2
BRUCHLINIE_2
 70
    64
  3

 72
    65
 73
     0
 40
0.0
  0
LTYPE
  5
35
100
AcDbSymbolTableRecord
100
AcDbLinetypeTableRecord
  2
_DURCHGEHEND
 70
    64
  3

 72
    65
 73
     0
 40
0.0
  0
LTYPE
  5
36
100
AcDbSymbolTableRecord
100
AcDbLinetypeTableRecord
  2
_GESTRICHELT
 70
    64
  3

 72
    65
 73
     2
 40
10.0
 49
5.0
 74
     0
 49
-5.0
 74
     0
  0
LTYPE
  5
37
100
AcDbSymbolTableRecord
100
AcDbLinetypeTableRecord
  2
_MITTELLINIE
 70
    64
  3

 72
    65
 73
     4
 40
20.0
 49
10.0
 74
     0
 49
-2.0
 74
     0
 49
5.0
 74
     0
 49
-3.0
 74
     0
  0
LTYPE
  5
38
100
AcDbSymbolTableRecord
100
AcDbLinetypeTableRecord
  2
_PUNKTIERT
 70
    64
  3

 72
    65
 73
     2
 40
0.25
 49
0.0
 74
     0
 49
-0.25
 74
     0
  0
LTYPE
  5
39
100
AcDbSymbolTableRecord
100
AcDbLinetypeTableRecord
  2
_STRICHPUNKTIERT
 70
    64
  3

 72
    65
 73
     4
 40
8.0
 49
5.0
 74
     0
 49
-1.0
 74
     0
 49
1.0
 74
     0
 49
-1.0
 74
     0
  0
LTYPE
  5
3A
100
AcDbSymbolTableRecord
100
AcDbLinetypeTableRecord
  2
_STRICH-PUNKT-PUNKT
 70
    64
  3

 72
    65
 73
     6
 40
10.0
 49
5.0
 74
     0
 49
-1.0
 74
     0
 49
1.0
 74
     0
 49
-1.0
 74
     0
 49
1.0
 74
     0
 49
-1.0
 74
     0
  0
LTYPE
  5
3B
100
AcDbSymbolTableRecord
100
AcDbLinetypeTableRecord
  2
_STARTPFEIL
 70
    64
  3

 72
    65
 73
     0
 40
0.0
  0
LTYPE
  5
3C
100
AcDbSymbolTableRecord
100
AcDbLinetypeTableRecord
  2
_ENDPFEIL
 70
    64
  3

 72
    65
 73
     0
 40
0.0
  0
LTYPE
  5
3D
100
AcDbSymbolTableRecord
100
AcDbLinetypeTableRecord
  2
_ENDPUNKT
 70
    64
  3

 72
    65
 73
     0
 40
0.0
  0
LTYPE
  5
3E
100
AcDbSymbolTableRecord
100
AcDbLinetypeTableRecord
  2
_PFEIL
 70
    64
  3

 72
    65
 73
     0
 40
0.0
  0
LTYPE
  5
3F
100
AcDbSymbolTableRecord
100
AcDbLinetypeTableRecord
  2
_STITCHLINE
 70
    64
  3

 72
    65
 73
     2
 40
6.0
 49
3.0
 74
     0
 49
-3.0
 74
     0
  0
LTYPE
  5
40
100
AcDbSymbolTableRecord
100
AcDbLinetypeTableRecord
  2
_MITTELLINIE_2
 70
    64
  3

 72
    65
 73
     4
 40
17.0
 49
10.0
 74
     0
 49
-2.0
 74
     0
 49
3.0
 74
     0
 49
-2.0
 74
     0
  0
LTYPE
  5
41
100
AcDbSymbolTableRecord
100
AcDbLinetypeTableRecord
  2
_VERDECKTE_LINIE
 70
    64
  3

 72
    65
 73
     2
 40
4.0
 49
2.0
 74
     0
 49
-2.0
 74
     0
  0
LTYPE
  5
42
100
AcDbSymbolTableRecord
100
AcDbLinetypeTableRecord
  2
_PHANTOMLINIE
 70
    64
  3

 72
    65
 73
     6
 40
21.0
 49
10.0
 74
     0
 49
-2.0
 74
     0
 49
3.0
 74
     0
 49
-1.0
 74
     0
 49
3.0
 74
     0
 49
-2.0
 74
     0
  0
LTYPE
  5
43
100
AcDbSymbolTableRecord
100
AcDbLinetypeTableRecord
  2
_BRUCHLINIE_1
 70
    64
  3

 72
    65
 73
     0
 40
0.0
  0
LTYPE
  5
44
100
AcDbSymbolTableRecord
100
AcDbLinetypeTableRecord
  2
_BRUCHLINIE_2
 70
    64
  3

 72
    65
 73
     0
 40
0.0
  0
LTYPE
  5
45
100
AcDbSymbolTableRecord
100
AcDbLinetypeTableRecord
  2
CONTINUOUS
 70
    64
  3

 72
    65
 73
     0
 40
0.0
  0
LTYPE
  5
46
100
AcDbSymbolTableRecord
100
AcDbLinetypeTableRecord
  2
_DURCHGEHEND
 70
    64
  3

 72
    65
 73
     0
 40
0.0
  0
LTYPE
  5
47
100
AcDbSymbolTableRecord
100
AcDbLinetypeTableRecord
  2
_GESTRICHELT
 70
    64
  3

 72
    65
 73
     2
 40
10.0
 49
5.0
 74
     0
 49
-5.0
 74
     0
  0
LTYPE
  5
48
100
AcDbSymbolTableRecord
100
AcDbLinetypeTableRecord
  2
_MITTELLINIE
 70
    64
  3

 72
    65
 73
     4
 40
20.0
 49
10.0
 74
     0
 49
-2.0
 74
     0
 49
5.0
 74
     0
 49
-3.0
 74
     0
  0
LTYPE
  5
49
100
AcDbSymbolTableRecord
100
AcDbLinetypeTableRecord
  2
_PUNKTIERT
 70
    64
  3

 72
    65
 73
     2
 40
0.25
 49
0.0
 74
     0
 49
-0.25
 74
     0
  0
LTYPE
  5
4A
100
AcDbSymbolTableRecord
100
AcDbLinetypeTableRecord
  2
_STRICHPUNKTIERT
 70
    64
  3

 72
    65
 73
     4
 40
8.0
 49
5.0
 74
     0
 49
-1.0
 74
     0
 49
1.0
 74
     0
 49
-1.0
 74
     0
  0
LTYPE
  5
4B
100
AcDbSymbolTableRecord
100
AcDbLinetypeTableRecord
  2
_STRICH-PUNKT-PUNKT
 70
    64
  3

 72
    65
 73
     6
 40
10.0
 49
5.0
 74
     0
 49
-1.0
 74
     0
 49
1.0
 74
     0
 49
-1.0
 74
     0
 49
1.0
 74
     0
 49
-1.0
 74
     0
  0
LTYPE
  5
4C
100
AcDbSymbolTableRecord
100
AcDbLinetypeTableRecord
  2
_STARTPFEIL
 70
    64
  3

 72
    65
 73
     0
 40
0.0
  0
LTYPE
  5
4D
100
AcDbSymbolTableRecord
100
AcDbLinetypeTableRecord
  2
_ENDPFEIL
 70
    64
  3

 72
    65
 73
     0
 40
0.0
  0
LTYPE
  5
4E
100
AcDbSymbolTableRecord
100
AcDbLinetypeTableRecord
  2
_ENDPUNKT
 70
    64
  3

 72
    65
 73
     0
 40
0.0
  0
LTYPE
  5
4F
100
AcDbSymbolTableRecord
100
AcDbLinetypeTableRecord
  2
_PFEIL
 70
    64
  3

 72
    65
 73
     0
 40
0.0
  0
LTYPE
  5
50
100
AcDbSymbolTableRecord
100
AcDbLinetypeTableRecord
  2
_STITCHLINE
 70
    64
  3

 72
    65
 73
     2
 40
6.0
 49
3.0
 74
     0
 49
-3.0
 74
     0
  0
LTYPE
  5
51
100
AcDbSymbolTableRecord
100
AcDbLinetypeTableRecord
  2
_MITTELLINIE_2
 70
    64
  3

 72
    65
 73
     4
 40
17.0
 49
10.0
 74
     0
 49
-2.0
 74
     0
 49
3.0
 74
     0
 49
-2.0
 74
     0
  0
LTYPE
  5
52
100
AcDbSymbolTableRecord
100
AcDbLinetypeTableRecord
  2
_VERDECKTE_LINIE
 70
    64
  3

 72
    65
 73
     2
 40
4.0
 49
2.0
 74
     0
 49
-2.0
 74
     0
  0
LTYPE
  5
53
100
AcDbSymbolTableRecord
100
AcDbLinetypeTableRecord
  2
_PHANTOMLINIE
 70
    64
  3

 72
    65
 73
     6
 40
21.0
 49
10.0
 74
     0
 49
-2.0
 74
     0
 49
3.0
 74
     0
 49
-1.0
 74
     0
 49
3.0
 74
     0
 49
-2.0
 74
     0
  0
LTYPE
  5
54
100
AcDbSymbolTableRecord
100
AcDbLinetypeTableRecord
  2
_BRUCHLINIE_1
 70
    64
  3

 72
    65
 73
     0
 40
0.0
  0
LTYPE
  5
55
100
AcDbSymbolTableRecord
100
AcDbLinetypeTableRecord
  2
_BRUCHLINIE_2
 70
    64
  3

 72
    65
 73
     0
 40
0.0
  0
LTYPE
  5
56
100
AcDbSymbolTableRecord
100
AcDbLinetypeTableRecord
  2
_DURCHGEHEND
 70
    64
  3

 72
    65
 73
     0
 40
0.0
  0
LTYPE
  5
57
100
AcDbSymbolTableRecord
100
AcDbLinetypeTableRecord
  2
_GESTRICHELT
 70
    64
  3

 72
    65
 73
     2
 40
10.0
 49
5.0
 74
     0
 49
-5.0
 74
     0
  0
LTYPE
  5
58
100
AcDbSymbolTableRecord
100
AcDbLinetypeTableRecord
  2
_MITTELLINIE
 70
    64
  3

 72
    65
 73
     4
 40
20.0
 49
10.0
 74
     0
 49
-2.0
 74
     0
 49
5.0
 74
     0
 49
-3.0
 74
     0
  0
LTYPE
  5
59
100
AcDbSymbolTableRecord
100
AcDbLinetypeTableRecord
  2
_PUNKTIERT
 70
    64
  3

 72
    65
 73
     2
 40
0.25
 49
0.0
 74
     0
 49
-0.25
 74
     0
  0
LTYPE
  5
5A
100
AcDbSymbolTableRecord
100
AcDbLinetypeTableRecord
  2
_STRICHPUNKTIERT
 70
    64
  3

 72
    65
 73
     4
 40
8.0
 49
5.0
 74
     0
 49
-1.0
 74
     0
 49
1.0
 74
     0
 49
-1.0
 74
     0
  0
LTYPE
  5
5B
100
AcDbSymbolTableRecord
100
AcDbLinetypeTableRecord
  2
_STRICH-PUNKT-PUNKT
 70
    64
  3

 72
    65
 73
     6
 40
10.0
 49
5.0
 74
     0
 49
-1.0
 74
     0
 49
1.0
 74
     0
 49
-1.0
 74
     0
 49
1.0
 74
     0
 49
-1.0
 74
     0
  0
LTYPE
  5
5C
100
AcDbSymbolTableRecord
100
AcDbLinetypeTableRecord
  2
_STARTPFEIL
 70
    64
  3

 72
    65
 73
     0
 40
0.0
  0
LTYPE
  5
5D
100
AcDbSymbolTableRecord
100
AcDbLinetypeTableRecord
  2
_ENDPFEIL
 70
    64
  3

 72
    65
 73
     0
 40
0.0
  0
LTYPE
  5
5E
100
AcDbSymbolTableRecord
100
AcDbLinetypeTableRecord
  2
_ENDPUNKT
 70
    64
  3

 72
    65
 73
     0
 40
0.0
  0
LTYPE
  5
5F
100
AcDbSymbolTableRecord
100
AcDbLinetypeTableRecord
  2
_PFEIL
 70
    64
  3

 72
    65
 73
     0
 40
0.0
  0
LTYPE
  5
60
100
AcDbSymbolTableRecord
100
AcDbLinetypeTableRecord
  2
_STITCHLINE
 70
    64
  3

 72
    65
 73
     2
 40
6.0
 49
3.0
 74
     0
 49
-3.0
 74
     0
  0
LTYPE
  5
61
100
AcDbSymbolTableRecord
100
AcDbLinetypeTableRecord
  2
_MITTELLINIE_2
 70
    64
  3

 72
    65
 73
     4
 40
17.0
 49
10.0
 74
     0
 49
-2.0
 74
     0
 49
3.0
 74
     0
 49
-2.0
 74
     0
  0
LTYPE
  5
62
100
AcDbSymbolTableRecord
100
AcDbLinetypeTableRecord
  2
_VERDECKTE_LINIE
 70
    64
  3

 72
    65
 73
     2
 40
4.0
 49
2.0
 74
     0
 49
-2.0
 74
     0
  0
LTYPE
  5
63
100
AcDbSymbolTableRecord
100
AcDbLinetypeTableRecord
  2
_PHANTOMLINIE
 70
    64
  3

 72
    65
 73
     6
 40
21.0
 49
10.0
 74
     0
 49
-2.0
 74
     0
 49
3.0
 74
     0
 49
-1.0
 74
     0
 49
3.0
 74
     0
 49
-2.0
 74
     0
  0
LTYPE
  5
64
100
AcDbSymbolTableRecord
100
AcDbLinetypeTableRecord
  2
_BRUCHLINIE_1
 70
    64
  3

 72
    65
 73
     0
 40
0.0
  0
LTYPE
  5
65
100
AcDbSymbolTableRecord
100
AcDbLinetypeTableRecord
  2
_BRUCHLINIE_2
 70
    64
  3

 72
    65
 73
     0
 40
0.0
  0
LTYPE
  5
66
100
AcDbSymbolTableRecord
100
AcDbLinetypeTableRecord
  2
SLDCENTERLINES0
 70
    64
  3

 72
    65
 73
     4
 40
19.05
 49
15.24
 74
     0
 49
-1.27
 74
     0
 49
1.27
 74
     0
 49
-1.27
 74
     0
  0
LTYPE
  5
67
100
AcDbSymbolTableRecord
100
AcDbLinetypeTableRecord
  2
SLDTANVISIBLE0
 70
    64
  3

 72
    65
 73
     6
 40
12.7
 49
6.35
 74
     0
 49
-1.27
 74
     0
 49
1.27
 74
     0
 49
-1.27
 74
     0
 49
1.27
 74
     0
 49
-1.27
 74
     0
  0
LTYPE
  5
68
100
AcDbSymbolTableRecord
100
AcDbLinetypeTableRecord
  2
_DURCHGEHEND
 70
    64
  3

 72
    65
 73
     0
 40
0.0
  0
LTYPE
  5
69
100
AcDbSymbolTableRecord
100
AcDbLinetypeTableRecord
  2
_GESTRICHELT
 70
    64
  3

 72
    65
 73
     2
 40
10.0
 49
5.0
 74
     0
 49
-5.0
 74
     0
  0
LTYPE
  5
6A
100
AcDbSymbolTableRecord
100
AcDbLinetypeTableRecord
  2
_MITTELLINIE
 70
    64
  3

 72
    65
 73
     4
 40
20.0
 49
10.0
 74
     0
 49
-2.0
 74
     0
 49
5.0
 74
     0
 49
-3.0
 74
     0
  0
LTYPE
  5
6B
100
AcDbSymbolTableRecord
100
AcDbLinetypeTableRecord
  2
_PUNKTIERT
 70
    64
  3

 72
    65
 73
     2
 40
0.25
 49
0.0
 74
     0
 49
-0.25
 74
     0
  0
LTYPE
  5
6C
100
AcDbSymbolTableRecord
100
AcDbLinetypeTableRecord
  2
_STRICHPUNKTIERT
 70
    64
  3

 72
    65
 73
     4
 40
8.0
 49
5.0
 74
     0
 49
-1.0
 74
     0
 49
1.0
 74
     0
 49
-1.0
 74
     0
  0
LTYPE
  5
6D
100
AcDbSymbolTableRecord
100
AcDbLinetypeTableRecord
  2
_STRICH-PUNKT-PUNKT
 70
    64
  3

 72
    65
 73
     6
 40
10.0
 49
5.0
 74
     0
 49
-1.0
 74
     0
 49
1.0
 74
     0
 49
-1.0
 74
     0
 49
1.0
 74
     0
 49
-1.0
 74
     0
  0
LTYPE
  5
6E
100
AcDbSymbolTableRecord
100
AcDbLinetypeTableRecord
  2
_STARTPFEIL
 70
    64
  3

 72
    65
 73
     0
 40
0.0
  0
LTYPE
  5
6F
100
AcDbSymbolTableRecord
100
AcDbLinetypeTableRecord
  2
_ENDPFEIL
 70
    64
  3

 72
    65
 73
     0
 40
0.0
  0
LTYPE
  5
70
100
AcDbSymbolTableRecord
100
AcDbLinetypeTableRecord
  2
_ENDPUNKT
 70
    64
  3

 72
    65
 73
     0
 40
0.0
  0
LTYPE
  5
71
100
AcDbSymbolTableRecord
100
AcDbLinetypeTableRecord
  2
_PFEIL
 70
    64
  3

 72
    65
 73
     0
 40
0.0
  0
LTYPE
  5
72
100
AcDbSymbolTableRecord
100
AcDbLinetypeTableRecord
  2
_STITCHLINE
 70
    64
  3

 72
    65
 73
     2
 40
6.0
 49
3.0
 74
     0
 49
-3.0
 74
     0
  0
LTYPE
  5
73
100
AcDbSymbolTableRecord
100
AcDbLinetypeTableRecord
  2
_MITTELLINIE_2
 70
    64
  3

 72
    65
 73
     4
 40
17.0
 49
10.0
 74
     0
 49
-2.0
 74
     0
 49
3.0
 74
     0
 49
-2.0
 74
     0
  0
LTYPE
  5
74
100
AcDbSymbolTableRecord
100
AcDbLinetypeTableRecord
  2
_VERDECKTE_LINIE
 70
    64
  3

 72
    65
 73
     2
 40
4.0
 49
2.0
 74
     0
 49
-2.0
 74
     0
  0
LTYPE
  5
75
100
AcDbSymbolTableRecord
100
AcDbLinetypeTableRecord
  2
_PHANTOMLINIE
 70
    64
  3

 72
    65
 73
     6
 40
21.0
 49
10.0
 74
     0
 49
-2.0
 74
     0
 49
3.0
 74
     0
 49
-1.0
 74
     0
 49
3.0
 74
     0
 49
-2.0
 74
     0
  0
LTYPE
  5
76
100
AcDbSymbolTableRecord
100
AcDbLinetypeTableRecord
  2
_BRUCHLINIE_1
 70
    64
  3

 72
    65
 73
     0
 40
0.0
  0
LTYPE
  5
77
100
AcDbSymbolTableRecord
100
AcDbLinetypeTableRecord
  2
_BRUCHLINIE_2
 70
    64
  3

 72
    65
 73
     0
 40
0.0
  0
LTYPE
  5
78
100
AcDbSymbolTableRecord
100
AcDbLinetypeTableRecord
  2
_DURCHGEHEND
 70
    64
  3

 72
    65
 73
     0
 40
0.0
  0
LTYPE
  5
79
100
AcDbSymbolTableRecord
100
AcDbLinetypeTableRecord
  2
_GESTRICHELT
 70
    64
  3

 72
    65
 73
     2
 40
10.0
 49
5.0
 74
     0
 49
-5.0
 74
     0
  0
LTYPE
  5
7A
100
AcDbSymbolTableRecord
100
AcDbLinetypeTableRecord
  2
_MITTELLINIE
 70
    64
  3

 72
    65
 73
     4
 40
20.0
 49
10.0
 74
     0
 49
-2.0
 74
     0
 49
5.0
 74
     0
 49
-3.0
 74
     0
  0
LTYPE
  5
7B
100
AcDbSymbolTableRecord
100
AcDbLinetypeTableRecord
  2
_PUNKTIERT
 70
    64
  3

 72
    65
 73
     2
 40
0.25
 49
0.0
 74
     0
 49
-0.25
 74
     0
  0
LTYPE
  5
7C
100
AcDbSymbolTableRecord
100
AcDbLinetypeTableRecord
  2
_STRICHPUNKTIERT
 70
    64
  3

 72
    65
 73
     4
 40
8.0
 49
5.0
 74
     0
 49
-1.0
 74
     0
 49
1.0
 74
     0
 49
-1.0
 74
     0
  0
LTYPE
  5
7D
100
AcDbSymbolTableRecord
100
AcDbLinetypeTableRecord
  2
_STRICH-PUNKT-PUNKT
 70
    64
  3

 72
    65
 73
     6
 40
10.0
 49
5.0
 74
     0
 49
-1.0
 74
     0
 49
1.0
 74
     0
 49
-1.0
 74
     0
 49
1.0
 74
     0
 49
-1.0
 74
     0
  0
LTYPE
  5
7E
100
AcDbSymbolTableRecord
100
AcDbLinetypeTableRecord
  2
_STARTPFEIL
 70
    64
  3

 72
    65
 73
     0
 40
0.0
  0
LTYPE
  5
7F
100
AcDbSymbolTableRecord
100
AcDbLinetypeTableRecord
  2
_ENDPFEIL
 70
    64
  3

 72
    65
 73
     0
 40
0.0
  0
LTYPE
  5
80
100
AcDbSymbolTableRecord
100
AcDbLinetypeTableRecord
  2
_ENDPUNKT
 70
    64
  3

 72
    65
 73
     0
 40
0.0
  0
LTYPE
  5
81
100
AcDbSymbolTableRecord
100
AcDbLinetypeTableRecord
  2
_PFEIL
 70
    64
  3

 72
    65
 73
     0
 40
0.0
  0
LTYPE
  5
82
100
AcDbSymbolTableRecord
100
AcDbLinetypeTableRecord
  2
_STITCHLINE
 70
    64
  3

 72
    65
 73
     2
 40
6.0
 49
3.0
 74
     0
 49
-3.0
 74
     0
  0
LTYPE
  5
83
100
AcDbSymbolTableRecord
100
AcDbLinetypeTableRecord
  2
_MITTELLINIE_2
 70
    64
  3

 72
    65
 73
     4
 40
17.0
 49
10.0
 74
     0
 49
-2.0
 74
     0
 49
3.0
 74
     0
 49
-2.0
 74
     0
  0
LTYPE
  5
84
100
AcDbSymbolTableRecord
100
AcDbLinetypeTableRecord
  2
_VERDECKTE_LINIE
 70
    64
  3

 72
    65
 73
     2
 40
4.0
 49
2.0
 74
     0
 49
-2.0
 74
     0
  0
LTYPE
  5
85
100
AcDbSymbolTableRecord
100
AcDbLinetypeTableRecord
  2
_PHANTOMLINIE
 70
    64
  3

 72
    65
 73
     6
 40
21.0
 49
10.0
 74
     0
 49
-2.0
 74
     0
 49
3.0
 74
     0
 49
-1.0
 74
     0
 49
3.0
 74
     0
 49
-2.0
 74
     0
  0
LTYPE
  5
86
100
AcDbSymbolTableRecord
100
AcDbLinetypeTableRecord
  2
_BRUCHLINIE_1
 70
    64
  3

 72
    65
 73
     0
 40
0.0
  0
LTYPE
  5
87
100
AcDbSymbolTableRecord
100
AcDbLinetypeTableRecord
  2
_BRUCHLINIE_2
 70
    64
  3

 72
    65
 73
     0
 40
0.0
  0
LTYPE
  5
88
100
AcDbSymbolTableRecord
100
AcDbLinetypeTableRecord
  2
_DURCHGEHEND
 70
    64
  3

 72
    65
 73
     0
 40
0.0
  0
LTYPE
  5
89
100
AcDbSymbolTableRecord
100
AcDbLinetypeTableRecord
  2
_GESTRICHELT
 70
    64
  3

 72
    65
 73
     2
 40
10.0
 49
5.0
 74
     0
 49
-5.0
 74
     0
  0
LTYPE
  5
8A
100
AcDbSymbolTableRecord
100
AcDbLinetypeTableRecord
  2
_MITTELLINIE
 70
    64
  3

 72
    65
 73
     4
 40
20.0
 49
10.0
 74
     0
 49
-2.0
 74
     0
 49
5.0
 74
     0
 49
-3.0
 74
     0
  0
LTYPE
  5
8B
100
AcDbSymbolTableRecord
100
AcDbLinetypeTableRecord
  2
_PUNKTIERT
 70
    64
  3

 72
    65
 73
     2
 40
0.25
 49
0.0
 74
     0
 49
-0.25
 74
     0
  0
LTYPE
  5
8C
100
AcDbSymbolTableRecord
100
AcDbLinetypeTableRecord
  2
_STRICHPUNKTIERT
 70
    64
  3

 72
    65
 73
     4
 40
8.0
 49
5.0
 74
     0
 49
-1.0
 74
     0
 49
1.0
 74
     0
 49
-1.0
 74
     0
  0
LTYPE
  5
8D
100
AcDbSymbolTableRecord
100
AcDbLinetypeTableRecord
  2
_STRICH-PUNKT-PUNKT
 70
    64
  3

 72
    65
 73
     6
 40
10.0
 49
5.0
 74
     0
 49
-1.0
 74
     0
 49
1.0
 74
     0
 49
-1.0
 74
     0
 49
1.0
 74
     0
 49
-1.0
 74
     0
  0
LTYPE
  5
8E
100
AcDbSymbolTableRecord
100
AcDbLinetypeTableRecord
  2
_STARTPFEIL
 70
    64
  3

 72
    65
 73
     0
 40
0.0
  0
LTYPE
  5
8F
100
AcDbSymbolTableRecord
100
AcDbLinetypeTableRecord
  2
_ENDPFEIL
 70
    64
  3

 72
    65
 73
     0
 40
0.0
  0
LTYPE
  5
90
100
AcDbSymbolTableRecord
100
AcDbLinetypeTableRecord
  2
_ENDPUNKT
 70
    64
  3

 72
    65
 73
     0
 40
0.0
  0
LTYPE
  5
91
100
AcDbSymbolTableRecord
100
AcDbLinetypeTableRecord
  2
_PFEIL
 70
    64
  3

 72
    65
 73
     0
 40
0.0
  0
LTYPE
  5
92
100
AcDbSymbolTableRecord
100
AcDbLinetypeTableRecord
  2
_STITCHLINE
 70
    64
  3

 72
    65
 73
     2
 40
6.0
 49
3.0
 74
     0
 49
-3.0
 74
     0
  0
LTYPE
  5
93
100
AcDbSymbolTableRecord
100
AcDbLinetypeTableRecord
  2
_MITTELLINIE_2
 70
    64
  3

 72
    65
 73
     4
 40
17.0
 49
10.0
 74
     0
 49
-2.0
 74
     0
 49
3.0
 74
     0
 49
-2.0
 74
     0
  0
LTYPE
  5
94
100
AcDbSymbolTableRecord
100
AcDbLinetypeTableRecord
  2
_VERDECKTE_LINIE
 70
    64
  3

 72
    65
 73
     2
 40
4.0
 49
2.0
 74
     0
 49
-2.0
 74
     0
  0
LTYPE
  5
95
100
AcDbSymbolTableRecord
100
AcDbLinetypeTableRecord
  2
_PHANTOMLINIE
 70
    64
  3

 72
    65
 73
     6
 40
21.0
 49
10.0
 74
     0
 49
-2.0
 74
     0
 49
3.0
 74
     0
 49
-1.0
 74
     0
 49
3.0
 74
     0
 49
-2.0
 74
     0
  0
LTYPE
  5
96
100
AcDbSymbolTableRecord
100
AcDbLinetypeTableRecord
  2
_BRUCHLINIE_1
 70
    64
  3

 72
    65
 73
     0
 40
0.0
  0
LTYPE
  5
97
100
AcDbSymbolTableRecord
100
AcDbLinetypeTableRecord
  2
_BRUCHLINIE_2
 70
    64
  3

 72
    65
 73
     0
 40
0.0
  0
LTYPE
  5
98
100
AcDbSymbolTableRecord
100
AcDbLinetypeTableRecord
  2
_DURCHGEHEND
 70
    64
  3

 72
    65
 73
     0
 40
0.0
  0
LTYPE
  5
99
100
AcDbSymbolTableRecord
100
AcDbLinetypeTableRecord
  2
_GESTRICHELT
 70
    64
  3

 72
    65
 73
     2
 40
10.0
 49
5.0
 74
     0
 49
-5.0
 74
     0
  0
LTYPE
  5
9A
100
AcDbSymbolTableRecord
100
AcDbLinetypeTableRecord
  2
_MITTELLINIE
 70
    64
  3

 72
    65
 73
     4
 40
20.0
 49
10.0
 74
     0
 49
-2.0
 74
     0
 49
5.0
 74
     0
 49
-3.0
 74
     0
  0
LTYPE
  5
9B
100
AcDbSymbolTableRecord
100
AcDbLinetypeTableRecord
  2
_PUNKTIERT
 70
    64
  3

 72
    65
 73
     2
 40
0.25
 49
0.0
 74
     0
 49
-0.25
 74
     0
  0
LTYPE
  5
9C
100
AcDbSymbolTableRecord
100
AcDbLinetypeTableRecord
  2
_STRICHPUNKTIERT
 70
    64
  3

 72
    65
 73
     4
 40
8.0
 49
5.0
 74
     0
 49
-1.0
 74
     0
 49
1.0
 74
     0
 49
-1.0
 74
     0
  0
LTYPE
  5
9D
100
AcDbSymbolTableRecord
100
AcDbLinetypeTableRecord
  2
_STRICH-PUNKT-PUNKT
 70
    64
  3

 72
    65
 73
     6
 40
10.0
 49
5.0
 74
     0
 49
-1.0
 74
     0
 49
1.0
 74
     0
 49
-1.0
 74
     0
 49
1.0
 74
     0
 49
-1.0
 74
     0
  0
LTYPE
  5
9E
100
AcDbSymbolTableRecord
100
AcDbLinetypeTableRecord
  2
_STARTPFEIL
 70
    64
  3

 72
    65
 73
     0
 40
0.0
  0
LTYPE
  5
9F
100
AcDbSymbolTableRecord
100
AcDbLinetypeTableRecord
  2
_ENDPFEIL
 70
    64
  3

 72
    65
 73
     0
 40
0.0
  0
LTYPE
  5
A0
100
AcDbSymbolTableRecord
100
AcDbLinetypeTableRecord
  2
_ENDPUNKT
 70
    64
  3

 72
    65
 73
     0
 40
0.0
  0
LTYPE
  5
A1
100
AcDbSymbolTableRecord
100
AcDbLinetypeTableRecord
  2
_PFEIL
 70
    64
  3

 72
    65
 73
     0
 40
0.0
  0
LTYPE
  5
A2
100
AcDbSymbolTableRecord
100
AcDbLinetypeTableRecord
  2
_STITCHLINE
 70
    64
  3

 72
    65
 73
     2
 40
6.0
 49
3.0
 74
     0
 49
-3.0
 74
     0
  0
LTYPE
  5
A3
100
AcDbSymbolTableRecord
100
AcDbLinetypeTableRecord
  2
_MITTELLINIE_2
 70
    64
  3

 72
    65
 73
     4
 40
17.0
 49
10.0
 74
     0
 49
-2.0
 74
     0
 49
3.0
 74
     0
 49
-2.0
 74
     0
  0
LTYPE
  5
A4
100
AcDbSymbolTableRecord
100
AcDbLinetypeTableRecord
  2
_VERDECKTE_LINIE
 70
    64
  3

 72
    65
 73
     2
 40
4.0
 49
2.0
 74
     0
 49
-2.0
 74
     0
  0
LTYPE
  5
A5
100
AcDbSymbolTableRecord
100
AcDbLinetypeTableRecord
  2
_PHANTOMLINIE
 70
    64
  3

 72
    65
 73
     6
 40
21.0
 49
10.0
 74
     0
 49
-2.0
 74
     0
 49
3.0
 74
     0
 49
-1.0
 74
     0
 49
3.0
 74
     0
 49
-2.0
 74
     0
  0
LTYPE
  5
A6
100
AcDbSymbolTableRecord
100
AcDbLinetypeTableRecord
  2
_BRUCHLINIE_1
 70
    64
  3

 72
    65
 73
     0
 40
0.0
  0
LTYPE
  5
A7
100
AcDbSymbolTableRecord
100
AcDbLinetypeTableRecord
  2
_BRUCHLINIE_2
 70
    64
  3

 72
    65
 73
     0
 40
0.0
  0
LTYPE
  5
A8
100
AcDbSymbolTableRecord
100
AcDbLinetypeTableRecord
  2
_DURCHGEHEND
 70
    64
  3

 72
    65
 73
     0
 40
0.0
  0
LTYPE
  5
A9
100
AcDbSymbolTableRecord
100
AcDbLinetypeTableRecord
  2
_GESTRICHELT
 70
    64
  3

 72
    65
 73
     2
 40
10.0
 49
5.0
 74
     0
 49
-5.0
 74
     0
  0
LTYPE
  5
AA
100
AcDbSymbolTableRecord
100
AcDbLinetypeTableRecord
  2
_MITTELLINIE
 70
    64
  3

 72
    65
 73
     4
 40
20.0
 49
10.0
 74
     0
 49
-2.0
 74
     0
 49
5.0
 74
     0
 49
-3.0
 74
     0
  0
LTYPE
  5
AB
100
AcDbSymbolTableRecord
100
AcDbLinetypeTableRecord
  2
_PUNKTIERT
 70
    64
  3

 72
    65
 73
     2
 40
0.25
 49
0.0
 74
     0
 49
-0.25
 74
     0
  0
LTYPE
  5
AC
100
AcDbSymbolTableRecord
100
AcDbLinetypeTableRecord
  2
_STRICHPUNKTIERT
 70
    64
  3

 72
    65
 73
     4
 40
8.0
 49
5.0
 74
     0
 49
-1.0
 74
     0
 49
1.0
 74
     0
 49
-1.0
 74
     0
  0
LTYPE
  5
AD
100
AcDbSymbolTableRecord
100
AcDbLinetypeTableRecord
  2
_STRICH-PUNKT-PUNKT
 70
    64
  3

 72
    65
 73
     6
 40
10.0
 49
5.0
 74
     0
 49
-1.0
 74
     0
 49
1.0
 74
     0
 49
-1.0
 74
     0
 49
1.0
 74
     0
 49
-1.0
 74
     0
  0
LTYPE
  5
AE
100
AcDbSymbolTableRecord
100
AcDbLinetypeTableRecord
  2
_STARTPFEIL
 70
    64
  3

 72
    65
 73
     0
 40
0.0
  0
LTYPE
  5
AF
100
AcDbSymbolTableRecord
100
AcDbLinetypeTableRecord
  2
_ENDPFEIL
 70
    64
  3

 72
    65
 73
     0
 40
0.0
  0
LTYPE
  5
B0
100
AcDbSymbolTableRecord
100
AcDbLinetypeTableRecord
  2
_ENDPUNKT
 70
    64
  3

 72
    65
 73
     0
 40
0.0
  0
LTYPE
  5
B1
100
AcDbSymbolTableRecord
100
AcDbLinetypeTableRecord
  2
_PFEIL
 70
    64
  3

 72
    65
 73
     0
 40
0.0
  0
LTYPE
  5
B2
100
AcDbSymbolTableRecord
100
AcDbLinetypeTableRecord
  2
_STITCHLINE
 70
    64
  3

 72
    65
 73
     2
 40
6.0
 49
3.0
 74
     0
 49
-3.0
 74
     0
  0
LTYPE
  5
B3
100
AcDbSymbolTableRecord
100
AcDbLinetypeTableRecord
  2
_MITTELLINIE_2
 70
    64
  3

 72
    65
 73
     4
 40
17.0
 49
10.0
 74
     0
 49
-2.0
 74
     0
 49
3.0
 74
     0
 49
-2.0
 74
     0
  0
LTYPE
  5
B4
100
AcDbSymbolTableRecord
100
AcDbLinetypeTableRecord
  2
_VERDECKTE_LINIE
 70
    64
  3

 72
    65
 73
     2
 40
4.0
 49
2.0
 74
     0
 49
-2.0
 74
     0
  0
LTYPE
  5
B5
100
AcDbSymbolTableRecord
100
AcDbLinetypeTableRecord
  2
_PHANTOMLINIE
 70
    64
  3

 72
    65
 73
     6
 40
21.0
 49
10.0
 74
     0
 49
-2.0
 74
     0
 49
3.0
 74
     0
 49
-1.0
 74
     0
 49
3.0
 74
     0
 49
-2.0
 74
     0
  0
LTYPE
  5
B6
100
AcDbSymbolTableRecord
100
AcDbLinetypeTableRecord
  2
_BRUCHLINIE_1
 70
    64
  3

 72
    65
 73
     0
 40
0.0
  0
LTYPE
  5
B7
100
AcDbSymbolTableRecord
100
AcDbLinetypeTableRecord
  2
_BRUCHLINIE_2
 70
    64
  3

 72
    65
 73
     0
 40
0.0
  0
LTYPE
  5
B8
100
AcDbSymbolTableRecord
100
AcDbLinetypeTableRecord
  2
4_2-0_7-0_7-0_7
 70
    64
  3

 72
    65
 73
     4
 40
6.35
 49
4.233334
 74
     0
 49
-0.705556
 74
     0
 49
0.705556
 74
     0
 49
-0.705556
 74
     0
  0
LTYPE
  5
B9
100
AcDbSymbolTableRecord
100
AcDbLinetypeTableRecord
  2
0_7-0_7
 70
    64
  3

 72
    65
 73
     2
 40
1.411111
 49
0.705556
 74
     0
 49
-0.705556
 74
     0
  0
LTYPE
  5
BA
100
AcDbSymbolTableRecord
100
AcDbLinetypeTableRecord
  2
_DURCHGEHEND
 70
    64
  3

 72
    65
 73
     0
 40
0.0
  0
LTYPE
  5
BB
100
AcDbSymbolTableRecord
100
AcDbLinetypeTableRecord
  2
_GESTRICHELT
 70
    64
  3

 72
    65
 73
     2
 40
10.0
 49
5.0
 74
     0
 49
-5.0
 74
     0
  0
LTYPE
  5
BC
100
AcDbSymbolTableRecord
100
AcDbLinetypeTableRecord
  2
_MITTELLINIE
 70
    64
  3

 72
    65
 73
     4
 40
20.0
 49
10.0
 74
     0
 49
-2.0
 74
     0
 49
5.0
 74
     0
 49
-3.0
 74
     0
  0
LTYPE
  5
BD
100
AcDbSymbolTableRecord
100
AcDbLinetypeTableRecord
  2
_PUNKTIERT
 70
    64
  3

 72
    65
 73
     2
 40
0.25
 49
0.0
 74
     0
 49
-0.25
 74
     0
  0
LTYPE
  5
BE
100
AcDbSymbolTableRecord
100
AcDbLinetypeTableRecord
  2
_STRICHPUNKTIERT
 70
    64
  3

 72
    65
 73
     4
 40
8.0
 49
5.0
 74
     0
 49
-1.0
 74
     0
 49
1.0
 74
     0
 49
-1.0
 74
     0
  0
LTYPE
  5
BF
100
AcDbSymbolTableRecord
100
AcDbLinetypeTableRecord
  2
_STRICH-PUNKT-PUNKT
 70
    64
  3

 72
    65
 73
     6
 40
10.0
 49
5.0
 74
     0
 49
-1.0
 74
     0
 49
1.0
 74
     0
 49
-1.0
 74
     0
 49
1.0
 74
     0
 49
-1.0
 74
     0
  0
LTYPE
  5
C0
100
AcDbSymbolTableRecord
100
AcDbLinetypeTableRecord
  2
_STARTPFEIL
 70
    64
  3

 72
    65
 73
     0
 40
0.0
  0
LTYPE
  5
C1
100
AcDbSymbolTableRecord
100
AcDbLinetypeTableRecord
  2
_ENDPFEIL
 70
    64
  3

 72
    65
 73
     0
 40
0.0
  0
LTYPE
  5
C2
100
AcDbSymbolTableRecord
100
AcDbLinetypeTableRecord
  2
_ENDPUNKT
 70
    64
  3

 72
    65
 73
     0
 40
0.0
  0
LTYPE
  5
C3
100
AcDbSymbolTableRecord
100
AcDbLinetypeTableRecord
  2
_PFEIL
 70
    64
  3

 72
    65
 73
     0
 40
0.0
  0
LTYPE
  5
C4
100
AcDbSymbolTableRecord
100
AcDbLinetypeTableRecord
  2
_STITCHLINE
 70
    64
  3

 72
    65
 73
     2
 40
6.0
 49
3.0
 74
     0
 49
-3.0
 74
     0
  0
LTYPE
  5
C5
100
AcDbSymbolTableRecord
100
AcDbLinetypeTableRecord
  2
_MITTELLINIE_2
 70
    64
  3

 72
    65
 73
     4
 40
17.0
 49
10.0
 74
     0
 49
-2.0
 74
     0
 49
3.0
 74
     0
 49
-2.0
 74
     0
  0
LTYPE
  5
C6
100
AcDbSymbolTableRecord
100
AcDbLinetypeTableRecord
  2
_VERDECKTE_LINIE
 70
    64
  3

 72
    65
 73
     2
 40
4.0
 49
2.0
 74
     0
 49
-2.0
 74
     0
  0
LTYPE
  5
C7
100
AcDbSymbolTableRecord
100
AcDbLinetypeTableRecord
  2
_PHANTOMLINIE
 70
    64
  3

 72
    65
 73
     6
 40
21.0
 49
10.0
 74
     0
 49
-2.0
 74
     0
 49
3.0
 74
     0
 49
-1.0
 74
     0
 49
3.0
 74
     0
 49
-2.0
 74
     0
  0
LTYPE
  5
C8
100
AcDbSymbolTableRecord
100
AcDbLinetypeTableRecord
  2
_BRUCHLINIE_1
 70
    64
  3

 72
    65
 73
     0
 40
0.0
  0
LTYPE
  5
C9
100
AcDbSymbolTableRecord
100
AcDbLinetypeTableRecord
  2
_BRUCHLINIE_2
 70
    64
  3

 72
    65
 73
     0
 40
0.0
  0
LTYPE
  5
CA
100
AcDbSymbolTableRecord
100
AcDbLinetypeTableRecord
  2
_DURCHGEHEND
 70
    64
  3

 72
    65
 73
     0
 40
0.0
  0
LTYPE
  5
CB
100
AcDbSymbolTableRecord
100
AcDbLinetypeTableRecord
  2
_GESTRICHELT
 70
    64
  3

 72
    65
 73
     2
 40
10.0
 49
5.0
 74
     0
 49
-5.0
 74
     0
  0
LTYPE
  5
CC
100
AcDbSymbolTableRecord
100
AcDbLinetypeTableRecord
  2
_MITTELLINIE
 70
    64
  3

 72
    65
 73
     4
 40
20.0
 49
10.0
 74
     0
 49
-2.0
 74
     0
 49
5.0
 74
     0
 49
-3.0
 74
     0
  0
LTYPE
  5
CD
100
AcDbSymbolTableRecord
100
AcDbLinetypeTableRecord
  2
_PUNKTIERT
 70
    64
  3

 72
    65
 73
     2
 40
0.25
 49
0.0
 74
     0
 49
-0.25
 74
     0
  0
LTYPE
  5
CE
100
AcDbSymbolTableRecord
100
AcDbLinetypeTableRecord
  2
_STRICHPUNKTIERT
 70
    64
  3

 72
    65
 73
     4
 40
8.0
 49
5.0
 74
     0
 49
-1.0
 74
     0
 49
1.0
 74
     0
 49
-1.0
 74
     0
  0
LTYPE
  5
CF
100
AcDbSymbolTableRecord
100
AcDbLinetypeTableRecord
  2
_STRICH-PUNKT-PUNKT
 70
    64
  3

 72
    65
 73
     6
 40
10.0
 49
5.0
 74
     0
 49
-1.0
 74
     0
 49
1.0
 74
     0
 49
-1.0
 74
     0
 49
1.0
 74
     0
 49
-1.0
 74
     0
  0
LTYPE
  5
D0
100
AcDbSymbolTableRecord
100
AcDbLinetypeTableRecord
  2
_STARTPFEIL
 70
    64
  3

 72
    65
 73
     0
 40
0.0
  0
LTYPE
  5
D1
100
AcDbSymbolTableRecord
100
AcDbLinetypeTableRecord
  2
_ENDPFEIL
 70
    64
  3

 72
    65
 73
     0
 40
0.0
  0
LTYPE
  5
D2
100
AcDbSymbolTableRecord
100
AcDbLinetypeTableRecord
  2
_ENDPUNKT
 70
    64
  3

 72
    65
 73
     0
 40
0.0
  0
LTYPE
  5
D3
100
AcDbSymbolTableRecord
100
AcDbLinetypeTableRecord
  2
_PFEIL
 70
    64
  3

 72
    65
 73
     0
 40
0.0
  0
LTYPE
  5
D4
100
AcDbSymbolTableRecord
100
AcDbLinetypeTableRecord
  2
_STITCHLINE
 70
    64
  3

 72
    65
 73
     2
 40
6.0
 49
3.0
 74
     0
 49
-3.0
 74
     0
  0
LTYPE
  5
D5
100
AcDbSymbolTableRecord
100
AcDbLinetypeTableRecord
  2
_MITTELLINIE_2
 70
    64
  3

 72
    65
 73
     4
 40
17.0
 49
10.0
 74
     0
 49
-2.0
 74
     0
 49
3.0
 74
     0
 49
-2.0
 74
     0
  0
LTYPE
  5
D6
100
AcDbSymbolTableRecord
100
AcDbLinetypeTableRecord
  2
_VERDECKTE_LINIE
 70
    64
  3

 72
    65
 73
     2
 40
4.0
 49
2.0
 74
     0
 49
-2.0
 74
     0
  0
LTYPE
  5
D7
100
AcDbSymbolTableRecord
100
AcDbLinetypeTableRecord
  2
_PHANTOMLINIE
 70
    64
  3

 72
    65
 73
     6
 40
21.0
 49
10.0
 74
     0
 49
-2.0
 74
     0
 49
3.0
 74
     0
 49
-1.0
 74
     0
 49
3.0
 74
     0
 49
-2.0
 74
     0
  0
LTYPE
  5
D8
100
AcDbSymbolTableRecord
100
AcDbLinetypeTableRecord
  2
_BRUCHLINIE_1
 70
    64
  3

 72
    65
 73
     0
 40
0.0
  0
LTYPE
  5
D9
100
AcDbSymbolTableRecord
100
AcDbLinetypeTableRecord
  2
_BRUCHLINIE_2
 70
    64
  3

 72
    65
 73
     0
 40
0.0
  0
LTYPE
  5
DA
100
AcDbSymbolTableRecord
100
AcDbLinetypeTableRecord
  2
SLDUSER-DASHED0
 70
    64
  3

 72
    65
 73
     2
 40
1.905
 49
1.27
 74
     0
 49
-0.635
 74
     0
  0
LTYPE
  5
DB
100
AcDbSymbolTableRecord
100
AcDbLinetypeTableRecord
  2
STRICHPUNKTIERT-1
 70
    64
  3

 72
    65
 73
     4
 40
8.0
 49
5.0
 74
     0
 49
-1.0
 74
     0
 49
1.0
 74
     0
 49
-1.0
 74
     0
  0
LTYPE
  5
DC
100
AcDbSymbolTableRecord
100
AcDbLinetypeTableRecord
  2
CONTINUOUS
 70
    64
  3

 72
    65
 73
     0
 40
0.0
  0
ENDTAB
  0
TABLE
  2
LAYER
  5
2
100
AcDbSymbolTable
 70
     7
  0
LAYER
  5
14
100
AcDbSymbolTableRecord
100
AcDbLayerTableRecord
  2
0
 70
     0
 62
     7
  6
Continuous
290
     1
370
    -3
390
1D
  0
LAYER
  5
DD
100
AcDbSymbolTableRecord
100
AcDbLayerTableRecord
  2
STANDARDEBENE
 70
     0
 62
     7
  6
Continuous
290
     1
370
    -3
390
1D
  0
LAYER
  5
DE
100
AcDbSymbolTableRecord
100
AcDbLayerTableRecord
  2
ARMATUR
 70
     0
 62
     7
  6
Continuous
290
     1
370
    -3
390
1D
  0
LAYER
  5
DF
100
AcDbSymbolTableRecord
100
AcDbLayerTableRecord
  2
ACHSEN
 70
     0
 62
     7
  6
Continuous
290
     1
370
    -3
390
1D
  0
LAYER
  5
E0
100
AcDbSymbolTableRecord
100
AcDbLayerTableRecord
  2
BEMASSUNG
 70
     0
 62
     7
  6
Continuous
290
     1
370
    -3
390
1D
  0
LAYER
  5
E1
100
AcDbSymbolTableRecord
100
AcDbLayerTableRecord
  2
WAND
 70
     0
 62
     7
  6
Continuous
290
     1
370
    -3
390
1D
  0
LAYER
  5
E2
100
AcDbSymbolTableRecord
100
AcDbLayerTableRecord
  2
ANSICHT
 70
     0
 62
     7
  6
Continuous
290
     1
370
    -3
390
1D
  0
ENDTAB
  0
TABLE
  2
STYLE
  5
3
100
AcDbSymbolTable
 70
     1
  0
STYLE
  5
17
100
AcDbSymbolTableRecord
100
AcDbTextStyleTableRecord
  2
Standard
 70
     0
 40
0.0
 41
1.0
 50
0.0
 71
     0
 42
0.0
  3
txt
  4

  0
ENDTAB
  0
TABLE
  2
VIEW
  5
5
100
AcDbSymbolTable
 70
     0
  0
ENDTAB
  0
TABLE
  2
UCS
  5
6
100
AcDbSymbolTable
 70
     1
  0
UCS
  5
24
100
AcDbSymbolTableRecord
100
AcDbUCSTableRecord
  2
ISODRAW_6_2
 70
     0
 10
0.0
 20
0.0
 30
0.0
 11
0.0
 21
1.0
 31
0.0
 12
0.0
 22
0.0
 32
1.0
 79
     0
146
0.0
  0
ENDTAB
  0
TABLE
  2
APPID
  5
8
100
AcDbSymbolTable
 70
     1
  0
APPID
  5
16
100
AcDbSymbolTableRecord
100
AcDbRegAppTableRecord
  2
ACAD
 70
     0
  0
ENDTAB
  0
TABLE
  2
DIMSTYLE
  5
9
100
AcDbSymbolTable
 70
     1
100
AcDbDimStyleTable
 71
     0
  0
DIMSTYLE
105
18
100
AcDbSymbolTableRecord
100
AcDbDimStyleTableRecord
  2
Standard
 70
     0
  3

  4

 40
1.0
 41
0.18
 42
0.0625
 43
0.38
 44
0.18
 45
0.0
 46
0.0
 47
0.0
 48
0.0
 71
     0
 72
     0
 73
     1
 74
     1
 75
     0
 76
     0
 77
     0
 78
     0
 79
     0
140
0.18
141
0.09
142
0.0
143
25.4
144
1.0
145
0.0
146
1.0
147
0.09
148
0.0
170
     0
171
     2
172
     0
173
     0
174
     0
175
     0
176
     0
177
     0
178
     0
179
     0
271
     4
272
     4
273
     2
274
     2
275
     0
276
     0
277
     2
278
    46
279
     0
280
     0
281
     0
282
     0
283
     1
284
     0
285
     0
286
     0
288
     0
289
     3
340
17
341
0
342
0
343
0
344
0
371
    -2
372
    -2
  0
ENDTAB
  0
TABLE
  2
BLOCK_RECORD
  5
1
100
AcDbSymbolTable
 70
     0
  0
BLOCK_RECORD
  5
A
100
AcDbSymbolTableRecord
100
AcDbBlockTableRecord
  2
*MODEL_SPACE
340
20
  0
BLOCK_RECORD
  5
B
100
AcDbSymbolTableRecord
100
AcDbBlockTableRecord
  2
*PAPER_SPACE
340
21
  0
ENDTAB
  0
ENDSEC
  0
SECTION
  2
BLOCKS
  0
BLOCK
  5
D
100
AcDbEntity
  8
0
390
0
100
AcDbBlockBegin
  2
*MODEL_SPACE
 70
     0
 10
0.0
 20
0.0
 30
0.0
  3
*MODEL_SPACE
  1

  0
ENDBLK
  5
E
100
AcDbEntity
  8
0
390
0
100
AcDbBlockEnd
  0
BLOCK
  5
F
100
AcDbEntity
 67
     1
  8
0
390
0
100
AcDbBlockBegin
  2
*PAPER_SPACE
 70
     0
 10
0.0
 20
0.0
 30
0.0
  3
*PAPER_SPACE
  1

  0
ENDBLK
  5
10
100
AcDbEntity
 67
     1
  8
0
390
0
100
AcDbBlockEnd
  0
ENDSEC
  0
SECTION
  2
ENTITIES
  0
ARC
  5
E3
100
AcDbEntity
  8
ARMATUR
390
0
  6
DURCHGEHEND
 62
     7
100
AcDbCircle
 10
92.131256
 20
130.634781
 30
0.0
 40
0.125
100
AcDbArc
 50
0.0
 51
90.0
  0
ARC
  5
E4
100
AcDbEntity
  8
ARMATUR
390
0
  6
DURCHGEHEND
 62
     7
100
AcDbCircle
 10
92.131256
 20
122.134773
 30
0.0
 40
0.125
100
AcDbArc
 50
270.0
 51
360.0
  0
LINE
  5
E5
100
AcDbEntity
  8
ARMATUR
390
0
  6
DURCHGEHEND
 62
     7
100
AcDbLine
 10
92.131256
 20
130.759781
 30
0.0
 11
91.581253
 21
130.759781
 31
0.0
  0
LINE
  5
E6
100
AcDbEntity
  8
ARMATUR
390
0
  6
DURCHGEHEND
 62
     7
100
AcDbLine
 10
91.581253
 20
122.009773
 30
0.0
 11
92.131256
 21
122.009773
 31
0.0
  0
ARC
  5
E7
100
AcDbEntity
  8
ARMATUR
390
0
  6
DURCHGEHEND
 62
     7
100
AcDbCircle
 10
92.506256
 20
130.487839
 30
0.0
 40
0.25
100
AcDbArc
 50
180.0
 51
264.085999
  0
ARC
  5
E8
100
AcDbEntity
  8
ARMATUR
390
0
  6
DURCHGEHEND
 62
     7
100
AcDbCircle
 10
92.506256
 20
122.281731
 30
0.0
 40
0.25
100
AcDbArc
 50
95.912003
 51
179.998001
  0
ARC
  5
E9
100
AcDbEntity
  8
ARMATUR
390
0
  6
DURCHGEHEND
 62
     7
100
AcDbCircle
 10
92.081253
 20
126.384781
 30
0.0
 40
3.875
100
AcDbArc
 50
80.570999
 51
84.085999
  0
ARC
  5
EA
100
AcDbEntity
  8
ARMATUR
390
0
  6
DURCHGEHEND
 62
     7
100
AcDbCircle
 10
92.081253
 20
126.384781
 30
0.0
 40
3.875
100
AcDbArc
 50
275.914001
 51
303.825012
  0
LINE
  5
EB
100
AcDbEntity
  8
ARMATUR
390
0
  6
DURCHGEHEND
 62
     7
100
AcDbLine
 10
97.660919
 20
122.124031
 30
0.0
 11
99.518829
 21
122.149971
 31
0.0
  0
LINE
  5
EC
100
AcDbEntity
  8
ARMATUR
390
0
  6
DURCHGEHEND
 62
     7
100
AcDbLine
 10
94.789246
 20
122.083931
 30
0.0
 11
96.253113
 21
122.104378
 31
0.0
  0
LINE
  5
ED
100
AcDbEntity
  8
ARMATUR
390
0
  6
DURCHGEHEND
 62
     7
100
AcDbLine
 10
95.712585
 20
130.763138
 30
0.0
 11
92.792114
 21
130.80394
 31
0.0
  0
ARC
  5
EE
100
AcDbEntity
  8
ARMATUR
390
0
  6
DURCHGEHEND
 62
     7
100
AcDbCircle
 10
99.516068
 20
122.349953
 30
0.0
 40
0.200012
100
AcDbArc
 50
270.802002
 51
360.0
  0
ARC
  5
EF
100
AcDbEntity
  8
ARMATUR
390
0
  6
DURCHGEHEND
 62
     7
100
AcDbCircle
 10
92.791077
 20
130.728928
 30
0.0
 40
0.074997
100
AcDbArc
 50
89.197998
 51
179.998001
  0
LINE
  5
F0
100
AcDbEntity
  8
ARMATUR
390
0
  6
DURCHGEHEND
 62
     7
100
AcDbLine
 10
99.71608
 20
122.35685
 30
0.0
 11
99.71608
 21
146.788345
 31
0.0
  0
ARC
  5
F1
100
AcDbEntity
  8
ARMATUR
390
0
  6
DURCHGEHEND
 62
     7
100
AcDbCircle
 10
95.71608
 20
131.013107
 30
0.0
 40
0.25
100
AcDbArc
 50
269.197998
 51
360.0
  0
ARC
  5
F2
100
AcDbEntity
  8
ARMATUR
390
0
  6
DURCHGEHEND
 62
     7
100
AcDbCircle
 10
96.166077
 20
146.851456
 30
0.0
 40
0.199997
100
AcDbArc
 50
88.997002
 51
179.996994
  0
LINE
  5
F3
100
AcDbEntity
  8
ARMATUR
390
0
  6
DURCHGEHEND
 62
     7
100
AcDbLine
 10
99.519684
 20
146.992966
 30
0.0
 11
96.169571
 21
147.051437
 31
0.0
  0
ARC
  5
F4
100
AcDbEntity
  8
ARMATUR
390
0
  6
DURCHGEHEND
 62
     7
100
AcDbCircle
 10
99.516068
 20
146.792984
 30
0.0
 40
0.200012
100
AcDbArc
 50
0.0
 51
89.333
  0
ARC
  5
F5
100
AcDbEntity
  8
ARMATUR
390
0
  6
DURCHGEHEND
 62
     7
100
AcDbCircle
 10
97.566071
 20
121.992241
 30
0.0
 40
0.150009
100
AcDbArc
 50
277.104004
 51
360.0
  0
ARC
  5
F6
100
AcDbEntity
  8
ARMATUR
390
0
  6
DURCHGEHEND
 62
     7
100
AcDbCircle
 10
96.366074
 20
121.992241
 30
0.0
 40
0.150009
100
AcDbArc
 50
180.0
 51
262.894012
  0
LINE
  5
F7
100
AcDbEntity
  8
ARMATUR
390
0
  6
DURCHGEHEND
 62
     7
100
AcDbLine
 10
97.703568
 20
121.992241
 30
0.0
 11
97.703568
 21
122.029976
 31
0.0
  0
LINE
  5
F8
100
AcDbEntity
  8
ARMATUR
390
0
  6
DURCHGEHEND
 62
     7
100
AcDbLine
 10
96.228577
 20
122.029976
 30
0.0
 11
96.228577
 21
121.992241
 31
0.0
  0
ARC
  5
F9
100
AcDbEntity
  8
ARMATUR
390
0
  6
DURCHGEHEND
 62
     7
100
AcDbCircle
 10
97.578568
 20
122.029976
 30
0.0
 40
0.125
100
AcDbArc
 50
0.0
 51
48.797001
  0
ARC
  5
FA
100
AcDbEntity
  8
ARMATUR
390
0
  6
DURCHGEHEND
 62
     7
100
AcDbCircle
 10
96.353577
 20
122.029976
 30
0.0
 40
0.125
100
AcDbArc
 50
143.483002
 51
180.003998
  0
ARC
  5
FB
100
AcDbEntity
  8
ARMATUR
390
0
  6
DURCHGEHEND
 62
     7
100
AcDbCircle
 10
96.96608
 20
126.804977
 30
0.0
 40
5.0
100
AcDbArc
 50
262.894012
 51
277.106995
  0
LINE
  5
FC
100
AcDbEntity
  8
ARMATUR
390
0
  6
DURCHGEHEND
 62
     7
100
AcDbLine
 10
88.706253
 20
132.257614
 30
0.0
 11
88.706253
 21
133.08461
 31
0.0
  0
LINE
  5
FD
100
AcDbEntity
  8
ARMATUR
390
0
  6
DURCHGEHEND
 62
     7
100
AcDbLine
 10
82.706253
 20
133.08461
 30
0.0
 11
82.706253
 21
132.257614
 31
0.0
  0
LINE
  5
FE
100
AcDbEntity
  8
ARMATUR
390
0
  6
DURCHGEHEND
 62
     7
100
AcDbLine
 10
82.956253
 20
131.255325
 30
0.0
 11
82.961288
 21
131.252426
 31
0.0
  0
LINE
  5
FF
100
AcDbEntity
  8
ARMATUR
390
0
  6
DURCHGEHEND
 62
     7
100
AcDbLine
 10
88.451233
 20
131.252426
 30
0.0
 11
88.456253
 21
131.255325
 31
0.0
  0
POLYLINE
  5
100
100
AcDbEntity
  8
ARMATUR
390
0
  6
DURCHGEHEND
 62
     7
100
AcDb3dPolyline
 66
     1
 10
0.0
 20
0.0
 30
0.0
 70
    12
 75
     5
  0
VERTEX
  5
101
100
AcDbEntity
  8
0
390
0
100
AcDbVertex
100
AcDb3dPolylineVertex
 10
85.499542
 20
131.205582
 30
0.0
 70
    48
  0
VERTEX
  5
102
100
AcDbEntity
  8
0
390
0
100
AcDbVertex
100
AcDb3dPolylineVertex
 10
85.499542
 20
131.205582
 30
0.0
 70
    40
  0
VERTEX
  5
103
100
AcDbEntity
  8
0
390
0
100
AcDbVertex
100
AcDb3dPolylineVertex
 10
85.559235
 20
131.205246
 30
0.0
 70
    40
  0
VERTEX
  5
104
100
AcDbEntity
  8
0
390
0
100
AcDbVertex
100
AcDb3dPolylineVertex
 10
85.499542
 20
131.205582
 30
0.0
 70
    48
  0
VERTEX
  5
105
100
AcDbEntity
  8
0
390
0
100
AcDbVertex
100
AcDb3dPolylineVertex
 10
85.559235
 20
131.205246
 30
0.0
 70
    48
  0
VERTEX
  5
106
100
AcDbEntity
  8
0
390
0
100
AcDbVertex
100
AcDb3dPolylineVertex
 10
85.559235
 20
131.205246
 30
0.0
 70
    48
  0
VERTEX
  5
107
100
AcDbEntity
  8
0
390
0
100
AcDbVertex
100
AcDb3dPolylineVertex
 10
85.706253
 20
131.205063
 30
0.0
 70
    40
  0
VERTEX
  5
108
100
AcDbEntity
  8
0
390
0
100
AcDbVertex
100
AcDb3dPolylineVertex
 10
85.559235
 20
131.205246
 30
0.0
 70
    48
  0
VERTEX
  5
109
100
AcDbEntity
  8
0
390
0
100
AcDbVertex
100
AcDb3dPolylineVertex
 10
85.706253
 20
131.205063
 30
0.0
 70
    48
  0
VERTEX
  5
10A
100
AcDbEntity
  8
0
390
0
100
AcDbVertex
100
AcDb3dPolylineVertex
 10
85.706253
 20
131.205063
 30
0.0
 70
    48
  0
SEQEND
  5
10B
100
AcDbEntity
  8
0
390
0
  0
LINE
  5
10C
100
AcDbEntity
  8
ARMATUR
390
0
  6
DURCHGEHEND
 62
     7
100
AcDbLine
 10
86.706253
 20
36.568069
 30
0.0
 11
86.706253
 21
57.159767
 31
0.0
  0
LINE
  5
10D
100
AcDbEntity
  8
ARMATUR
390
0
  6
DURCHGEHEND
 62
     7
100
AcDbLine
 10
86.706253
 20
57.909767
 30
0.0
 11
86.706253
 21
66.659767
 31
0.0
  0
LINE
  5
10E
100
AcDbEntity
  8
ARMATUR
390
0
  6
DURCHGEHEND
 62
     7
100
AcDbLine
 10
84.206253
 20
66.659767
 30
0.0
 11
84.206253
 21
57.909767
 31
0.0
  0
LINE
  5
10F
100
AcDbEntity
  8
ARMATUR
390
0
  6
DURCHGEHEND
 62
     7
100
AcDbLine
 10
84.206253
 20
57.159767
 30
0.0
 11
84.206253
 21
36.234116
 31
0.0
  0
LINE
  5
110
100
AcDbEntity
  8
ARMATUR
390
0
  6
DURCHGEHEND
 62
     7
100
AcDbLine
 10
82.081253
 20
66.659767
 30
0.0
 11
82.081253
 21
57.909767
 31
0.0
  0
LINE
  5
111
100
AcDbEntity
  8
ARMATUR
390
0
  6
DURCHGEHEND
 62
     7
100
AcDbLine
 10
82.081253
 20
55.784767
 30
0.0
 11
82.081253
 21
36.902027
 31
0.0
  0
LINE
  5
112
100
AcDbEntity
  8
ARMATUR
390
0
  6
DURCHGEHEND
 62
     7
100
AcDbLine
 10
87.081253
 20
66.659767
 30
0.0
 11
87.081253
 21
57.909767
 31
0.0
  0
LINE
  5
113
100
AcDbEntity
  8
ARMATUR
390
0
  6
DURCHGEHEND
 62
     7
100
AcDbLine
 10
89.081253
 20
57.909767
 30
0.0
 11
89.081253
 21
66.659767
 31
0.0
  0
ARC
  5
114
100
AcDbEntity
  8
ARMATUR
390
0
  6
DURCHGEHEND
 62
     7
100
AcDbCircle
 10
80.706253
 20
67.159767
 30
0.0
 40
0.5
100
AcDbArc
 50
213.367004
 51
270.0
  0
ARC
  5
115
100
AcDbEntity
  8
ARMATUR
390
0
  6
DURCHGEHEND
 62
     7
100
AcDbCircle
 10
90.706253
 20
67.159767
 30
0.0
 40
0.5
100
AcDbArc
 50
270.0
 51
326.632996
  0
LINE
  5
116
100
AcDbEntity
  8
ARMATUR
390
0
  6
DURCHGEHEND
 62
     7
100
AcDbLine
 10
80.706253
 20
66.659767
 30
0.0
 11
90.706253
 21
66.659767
 31
0.0
  0
LINE
  5
117
100
AcDbEntity
  8
ARMATUR
390
0
  6
DURCHGEHEND
 62
     7
100
AcDbLine
 10
91.699478
 20
57.534767
 30
0.0
 11
91.699478
 21
57.909767
 31
0.0
  0
LINE
  5
118
100
AcDbEntity
  8
ARMATUR
390
0
  6
DURCHGEHEND
 62
     7
100
AcDbLine
 10
79.699478
 20
57.909767
 30
0.0
 11
79.699478
 21
57.534767
 31
0.0
  0
ARC
  5
119
100
AcDbEntity
  8
ARMATUR
390
0
  6
DURCHGEHEND
 62
     7
100
AcDbCircle
 10
79.324478
 20
57.409767
 30
0.0
 40
0.125
100
AcDbArc
 50
90.0
 51
180.0
  0
ARC
  5
11A
100
AcDbEntity
  8
ARMATUR
390
0
  6
DURCHGEHEND
 62
     7
100
AcDbCircle
 10
92.074478
 20
57.409767
 30
0.0
 40
0.125
100
AcDbArc
 50
0.0
 51
90.0
  0
LINE
  5
11B
100
AcDbEntity
  8
ARMATUR
390
0
  6
DURCHGEHEND
 62
     7
100
AcDbLine
 10
92.199478
 20
55.909767
 30
0.0
 11
92.199478
 21
57.409767
 31
0.0
  0
LINE
  5
11C
100
AcDbEntity
  8
ARMATUR
390
0
  6
DURCHGEHEND
 62
     7
100
AcDbLine
 10
79.199478
 20
57.409767
 30
0.0
 11
79.199478
 21
55.909767
 31
0.0
  0
ARC
  5
11D
100
AcDbEntity
  8
ARMATUR
390
0
  6
DURCHGEHEND
 62
     7
100
AcDbCircle
 10
79.324478
 20
55.909767
 30
0.0
 40
0.125
100
AcDbArc
 50
180.0
 51
270.0
  0
ARC
  5
11E
100
AcDbEntity
  8
ARMATUR
390
0
  6
DURCHGEHEND
 62
     7
100
AcDbCircle
 10
92.074478
 20
55.909767
 30
0.0
 40
0.125
100
AcDbArc
 50
270.0
 51
360.0
  0
LINE
  5
11F
100
AcDbEntity
  8
ARMATUR
390
0
  6
DURCHGEHEND
 62
     7
100
AcDbLine
 10
82.767487
 20
55.909767
 30
0.0
 11
82.767487
 21
57.409767
 31
0.0
  0
ARC
  5
120
100
AcDbEntity
  8
ARMATUR
390
0
  6
DURCHGEHEND
 62
     7
100
AcDbCircle
 10
82.642487
 20
57.409767
 30
0.0
 40
0.125
100
AcDbArc
 50
0.0
 51
90.0
  0
LINE
  5
121
100
AcDbEntity
  8
ARMATUR
390
0
  6
DURCHGEHEND
 62
     7
100
AcDbLine
 10
87.807877
 20
57.409767
 30
0.0
 11
87.807877
 21
57.060905
 31
0.0
  0
ARC
  5
122
100
AcDbEntity
  8
ARMATUR
390
0
  6
DURCHGEHEND
 62
     7
100
AcDbCircle
 10
87.932877
 20
57.409767
 30
0.0
 40
0.125
100
AcDbArc
 50
90.0
 51
180.0
  0
LINE
  5
123
100
AcDbEntity
  8
ARMATUR
390
0
  6
DURCHGEHEND
 62
     7
100
AcDbLine
 10
89.706253
 20
55.700317
 30
0.0
 11
89.227325
 21
55.784767
 31
0.0
  0
LINE
  5
124
100
AcDbEntity
  8
ARMATUR
390
0
  6
DURCHGEHEND
 62
     7
100
AcDbLine
 10
86.935196
 20
55.784767
 30
0.0
 11
86.706253
 21
55.7444
 31
0.0
  0
LINE
  5
125
100
AcDbEntity
  8
ARMATUR
390
0
  6
DURCHGEHEND
 62
     7
100
AcDbLine
 10
89.706253
 20
55.33477
 30
0.0
 11
89.706253
 21
55.700317
 31
0.0
  0
LINE
  5
126
100
AcDbEntity
  8
ARMATUR
390
0
  6
DURCHGEHEND
 62
     7
100
AcDbLine
 10
86.706253
 20
54.901756
 30
0.0
 11
86.831253
 21
54.685249
 31
0.0
  0
LINE
  5
127
100
AcDbEntity
  8
ARMATUR
390
0
  6
DURCHGEHEND
 62
     7
100
AcDbLine
 10
89.331253
 20
54.685249
 30
0.0
 11
89.706253
 21
55.33477
 31
0.0
  0
LINE
  5
128
100
AcDbEntity
  8
ARMATUR
390
0
  6
DURCHGEHEND
 62
     7
100
AcDbLine
 10
89.331253
 20
48.83477
 30
0.0
 11
89.331253
 21
54.685249
 31
0.0
  0
LINE
  5
129
100
AcDbEntity
  8
ARMATUR
390
0
  6
DURCHGEHEND
 62
     7
100
AcDbLine
 10
86.831253
 20
54.685249
 30
0.0
 11
86.831253
 21
48.83477
 31
0.0
  0
LINE
  5
12A
100
AcDbEntity
  8
ARMATUR
390
0
  6
DURCHGEHEND
 62
     7
100
AcDbLine
 10
85.706253
 20
136.98732
 30
0.0
 11
81.796356
 21
136.919083
 31
0.0
  0
LINE
  5
12B
100
AcDbEntity
  8
ARMATUR
390
0
  6
DURCHGEHEND
 62
     7
100
AcDbLine
 10
85.706253
 20
136.98732
 30
0.0
 11
89.616165
 21
136.919083
 31
0.0
  0
LINE
  5
12C
100
AcDbEntity
  8
ARMATUR
390
0
  6
DURCHGEHEND
 62
     7
100
AcDbLine
 10
81.796356
 20
133.100479
 30
0.0
 11
85.706253
 21
133.032242
 31
0.0
  0
LINE
  5
12D
100
AcDbEntity
  8
ARMATUR
390
0
  6
DURCHGEHEND
 62
     7
100
AcDbLine
 10
89.616165
 20
133.100479
 30
0.0
 11
85.706253
 21
133.032242
 31
0.0
  0
LINE
  5
12E
100
AcDbEntity
  8
ARMATUR
390
0
  6
DURCHGEHEND
 62
     7
100
AcDbLine
 10
80.32254
 20
133.126205
 30
0.0
 11
81.796356
 21
133.100479
 31
0.0
  0
ARC
  5
12F
100
AcDbEntity
  8
ARMATUR
390
0
  6
DURCHGEHEND
 62
     7
100
AcDbCircle
 10
80.331253
 20
133.626114
 30
0.0
 40
0.5
100
AcDbArc
 50
180.0
 51
269.0
  0
LINE
  5
130
100
AcDbEntity
  8
ARMATUR
390
0
  6
DURCHGEHEND
 62
     7
100
AcDbLine
 10
79.831268
 20
136.393417
 30
0.0
 11
79.831268
 21
133.626114
 31
0.0
  0
LINE
  5
131
100
AcDbEntity
  8
ARMATUR
390
0
  6
DURCHGEHEND
 62
     7
100
AcDbLine
 10
91.581253
 20
136.393417
 30
0.0
 11
91.581253
 21
133.626114
 31
0.0
  0
ARC
  5
132
100
AcDbEntity
  8
ARMATUR
390
0
  6
DURCHGEHEND
 62
     7
100
AcDbCircle
 10
80.331253
 20
136.393417
 30
0.0
 40
0.5
100
AcDbArc
 50
91.0
 51
180.0
  0
LINE
  5
133
100
AcDbEntity
  8
ARMATUR
390
0
  6
DURCHGEHEND
 62
     7
100
AcDbLine
 10
81.796356
 20
136.919083
 30
0.0
 11
80.32254
 21
136.893356
 31
0.0
  0
LINE
  5
134
100
AcDbEntity
  8
ARMATUR
390
0
  6
DURCHGEHEND
 62
     7
100
AcDbLine
 10
91.089981
 20
133.126205
 30
0.0
 11
89.616165
 21
133.100479
 31
0.0
  0
ARC
  5
135
100
AcDbEntity
  8
ARMATUR
390
0
  6
DURCHGEHEND
 62
     7
100
AcDbCircle
 10
91.081253
 20
133.626114
 30
0.0
 40
0.5
100
AcDbArc
 50
271.0
 51
360.0
  0
LINE
  5
136
100
AcDbEntity
  8
ARMATUR
390
0
  6
DURCHGEHEND
 62
     7
100
AcDbLine
 10
89.616165
 20
136.919083
 30
0.0
 11
91.089981
 21
136.893356
 31
0.0
  0
ARC
  5
137
100
AcDbEntity
  8
ARMATUR
390
0
  6
DURCHGEHEND
 62
     7
100
AcDbCircle
 10
91.081253
 20
136.393417
 30
0.0
 40
0.5
100
AcDbArc
 50
0.0
 51
89.0
  0
LINE
  5
138
100
AcDbEntity
  8
ARMATUR
390
0
  6
DURCHGEHEND
 62
     7
100
AcDbLine
 10
88.768753
 20
133.085678
 30
0.0
 11
88.706253
 21
133.08461
 31
0.0
  0
LINE
  5
139
100
AcDbEntity
  8
ARMATUR
390
0
  6
DURCHGEHEND
 62
     7
100
AcDbLine
 10
82.706253
 20
133.08461
 30
0.0
 11
82.643753
 21
133.085678
 31
0.0
  0
LINE
  5
13A
100
AcDbEntity
  8
ARMATUR
390
0
  6
DURCHGEHEND
 62
     7
100
AcDbLine
 10
91.581253
 20
133.626114
 30
0.0
 11
91.581253
 21
130.634781
 31
0.0
  0
LINE
  5
13B
100
AcDbEntity
  8
ARMATUR
390
0
  6
DURCHGEHEND
 62
     7
100
AcDbLine
 10
79.831268
 20
133.626114
 30
0.0
 11
79.831268
 21
130.634781
 31
0.0
  0
LINE
  5
13C
100
AcDbEntity
  8
ARMATUR
390
0
  6
DURCHGEHEND
 62
     7
100
AcDbLine
 10
91.081253
 20
109.384773
 30
0.0
 11
80.331253
 21
109.384773
 31
0.0
  0
LINE
  5
13D
100
AcDbEntity
  8
ARMATUR
390
0
  6
DURCHGEHEND
 62
     7
100
AcDbLine
 10
91.581253
 20
109.385628
 30
0.0
 11
91.581253
 21
109.384773
 31
0.0
  0
LINE
  5
13E
100
AcDbEntity
  8
ARMATUR
390
0
  6
DURCHGEHEND
 62
     7
100
AcDbLine
 10
91.581253
 20
109.384773
 30
0.0
 11
91.081253
 21
109.384773
 31
0.0
  0
LINE
  5
13F
100
AcDbEntity
  8
ARMATUR
390
0
  6
DURCHGEHEND
 62
     7
100
AcDbLine
 10
80.331253
 20
109.384773
 30
0.0
 11
79.831268
 21
109.384773
 31
0.0
  0
LINE
  5
140
100
AcDbEntity
  8
ARMATUR
390
0
  6
DURCHGEHEND
 62
     7
100
AcDbLine
 10
79.831268
 20
109.384773
 30
0.0
 11
79.831268
 21
109.385628
 31
0.0
  0
LINE
  5
141
100
AcDbEntity
  8
ARMATUR
390
0
  6
DURCHGEHEND
 62
     7
100
AcDbLine
 10
79.831268
 20
130.634781
 30
0.0
 11
79.831268
 21
109.385628
 31
0.0
  0
POLYLINE
  5
142
100
AcDbEntity
  8
ARMATUR
390
0
  6
DURCHGEHEND
 62
     7
100
AcDb3dPolyline
 66
     1
 10
0.0
 20
0.0
 30
0.0
 70
    12
 75
     5
  0
VERTEX
  5
143
100
AcDbEntity
  8
0
390
0
100
AcDbVertex
100
AcDb3dPolylineVertex
 10
91.581253
 20
126.201035
 30
0.0
 70
    48
  0
VERTEX
  5
144
100
AcDbEntity
  8
0
390
0
100
AcDbVertex
100
AcDb3dPolylineVertex
 10
91.581253
 20
126.201035
 30
0.0
 70
    40
  0
VERTEX
  5
145
100
AcDbEntity
  8
0
390
0
100
AcDbVertex
100
AcDb3dPolylineVertex
 10
91.581253
 20
126.384781
 30
0.0
 70
    40
  0
VERTEX
  5
146
100
AcDbEntity
  8
0
390
0
100
AcDbVertex
100
AcDb3dPolylineVertex
 10
91.581253
 20
126.201035
 30
0.0
 70
    48
  0
VERTEX
  5
147
100
AcDbEntity
  8
0
390
0
100
AcDbVertex
100
AcDb3dPolylineVertex
 10
91.581253
 20
126.384781
 30
0.0
 70
    48
  0
VERTEX
  5
148
100
AcDbEntity
  8
0
390
0
100
AcDbVertex
100
AcDb3dPolylineVertex
 10
91.581253
 20
126.384781
 30
0.0
 70
    48
  0
VERTEX
  5
149
100
AcDbEntity
  8
0
390
0
100
AcDbVertex
100
AcDb3dPolylineVertex
 10
91.581253
 20
126.568497
 30
0.0
 70
    40
  0
VERTEX
  5
14A
100
AcDbEntity
  8
0
390
0
100
AcDbVertex
100
AcDb3dPolylineVertex
 10
91.581253
 20
126.384781
 30
0.0
 70
    48
  0
VERTEX
  5
14B
100
AcDbEntity
  8
0
390
0
100
AcDbVertex
100
AcDb3dPolylineVertex
 10
91.581253
 20
126.568497
 30
0.0
 70
    48
  0
VERTEX
  5
14C
100
AcDbEntity
  8
0
390
0
100
AcDbVertex
100
AcDb3dPolylineVertex
 10
91.581253
 20
126.568497
 30
0.0
 70
    48
  0
SEQEND
  5
14D
100
AcDbEntity
  8
0
390
0
  0
LINE
  5
14E
100
AcDbEntity
  8
ARMATUR
390
0
  6
DURCHGEHEND
 62
     7
100
AcDbLine
 10
91.581253
 20
126.201035
 30
0.0
 11
91.581253
 21
109.385628
 31
0.0
  0
LINE
  5
14F
100
AcDbEntity
  8
ARMATUR
390
0
  6
DURCHGEHEND
 62
     7
100
AcDbLine
 10
91.581253
 20
130.634781
 30
0.0
 11
91.581253
 21
126.568497
 31
0.0
  0
LINE
  5
150
100
AcDbEntity
  8
ARMATUR
390
0
  6
DURCHGEHEND
 62
     7
100
AcDbLine
 10
91.581253
 20
121.997276
 30
0.0
 11
91.581253
 21
122.009773
 31
0.0
  0
LINE
  5
151
100
AcDbEntity
  8
ARMATUR
390
0
  6
DURCHGEHEND
 62
     7
100
AcDbLine
 10
91.581253
 20
130.759781
 30
0.0
 11
91.581253
 21
130.772293
 31
0.0
  0
LINE
  5
152
100
AcDbEntity
  8
ARMATUR
390
0
  6
DURCHGEHEND
 62
     7
100
AcDbLine
 10
92.256256
 20
130.634781
 30
0.0
 11
92.256256
 21
122.134773
 31
0.0
  0
ARC
  5
153
100
AcDbEntity
  8
ARMATUR
390
0
  6
DURCHGEHEND
 62
     7
100
AcDbCircle
 10
92.081253
 20
126.384781
 30
0.0
 40
1.903961
100
AcDbArc
 50
297.359009
 51
313.191986
  0
LINE
  5
154
100
AcDbEntity
  8
ARMATUR
390
0
  6
DURCHGEHEND
 62
     7
100
AcDbLine
 10
92.956253
 20
124.693802
 30
0.0
 11
92.956253
 21
126.0186
 31
0.0
  0
ARC
  5
155
100
AcDbEntity
  8
ARMATUR
390
0
  6
DURCHGEHEND
 62
     7
100
AcDbCircle
 10
97.024307
 20
118.059883
 30
0.0
 40
4.122559
100
AcDbArc
 50
80.384399
 51
101.235603
  0
LINE
  5
156
100
AcDbEntity
  8
ARMATUR
390
0
  6
DURCHGEHEND
 62
     7
100
AcDbLine
 10
94.722473
 20
122.127251
 30
0.0
 11
92.71608
 21
126.429977
 31
0.0
  0
LINE
  5
157
100
AcDbEntity
  8
ARMATUR
390
0
  6
DURCHGEHEND
 62
     7
100
AcDbLine
 10
92.71608
 20
126.429977
 30
0.0
 11
92.71608
 21
126.429977
 31
0.0
  0
LINE
  5
158
100
AcDbEntity
  8
ARMATUR
390
0
  6
DURCHGEHEND
 62
     7
100
AcDbLine
 10
92.71608
 20
126.429977
 30
0.0
 11
92.71608
 21
130.728928
 31
0.0
  0
POLYLINE
  5
159
100
AcDbEntity
  8
ARMATUR
390
0
  6
DURCHGEHEND
 62
     7
100
AcDb3dPolyline
 66
     1
 10
0.0
 20
0.0
 30
0.0
 70
    12
 75
     5
  0
VERTEX
  5
15A
100
AcDbEntity
  8
0
390
0
100
AcDbVertex
100
AcDb3dPolylineVertex
 10
99.715744
 20
132.16301
 30
0.0
 70
    48
  0
VERTEX
  5
15B
100
AcDbEntity
  8
0
390
0
100
AcDbVertex
100
AcDb3dPolylineVertex
 10
99.715744
 20
132.16301
 30
0.0
 70
    40
  0
VERTEX
  5
15C
100
AcDbEntity
  8
0
390
0
100
AcDbVertex
100
AcDb3dPolylineVertex
 10
99.715485
 20
131.434952
 30
0.0
 70
    40
  0
VERTEX
  5
15D
100
AcDbEntity
  8
0
390
0
100
AcDbVertex
100
AcDb3dPolylineVertex
 10
99.715744
 20
132.16301
 30
0.0
 70
    48
  0
VERTEX
  5
15E
100
AcDbEntity
  8
0
390
0
100
AcDbVertex
100
AcDb3dPolylineVertex
 10
99.715485
 20
131.434952
 30
0.0
 70
    48
  0
VERTEX
  5
15F
100
AcDbEntity
  8
0
390
0
100
AcDbVertex
100
AcDb3dPolylineVertex
 10
99.715485
 20
131.434952
 30
0.0
 70
    48
  0
VERTEX
  5
160
100
AcDbEntity
  8
0
390
0
100
AcDbVertex
100
AcDb3dPolylineVertex
 10
99.714279
 20
130.788986
 30
0.0
 70
    40
  0
VERTEX
  5
161
100
AcDbEntity
  8
0
390
0
100
AcDbVertex
100
AcDb3dPolylineVertex
 10
99.715485
 20
131.434952
 30
0.0
 70
    48
  0
VERTEX
  5
162
100
AcDbEntity
  8
0
390
0
100
AcDbVertex
100
AcDb3dPolylineVertex
 10
99.714279
 20
130.788986
 30
0.0
 70
    48
  0
VERTEX
  5
163
100
AcDbEntity
  8
0
390
0
100
AcDbVertex
100
AcDb3dPolylineVertex
 10
99.714279
 20
130.788986
 30
0.0
 70
    48
  0
VERTEX
  5
164
100
AcDbEntity
  8
0
390
0
100
AcDbVertex
100
AcDb3dPolylineVertex
 10
99.711182
 20
130.297958
 30
0.0
 70
    40
  0
VERTEX
  5
165
100
AcDbEntity
  8
0
390
0
100
AcDbVertex
100
AcDb3dPolylineVertex
 10
99.714279
 20
130.788986
 30
0.0
 70
    48
  0
VERTEX
  5
166
100
AcDbEntity
  8
0
390
0
100
AcDbVertex
100
AcDb3dPolylineVertex
 10
99.711182
 20
130.297958
 30
0.0
 70
    48
  0
VERTEX
  5
167
100
AcDbEntity
  8
0
390
0
100
AcDbVertex
100
AcDb3dPolylineVertex
 10
99.711182
 20
130.297958
 30
0.0
 70
    48
  0
VERTEX
  5
168
100
AcDbEntity
  8
0
390
0
100
AcDbVertex
100
AcDb3dPolylineVertex
 10
99.709122
 20
130.154861
 30
0.0
 70
    40
  0
VERTEX
  5
169
100
AcDbEntity
  8
0
390
0
100
AcDbVertex
100
AcDb3dPolylineVertex
 10
99.711182
 20
130.297958
 30
0.0
 70
    48
  0
VERTEX
  5
16A
100
AcDbEntity
  8
0
390
0
100
AcDbVertex
100
AcDb3dPolylineVertex
 10
99.709122
 20
130.154861
 30
0.0
 70
    48
  0
VERTEX
  5
16B
100
AcDbEntity
  8
0
390
0
100
AcDbVertex
100
AcDb3dPolylineVertex
 10
99.709122
 20
130.154861
 30
0.0
 70
    48
  0
SEQEND
  5
16C
100
AcDbEntity
  8
0
390
0
  0
LINE
  5
16D
100
AcDbEntity
  8
ARMATUR
390
0
  6
DURCHGEHEND
 62
     7
100
AcDbLine
 10
99.715744
 20
146.429977
 30
0.0
 11
99.715744
 21
132.16301
 31
0.0
  0
LINE
  5
16E
100
AcDbEntity
  8
ARMATUR
390
0
  6
DURCHGEHEND
 62
     7
100
AcDbLine
 10
92.71608
 20
130.207413
 30
0.0
 11
92.71608
 21
130.534439
 31
0.0
  0
LINE
  5
16F
100
AcDbEntity
  8
ARMATUR
390
0
  6
DURCHGEHEND
 62
     7
100
AcDbLine
 10
95.96608
 20
130.941177
 30
0.0
 11
95.96608
 21
132.187943
 31
0.0
  0
LINE
  5
170
100
AcDbEntity
  8
ARMATUR
390
0
  6
DURCHGEHEND
 62
     7
100
AcDbLine
 10
95.96608
 20
146.429977
 30
0.0
 11
95.96608
 21
146.851456
 31
0.0
  0
LINE
  5
171
100
AcDbEntity
  8
ARMATUR
390
0
  6
DURCHGEHEND
 62
     7
100
AcDbLine
 10
95.96608
 20
132.187943
 30
0.0
 11
95.96608
 21
146.429977
 31
0.0
  0
LINE
  5
172
100
AcDbEntity
  8
ARMATUR
390
0
  6
DURCHGEHEND
 62
     7
100
AcDbLine
 10
97.71608
 20
121.992241
 30
0.0
 11
96.21608
 21
121.992241
 31
0.0
  0
LINE
  5
173
100
AcDbEntity
  8
ARMATUR
390
0
  6
DURCHGEHEND
 62
     7
100
AcDbLine
 10
88.456253
 20
131.258224
 30
0.0
 11
88.456253
 21
131.444321
 31
0.0
  0
POLYLINE
  5
174
100
AcDbEntity
  8
ARMATUR
390
0
  6
DURCHGEHEND
 62
     7
100
AcDb3dPolyline
 66
     1
 10
0.0
 20
0.0
 30
0.0
 70
    12
 75
     5
  0
VERTEX
  5
175
100
AcDbEntity
  8
0
390
0
100
AcDbVertex
100
AcDb3dPolylineVertex
 10
88.456253
 20
131.258224
 30
0.0
 70
    48
  0
VERTEX
  5
176
100
AcDbEntity
  8
0
390
0
100
AcDbVertex
100
AcDb3dPolylineVertex
 10
88.456253
 20
131.258224
 30
0.0
 70
    40
  0
VERTEX
  5
177
100
AcDbEntity
  8
0
390
0
100
AcDbVertex
100
AcDb3dPolylineVertex
 10
88.409439
 20
131.275864
 30
0.0
 70
    40
  0
VERTEX
  5
178
100
AcDbEntity
  8
0
390
0
100
AcDbVertex
100
AcDb3dPolylineVertex
 10
88.456253
 20
131.258224
 30
0.0
 70
    48
  0
VERTEX
  5
179
100
AcDbEntity
  8
0
390
0
100
AcDbVertex
100
AcDb3dPolylineVertex
 10
88.409439
 20
131.275864
 30
0.0
 70
    48
  0
VERTEX
  5
17A
100
AcDbEntity
  8
0
390
0
100
AcDbVertex
100
AcDb3dPolylineVertex
 10
88.409439
 20
131.275864
 30
0.0
 70
    48
  0
VERTEX
  5
17B
100
AcDbEntity
  8
0
390
0
100
AcDbVertex
100
AcDb3dPolylineVertex
 10
88.270554
 20
131.292892
 30
0.0
 70
    40
  0
VERTEX
  5
17C
100
AcDbEntity
  8
0
390
0
100
AcDbVertex
100
AcDb3dPolylineVertex
 10
88.409439
 20
131.275864
 30
0.0
 70
    48
  0
VERTEX
  5
17D
100
AcDbEntity
  8
0
390
0
100
AcDbVertex
100
AcDb3dPolylineVertex
 10
88.270554
 20
131.292892
 30
0.0
 70
    48
  0
VERTEX
  5
17E
100
AcDbEntity
  8
0
390
0
100
AcDbVertex
100
AcDb3dPolylineVertex
 10
88.270554
 20
131.292892
 30
0.0
 70
    48
  0
VERTEX
  5
17F
100
AcDbEntity
  8
0
390
0
100
AcDbVertex
100
AcDb3dPolylineVertex
 10
88.044357
 20
131.308731
 30
0.0
 70
    40
  0
VERTEX
  5
180
100
AcDbEntity
  8
0
390
0
100
AcDbVertex
100
AcDb3dPolylineVertex
 10
88.270554
 20
131.292892
 30
0.0
 70
    48
  0
VERTEX
  5
181
100
AcDbEntity
  8
0
390
0
100
AcDbVertex
100
AcDb3dPolylineVertex
 10
88.044357
 20
131.308731
 30
0.0
 70
    48
  0
VERTEX
  5
182
100
AcDbEntity
  8
0
390
0
100
AcDbVertex
100
AcDb3dPolylineVertex
 10
88.044357
 20
131.308731
 30
0.0
 70
    48
  0
VERTEX
  5
183
100
AcDbEntity
  8
0
390
0
100
AcDbVertex
100
AcDb3dPolylineVertex
 10
87.738525
 20
131.322861
 30
0.0
 70
    40
  0
VERTEX
  5
184
100
AcDbEntity
  8
0
390
0
100
AcDbVertex
100
AcDb3dPolylineVertex
 10
88.044357
 20
131.308731
 30
0.0
 70
    48
  0
VERTEX
  5
185
100
AcDbEntity
  8
0
390
0
100
AcDbVertex
100
AcDb3dPolylineVertex
 10
87.738525
 20
131.322861
 30
0.0
 70
    48
  0
VERTEX
  5
186
100
AcDbEntity
  8
0
390
0
100
AcDbVertex
100
AcDb3dPolylineVertex
 10
87.738525
 20
131.322861
 30
0.0
 70
    48
  0
VERTEX
  5
187
100
AcDbEntity
  8
0
390
0
100
AcDbVertex
100
AcDb3dPolylineVertex
 10
87.36351
 20
131.334793
 30
0.0
 70
    40
  0
VERTEX
  5
188
100
AcDbEntity
  8
0
390
0
100
AcDbVertex
100
AcDb3dPolylineVertex
 10
87.738525
 20
131.322861
 30
0.0
 70
    48
  0
VERTEX
  5
189
100
AcDbEntity
  8
0
390
0
100
AcDbVertex
100
AcDb3dPolylineVertex
 10
87.36351
 20
131.334793
 30
0.0
 70
    48
  0
VERTEX
  5
18A
100
AcDbEntity
  8
0
390
0
100
AcDbVertex
100
AcDb3dPolylineVertex
 10
87.36351
 20
131.334793
 30
0.0
 70
    48
  0
VERTEX
  5
18B
100
AcDbEntity
  8
0
390
0
100
AcDbVertex
100
AcDb3dPolylineVertex
 10
86.932037
 20
131.344131
 30
0.0
 70
    40
  0
VERTEX
  5
18C
100
AcDbEntity
  8
0
390
0
100
AcDbVertex
100
AcDb3dPolylineVertex
 10
87.36351
 20
131.334793
 30
0.0
 70
    48
  0
VERTEX
  5
18D
100
AcDbEntity
  8
0
390
0
100
AcDbVertex
100
AcDb3dPolylineVertex
 10
86.932037
 20
131.344131
 30
0.0
 70
    48
  0
VERTEX
  5
18E
100
AcDbEntity
  8
0
390
0
100
AcDbVertex
100
AcDb3dPolylineVertex
 10
86.932037
 20
131.344131
 30
0.0
 70
    48
  0
VERTEX
  5
18F
100
AcDbEntity
  8
0
390
0
100
AcDbVertex
100
AcDb3dPolylineVertex
 10
86.458832
 20
131.35054
 30
0.0
 70
    40
  0
VERTEX
  5
190
100
AcDbEntity
  8
0
390
0
100
AcDbVertex
100
AcDb3dPolylineVertex
 10
86.932037
 20
131.344131
 30
0.0
 70
    48
  0
VERTEX
  5
191
100
AcDbEntity
  8
0
390
0
100
AcDbVertex
100
AcDb3dPolylineVertex
 10
86.458832
 20
131.35054
 30
0.0
 70
    48
  0
VERTEX
  5
192
100
AcDbEntity
  8
0
390
0
100
AcDbVertex
100
AcDb3dPolylineVertex
 10
86.458832
 20
131.35054
 30
0.0
 70
    48
  0
VERTEX
  5
193
100
AcDbEntity
  8
0
390
0
100
AcDbVertex
100
AcDb3dPolylineVertex
 10
85.959991
 20
131.353775
 30
0.0
 70
    40
  0
VERTEX
  5
194
100
AcDbEntity
  8
0
390
0
100
AcDbVertex
100
AcDb3dPolylineVertex
 10
86.458832
 20
131.35054
 30
0.0
 70
    48
  0
VERTEX
  5
195
100
AcDbEntity
  8
0
390
0
100
AcDbVertex
100
AcDb3dPolylineVertex
 10
85.959991
 20
131.353775
 30
0.0
 70
    48
  0
VERTEX
  5
196
100
AcDbEntity
  8
0
390
0
100
AcDbVertex
100
AcDb3dPolylineVertex
 10
85.959991
 20
131.353775
 30
0.0
 70
    48
  0
VERTEX
  5
197
100
AcDbEntity
  8
0
390
0
100
AcDbVertex
100
AcDb3dPolylineVertex
 10
85.452515
 20
131.353775
 30
0.0
 70
    40
  0
VERTEX
  5
198
100
AcDbEntity
  8
0
390
0
100
AcDbVertex
100
AcDb3dPolylineVertex
 10
85.959991
 20
131.353775
 30
0.0
 70
    48
  0
VERTEX
  5
199
100
AcDbEntity
  8
0
390
0
100
AcDbVertex
100
AcDb3dPolylineVertex
 10
85.452515
 20
131.353775
 30
0.0
 70
    48
  0
VERTEX
  5
19A
100
AcDbEntity
  8
0
390
0
100
AcDbVertex
100
AcDb3dPolylineVertex
 10
85.452515
 20
131.353775
 30
0.0
 70
    48
  0
VERTEX
  5
19B
100
AcDbEntity
  8
0
390
0
100
AcDbVertex
100
AcDb3dPolylineVertex
 10
84.95369
 20
131.35054
 30
0.0
 70
    40
  0
VERTEX
  5
19C
100
AcDbEntity
  8
0
390
0
100
AcDbVertex
100
AcDb3dPolylineVertex
 10
85.452515
 20
131.353775
 30
0.0
 70
    48
  0
VERTEX
  5
19D
100
AcDbEntity
  8
0
390
0
100
AcDbVertex
100
AcDb3dPolylineVertex
 10
84.95369
 20
131.35054
 30
0.0
 70
    48
  0
VERTEX
  5
19E
100
AcDbEntity
  8
0
390
0
100
AcDbVertex
100
AcDb3dPolylineVertex
 10
84.95369
 20
131.35054
 30
0.0
 70
    48
  0
VERTEX
  5
19F
100
AcDbEntity
  8
0
390
0
100
AcDbVertex
100
AcDb3dPolylineVertex
 10
84.480484
 20
131.344131
 30
0.0
 70
    40
  0
VERTEX
  5
1A0
100
AcDbEntity
  8
0
390
0
100
AcDbVertex
100
AcDb3dPolylineVertex
 10
84.95369
 20
131.35054
 30
0.0
 70
    48
  0
VERTEX
  5
1A1
100
AcDbEntity
  8
0
390
0
100
AcDbVertex
100
AcDb3dPolylineVertex
 10
84.480484
 20
131.344131
 30
0.0
 70
    48
  0
VERTEX
  5
1A2
100
AcDbEntity
  8
0
390
0
100
AcDbVertex
100
AcDb3dPolylineVertex
 10
84.480484
 20
131.344131
 30
0.0
 70
    48
  0
VERTEX
  5
1A3
100
AcDbEntity
  8
0
390
0
100
AcDbVertex
100
AcDb3dPolylineVertex
 10
84.049011
 20
131.334793
 30
0.0
 70
    40
  0
VERTEX
  5
1A4
100
AcDbEntity
  8
0
390
0
100
AcDbVertex
100
AcDb3dPolylineVertex
 10
84.480484
 20
131.344131
 30
0.0
 70
    48
  0
VERTEX
  5
1A5
100
AcDbEntity
  8
0
390
0
100
AcDbVertex
100
AcDb3dPolylineVertex
 10
84.049011
 20
131.334793
 30
0.0
 70
    48
  0
VERTEX
  5
1A6
100
AcDbEntity
  8
0
390
0
100
AcDbVertex
100
AcDb3dPolylineVertex
 10
84.049011
 20
131.334793
 30
0.0
 70
    48
  0
VERTEX
  5
1A7
100
AcDbEntity
  8
0
390
0
100
AcDbVertex
100
AcDb3dPolylineVertex
 10
83.673981
 20
131.322861
 30
0.0
 70
    40
  0
VERTEX
  5
1A8
100
AcDbEntity
  8
0
390
0
100
AcDbVertex
100
AcDb3dPolylineVertex
 10
84.049011
 20
131.334793
 30
0.0
 70
    48
  0
VERTEX
  5
1A9
100
AcDbEntity
  8
0
390
0
100
AcDbVertex
100
AcDb3dPolylineVertex
 10
83.673981
 20
131.322861
 30
0.0
 70
    48
  0
VERTEX
  5
1AA
100
AcDbEntity
  8
0
390
0
100
AcDbVertex
100
AcDb3dPolylineVertex
 10
83.673981
 20
131.322861
 30
0.0
 70
    48
  0
VERTEX
  5
1AB
100
AcDbEntity
  8
0
390
0
100
AcDbVertex
100
AcDb3dPolylineVertex
 10
83.368164
 20
131.308731
 30
0.0
 70
    40
  0
VERTEX
  5
1AC
100
AcDbEntity
  8
0
390
0
100
AcDbVertex
100
AcDb3dPolylineVertex
 10
83.673981
 20
131.322861
 30
0.0
 70
    48
  0
VERTEX
  5
1AD
100
AcDbEntity
  8
0
390
0
100
AcDbVertex
100
AcDb3dPolylineVertex
 10
83.368164
 20
131.308731
 30
0.0
 70
    48
  0
VERTEX
  5
1AE
100
AcDbEntity
  8
0
390
0
100
AcDbVertex
100
AcDb3dPolylineVertex
 10
83.368164
 20
131.308731
 30
0.0
 70
    48
  0
VERTEX
  5
1AF
100
AcDbEntity
  8
0
390
0
100
AcDbVertex
100
AcDb3dPolylineVertex
 10
83.141968
 20
131.292892
 30
0.0
 70
    40
  0
VERTEX
  5
1B0
100
AcDbEntity
  8
0
390
0
100
AcDbVertex
100
AcDb3dPolylineVertex
 10
83.368164
 20
131.308731
 30
0.0
 70
    48
  0
VERTEX
  5
1B1
100
AcDbEntity
  8
0
390
0
100
AcDbVertex
100
AcDb3dPolylineVertex
 10
83.141968
 20
131.292892
 30
0.0
 70
    48
  0
VERTEX
  5
1B2
100
AcDbEntity
  8
0
390
0
100
AcDbVertex
100
AcDb3dPolylineVertex
 10
83.141968
 20
131.292892
 30
0.0
 70
    48
  0
VERTEX
  5
1B3
100
AcDbEntity
  8
0
390
0
100
AcDbVertex
100
AcDb3dPolylineVertex
 10
83.003082
 20
131.275864
 30
0.0
 70
    40
  0
VERTEX
  5
1B4
100
AcDbEntity
  8
0
390
0
100
AcDbVertex
100
AcDb3dPolylineVertex
 10
83.141968
 20
131.292892
 30
0.0
 70
    48
  0
VERTEX
  5
1B5
100
AcDbEntity
  8
0
390
0
100
AcDbVertex
100
AcDb3dPolylineVertex
 10
83.003082
 20
131.275864
 30
0.0
 70
    48
  0
VERTEX
  5
1B6
100
AcDbEntity
  8
0
390
0
100
AcDbVertex
100
AcDb3dPolylineVertex
 10
83.003082
 20
131.275864
 30
0.0
 70
    48
  0
VERTEX
  5
1B7
100
AcDbEntity
  8
0
390
0
100
AcDbVertex
100
AcDb3dPolylineVertex
 10
82.956253
 20
131.258224
 30
0.0
 70
    40
  0
VERTEX
  5
1B8
100
AcDbEntity
  8
0
390
0
100
AcDbVertex
100
AcDb3dPolylineVertex
 10
83.003082
 20
131.275864
 30
0.0
 70
    48
  0
VERTEX
  5
1B9
100
AcDbEntity
  8
0
390
0
100
AcDbVertex
100
AcDb3dPolylineVertex
 10
82.956253
 20
131.258224
 30
0.0
 70
    48
  0
VERTEX
  5
1BA
100
AcDbEntity
  8
0
390
0
100
AcDbVertex
100
AcDb3dPolylineVertex
 10
82.956253
 20
131.258224
 30
0.0
 70
    48
  0
SEQEND
  5
1BB
100
AcDbEntity
  8
0
390
0
  0
LINE
  5
1BC
100
AcDbEntity
  8
ARMATUR
390
0
  6
DURCHGEHEND
 62
     7
100
AcDbLine
 10
82.956253
 20
131.258224
 30
0.0
 11
82.956253
 21
131.444321
 31
0.0
  0
LINE
  5
1BD
100
AcDbEntity
  8
ARMATUR
390
0
  6
DURCHGEHEND
 62
     7
100
AcDbLine
 10
88.456253
 20
131.444321
 30
0.0
 11
88.456253
 21
132.299454
 31
0.0
  0
LINE
  5
1BE
100
AcDbEntity
  8
ARMATUR
390
0
  6
DURCHGEHEND
 62
     7
100
AcDbLine
 10
82.956253
 20
131.444321
 30
0.0
 11
82.956253
 21
132.299454
 31
0.0
  0
POLYLINE
  5
1BF
100
AcDbEntity
  8
ARMATUR
390
0
  6
DURCHGEHEND
 62
     7
100
AcDb3dPolyline
 66
     1
 10
0.0
 20
0.0
 30
0.0
 70
    12
 75
     5
  0
VERTEX
  5
1C0
100
AcDbEntity
  8
0
390
0
100
AcDbVertex
100
AcDb3dPolylineVertex
 10
82.956253
 20
132.215775
 30
0.0
 70
    48
  0
VERTEX
  5
1C1
100
AcDbEntity
  8
0
390
0
100
AcDbVertex
100
AcDb3dPolylineVertex
 10
82.956253
 20
132.215775
 30
0.0
 70
    40
  0
VERTEX
  5
1C2
100
AcDbEntity
  8
0
390
0
100
AcDbVertex
100
AcDb3dPolylineVertex
 10
82.847748
 20
132.225845
 30
0.0
 70
    40
  0
VERTEX
  5
1C3
100
AcDbEntity
  8
0
390
0
100
AcDbVertex
100
AcDb3dPolylineVertex
 10
82.956253
 20
132.215775
 30
0.0
 70
    48
  0
VERTEX
  5
1C4
100
AcDbEntity
  8
0
390
0
100
AcDbVertex
100
AcDb3dPolylineVertex
 10
82.847748
 20
132.225845
 30
0.0
 70
    48
  0
VERTEX
  5
1C5
100
AcDbEntity
  8
0
390
0
100
AcDbVertex
100
AcDb3dPolylineVertex
 10
82.847748
 20
132.225845
 30
0.0
 70
    48
  0
VERTEX
  5
1C6
100
AcDbEntity
  8
0
390
0
100
AcDbVertex
100
AcDb3dPolylineVertex
 10
82.769424
 20
132.236221
 30
0.0
 70
    40
  0
VERTEX
  5
1C7
100
AcDbEntity
  8
0
390
0
100
AcDbVertex
100
AcDb3dPolylineVertex
 10
82.847748
 20
132.225845
 30
0.0
 70
    48
  0
VERTEX
  5
1C8
100
AcDbEntity
  8
0
390
0
100
AcDbVertex
100
AcDb3dPolylineVertex
 10
82.769424
 20
132.236221
 30
0.0
 70
    48
  0
VERTEX
  5
1C9
100
AcDbEntity
  8
0
390
0
100
AcDbVertex
100
AcDb3dPolylineVertex
 10
82.769424
 20
132.236221
 30
0.0
 70
    48
  0
VERTEX
  5
1CA
100
AcDbEntity
  8
0
390
0
100
AcDbVertex
100
AcDb3dPolylineVertex
 10
82.722092
 20
132.246872
 30
0.0
 70
    40
  0
VERTEX
  5
1CB
100
AcDbEntity
  8
0
390
0
100
AcDbVertex
100
AcDb3dPolylineVertex
 10
82.769424
 20
132.236221
 30
0.0
 70
    48
  0
VERTEX
  5
1CC
100
AcDbEntity
  8
0
390
0
100
AcDbVertex
100
AcDb3dPolylineVertex
 10
82.722092
 20
132.246872
 30
0.0
 70
    48
  0
VERTEX
  5
1CD
100
AcDbEntity
  8
0
390
0
100
AcDbVertex
100
AcDb3dPolylineVertex
 10
82.722092
 20
132.246872
 30
0.0
 70
    48
  0
VERTEX
  5
1CE
100
AcDbEntity
  8
0
390
0
100
AcDbVertex
100
AcDb3dPolylineVertex
 10
82.706253
 20
132.257614
 30
0.0
 70
    40
  0
VERTEX
  5
1CF
100
AcDbEntity
  8
0
390
0
100
AcDbVertex
100
AcDb3dPolylineVertex
 10
82.722092
 20
132.246872
 30
0.0
 70
    48
  0
VERTEX
  5
1D0
100
AcDbEntity
  8
0
390
0
100
AcDbVertex
100
AcDb3dPolylineVertex
 10
82.706253
 20
132.257614
 30
0.0
 70
    48
  0
VERTEX
  5
1D1
100
AcDbEntity
  8
0
390
0
100
AcDbVertex
100
AcDb3dPolylineVertex
 10
82.706253
 20
132.257614
 30
0.0
 70
    48
  0
VERTEX
  5
1D2
100
AcDbEntity
  8
0
390
0
100
AcDbVertex
100
AcDb3dPolylineVertex
 10
82.722092
 20
132.268356
 30
0.0
 70
    40
  0
VERTEX
  5
1D3
100
AcDbEntity
  8
0
390
0
100
AcDbVertex
100
AcDb3dPolylineVertex
 10
82.706253
 20
132.257614
 30
0.0
 70
    48
  0
VERTEX
  5
1D4
100
AcDbEntity
  8
0
390
0
100
AcDbVertex
100
AcDb3dPolylineVertex
 10
82.722092
 20
132.268356
 30
0.0
 70
    48
  0
VERTEX
  5
1D5
100
AcDbEntity
  8
0
390
0
100
AcDbVertex
100
AcDb3dPolylineVertex
 10
82.722092
 20
132.268356
 30
0.0
 70
    48
  0
VERTEX
  5
1D6
100
AcDbEntity
  8
0
390
0
100
AcDbVertex
100
AcDb3dPolylineVertex
 10
82.769424
 20
132.278976
 30
0.0
 70
    40
  0
VERTEX
  5
1D7
100
AcDbEntity
  8
0
390
0
100
AcDbVertex
100
AcDb3dPolylineVertex
 10
82.722092
 20
132.268356
 30
0.0
 70
    48
  0
VERTEX
  5
1D8
100
AcDbEntity
  8
0
390
0
100
AcDbVertex
100
AcDb3dPolylineVertex
 10
82.769424
 20
132.278976
 30
0.0
 70
    48
  0
VERTEX
  5
1D9
100
AcDbEntity
  8
0
390
0
100
AcDbVertex
100
AcDb3dPolylineVertex
 10
82.769424
 20
132.278976
 30
0.0
 70
    48
  0
VERTEX
  5
1DA
100
AcDbEntity
  8
0
390
0
100
AcDbVertex
100
AcDb3dPolylineVertex
 10
82.847748
 20
132.289383
 30
0.0
 70
    40
  0
VERTEX
  5
1DB
100
AcDbEntity
  8
0
390
0
100
AcDbVertex
100
AcDb3dPolylineVertex
 10
82.769424
 20
132.278976
 30
0.0
 70
    48
  0
VERTEX
  5
1DC
100
AcDbEntity
  8
0
390
0
100
AcDbVertex
100
AcDb3dPolylineVertex
 10
82.847748
 20
132.289383
 30
0.0
 70
    48
  0
VERTEX
  5
1DD
100
AcDbEntity
  8
0
390
0
100
AcDbVertex
100
AcDb3dPolylineVertex
 10
82.847748
 20
132.289383
 30
0.0
 70
    48
  0
VERTEX
  5
1DE
100
AcDbEntity
  8
0
390
0
100
AcDbVertex
100
AcDb3dPolylineVertex
 10
82.956253
 20
132.299454
 30
0.0
 70
    40
  0
VERTEX
  5
1DF
100
AcDbEntity
  8
0
390
0
100
AcDbVertex
100
AcDb3dPolylineVertex
 10
82.847748
 20
132.289383
 30
0.0
 70
    48
  0
VERTEX
  5
1E0
100
AcDbEntity
  8
0
390
0
100
AcDbVertex
100
AcDb3dPolylineVertex
 10
82.956253
 20
132.299454
 30
0.0
 70
    48
  0
VERTEX
  5
1E1
100
AcDbEntity
  8
0
390
0
100
AcDbVertex
100
AcDb3dPolylineVertex
 10
82.956253
 20
132.299454
 30
0.0
 70
    48
  0
SEQEND
  5
1E2
100
AcDbEntity
  8
0
390
0
  0
POLYLINE
  5
1E3
100
AcDbEntity
  8
ARMATUR
390
0
  6
DURCHGEHEND
 62
     7
100
AcDb3dPolyline
 66
     1
 10
0.0
 20
0.0
 30
0.0
 70
    12
 75
     5
  0
VERTEX
  5
1E4
100
AcDbEntity
  8
0
390
0
100
AcDbVertex
100
AcDb3dPolylineVertex
 10
88.456253
 20
132.299454
 30
0.0
 70
    48
  0
VERTEX
  5
1E5
100
AcDbEntity
  8
0
390
0
100
AcDbVertex
100
AcDb3dPolylineVertex
 10
88.456253
 20
132.299454
 30
0.0
 70
    40
  0
VERTEX
  5
1E6
100
AcDbEntity
  8
0
390
0
100
AcDbVertex
100
AcDb3dPolylineVertex
 10
88.564758
 20
132.289383
 30
0.0
 70
    40
  0
VERTEX
  5
1E7
100
AcDbEntity
  8
0
390
0
100
AcDbVertex
100
AcDb3dPolylineVertex
 10
88.456253
 20
132.299454
 30
0.0
 70
    48
  0
VERTEX
  5
1E8
100
AcDbEntity
  8
0
390
0
100
AcDbVertex
100
AcDb3dPolylineVertex
 10
88.564758
 20
132.289383
 30
0.0
 70
    48
  0
VERTEX
  5
1E9
100
AcDbEntity
  8
0
390
0
100
AcDbVertex
100
AcDb3dPolylineVertex
 10
88.564758
 20
132.289383
 30
0.0
 70
    48
  0
VERTEX
  5
1EA
100
AcDbEntity
  8
0
390
0
100
AcDbVertex
100
AcDb3dPolylineVertex
 10
88.643097
 20
132.278976
 30
0.0
 70
    40
  0
VERTEX
  5
1EB
100
AcDbEntity
  8
0
390
0
100
AcDbVertex
100
AcDb3dPolylineVertex
 10
88.564758
 20
132.289383
 30
0.0
 70
    48
  0
VERTEX
  5
1EC
100
AcDbEntity
  8
0
390
0
100
AcDbVertex
100
AcDb3dPolylineVertex
 10
88.643097
 20
132.278976
 30
0.0
 70
    48
  0
VERTEX
  5
1ED
100
AcDbEntity
  8
0
390
0
100
AcDbVertex
100
AcDb3dPolylineVertex
 10
88.643097
 20
132.278976
 30
0.0
 70
    48
  0
VERTEX
  5
1EE
100
AcDbEntity
  8
0
390
0
100
AcDbVertex
100
AcDb3dPolylineVertex
 10
88.69043
 20
132.268356
 30
0.0
 70
    40
  0
VERTEX
  5
1EF
100
AcDbEntity
  8
0
390
0
100
AcDbVertex
100
AcDb3dPolylineVertex
 10
88.643097
 20
132.278976
 30
0.0
 70
    48
  0
VERTEX
  5
1F0
100
AcDbEntity
  8
0
390
0
100
AcDbVertex
100
AcDb3dPolylineVertex
 10
88.69043
 20
132.268356
 30
0.0
 70
    48
  0
VERTEX
  5
1F1
100
AcDbEntity
  8
0
390
0
100
AcDbVertex
100
AcDb3dPolylineVertex
 10
88.69043
 20
132.268356
 30
0.0
 70
    48
  0
VERTEX
  5
1F2
100
AcDbEntity
  8
0
390
0
100
AcDbVertex
100
AcDb3dPolylineVertex
 10
88.706253
 20
132.257614
 30
0.0
 70
    40
  0
VERTEX
  5
1F3
100
AcDbEntity
  8
0
390
0
100
AcDbVertex
100
AcDb3dPolylineVertex
 10
88.69043
 20
132.268356
 30
0.0
 70
    48
  0
VERTEX
  5
1F4
100
AcDbEntity
  8
0
390
0
100
AcDbVertex
100
AcDb3dPolylineVertex
 10
88.706253
 20
132.257614
 30
0.0
 70
    48
  0
VERTEX
  5
1F5
100
AcDbEntity
  8
0
390
0
100
AcDbVertex
100
AcDb3dPolylineVertex
 10
88.706253
 20
132.257614
 30
0.0
 70
    48
  0
VERTEX
  5
1F6
100
AcDbEntity
  8
0
390
0
100
AcDbVertex
100
AcDb3dPolylineVertex
 10
88.69043
 20
132.246872
 30
0.0
 70
    40
  0
VERTEX
  5
1F7
100
AcDbEntity
  8
0
390
0
100
AcDbVertex
100
AcDb3dPolylineVertex
 10
88.706253
 20
132.257614
 30
0.0
 70
    48
  0
VERTEX
  5
1F8
100
AcDbEntity
  8
0
390
0
100
AcDbVertex
100
AcDb3dPolylineVertex
 10
88.69043
 20
132.246872
 30
0.0
 70
    48
  0
VERTEX
  5
1F9
100
AcDbEntity
  8
0
390
0
100
AcDbVertex
100
AcDb3dPolylineVertex
 10
88.69043
 20
132.246872
 30
0.0
 70
    48
  0
VERTEX
  5
1FA
100
AcDbEntity
  8
0
390
0
100
AcDbVertex
100
AcDb3dPolylineVertex
 10
88.643097
 20
132.236221
 30
0.0
 70
    40
  0
VERTEX
  5
1FB
100
AcDbEntity
  8
0
390
0
100
AcDbVertex
100
AcDb3dPolylineVertex
 10
88.69043
 20
132.246872
 30
0.0
 70
    48
  0
VERTEX
  5
1FC
100
AcDbEntity
  8
0
390
0
100
AcDbVertex
100
AcDb3dPolylineVertex
 10
88.643097
 20
132.236221
 30
0.0
 70
    48
  0
VERTEX
  5
1FD
100
AcDbEntity
  8
0
390
0
100
AcDbVertex
100
AcDb3dPolylineVertex
 10
88.643097
 20
132.236221
 30
0.0
 70
    48
  0
VERTEX
  5
1FE
100
AcDbEntity
  8
0
390
0
100
AcDbVertex
100
AcDb3dPolylineVertex
 10
88.564758
 20
132.225845
 30
0.0
 70
    40
  0
VERTEX
  5
1FF
100
AcDbEntity
  8
0
390
0
100
AcDbVertex
100
AcDb3dPolylineVertex
 10
88.643097
 20
132.236221
 30
0.0
 70
    48
  0
VERTEX
  5
200
100
AcDbEntity
  8
0
390
0
100
AcDbVertex
100
AcDb3dPolylineVertex
 10
88.564758
 20
132.225845
 30
0.0
 70
    48
  0
VERTEX
  5
201
100
AcDbEntity
  8
0
390
0
100
AcDbVertex
100
AcDb3dPolylineVertex
 10
88.564758
 20
132.225845
 30
0.0
 70
    48
  0
VERTEX
  5
202
100
AcDbEntity
  8
0
390
0
100
AcDbVertex
100
AcDb3dPolylineVertex
 10
88.456253
 20
132.215775
 30
0.0
 70
    40
  0
VERTEX
  5
203
100
AcDbEntity
  8
0
390
0
100
AcDbVertex
100
AcDb3dPolylineVertex
 10
88.564758
 20
132.225845
 30
0.0
 70
    48
  0
VERTEX
  5
204
100
AcDbEntity
  8
0
390
0
100
AcDbVertex
100
AcDb3dPolylineVertex
 10
88.456253
 20
132.215775
 30
0.0
 70
    48
  0
VERTEX
  5
205
100
AcDbEntity
  8
0
390
0
100
AcDbVertex
100
AcDb3dPolylineVertex
 10
88.456253
 20
132.215775
 30
0.0
 70
    48
  0
SEQEND
  5
206
100
AcDbEntity
  8
0
390
0
  0
POLYLINE
  5
207
100
AcDbEntity
  8
ARMATUR
390
0
  6
DURCHGEHEND
 62
     7
100
AcDb3dPolyline
 66
     1
 10
0.0
 20
0.0
 30
0.0
 70
    12
 75
     5
  0
VERTEX
  5
208
100
AcDbEntity
  8
0
390
0
100
AcDbVertex
100
AcDb3dPolylineVertex
 10
85.706253
 20
131.170975
 30
0.0
 70
    48
  0
VERTEX
  5
209
100
AcDbEntity
  8
0
390
0
100
AcDbVertex
100
AcDb3dPolylineVertex
 10
85.706253
 20
131.170975
 30
0.0
 70
    40
  0
VERTEX
  5
20A
100
AcDbEntity
  8
0
390
0
100
AcDbVertex
100
AcDb3dPolylineVertex
 10
86.179382
 20
131.172531
 30
0.0
 70
    40
  0
VERTEX
  5
20B
100
AcDbEntity
  8
0
390
0
100
AcDbVertex
100
AcDb3dPolylineVertex
 10
85.706253
 20
131.170975
 30
0.0
 70
    48
  0
VERTEX
  5
20C
100
AcDbEntity
  8
0
390
0
100
AcDbVertex
100
AcDb3dPolylineVertex
 10
86.179382
 20
131.172531
 30
0.0
 70
    48
  0
VERTEX
  5
20D
100
AcDbEntity
  8
0
390
0
100
AcDbVertex
100
AcDb3dPolylineVertex
 10
86.179382
 20
131.172531
 30
0.0
 70
    48
  0
VERTEX
  5
20E
100
AcDbEntity
  8
0
390
0
100
AcDbVertex
100
AcDb3dPolylineVertex
 10
86.635406
 20
131.177231
 30
0.0
 70
    40
  0
VERTEX
  5
20F
100
AcDbEntity
  8
0
390
0
100
AcDbVertex
100
AcDb3dPolylineVertex
 10
86.179382
 20
131.172531
 30
0.0
 70
    48
  0
VERTEX
  5
210
100
AcDbEntity
  8
0
390
0
100
AcDbVertex
100
AcDb3dPolylineVertex
 10
86.635406
 20
131.177231
 30
0.0
 70
    48
  0
VERTEX
  5
211
100
AcDbEntity
  8
0
390
0
100
AcDbVertex
100
AcDb3dPolylineVertex
 10
86.635406
 20
131.177231
 30
0.0
 70
    48
  0
VERTEX
  5
212
100
AcDbEntity
  8
0
390
0
100
AcDbVertex
100
AcDb3dPolylineVertex
 10
87.057861
 20
131.18483
 30
0.0
 70
    40
  0
VERTEX
  5
213
100
AcDbEntity
  8
0
390
0
100
AcDbVertex
100
AcDb3dPolylineVertex
 10
86.635406
 20
131.177231
 30
0.0
 70
    48
  0
VERTEX
  5
214
100
AcDbEntity
  8
0
390
0
100
AcDbVertex
100
AcDb3dPolylineVertex
 10
87.057861
 20
131.18483
 30
0.0
 70
    48
  0
VERTEX
  5
215
100
AcDbEntity
  8
0
390
0
100
AcDbVertex
100
AcDb3dPolylineVertex
 10
87.057861
 20
131.18483
 30
0.0
 70
    48
  0
VERTEX
  5
216
100
AcDbEntity
  8
0
390
0
100
AcDbVertex
100
AcDb3dPolylineVertex
 10
87.431458
 20
131.195084
 30
0.0
 70
    40
  0
VERTEX
  5
217
100
AcDbEntity
  8
0
390
0
100
AcDbVertex
100
AcDb3dPolylineVertex
 10
87.057861
 20
131.18483
 30
0.0
 70
    48
  0
VERTEX
  5
218
100
AcDbEntity
  8
0
390
0
100
AcDbVertex
100
AcDb3dPolylineVertex
 10
87.431458
 20
131.195084
 30
0.0
 70
    48
  0
VERTEX
  5
219
100
AcDbEntity
  8
0
390
0
100
AcDbVertex
100
AcDb3dPolylineVertex
 10
87.431458
 20
131.195084
 30
0.0
 70
    48
  0
VERTEX
  5
21A
100
AcDbEntity
  8
0
390
0
100
AcDbVertex
100
AcDb3dPolylineVertex
 10
87.742706
 20
131.207596
 30
0.0
 70
    40
  0
VERTEX
  5
21B
100
AcDbEntity
  8
0
390
0
100
AcDbVertex
100
AcDb3dPolylineVertex
 10
87.431458
 20
131.195084
 30
0.0
 70
    48
  0
VERTEX
  5
21C
100
AcDbEntity
  8
0
390
0
100
AcDbVertex
100
AcDb3dPolylineVertex
 10
87.742706
 20
131.207596
 30
0.0
 70
    48
  0
VERTEX
  5
21D
100
AcDbEntity
  8
0
390
0
100
AcDbVertex
100
AcDb3dPolylineVertex
 10
87.742706
 20
131.207596
 30
0.0
 70
    48
  0
VERTEX
  5
21E
100
AcDbEntity
  8
0
390
0
100
AcDbVertex
100
AcDb3dPolylineVertex
 10
87.980347
 20
131.22197
 30
0.0
 70
    40
  0
VERTEX
  5
21F
100
AcDbEntity
  8
0
390
0
100
AcDbVertex
100
AcDb3dPolylineVertex
 10
87.742706
 20
131.207596
 30
0.0
 70
    48
  0
VERTEX
  5
220
100
AcDbEntity
  8
0
390
0
100
AcDbVertex
100
AcDb3dPolylineVertex
 10
87.980347
 20
131.22197
 30
0.0
 70
    48
  0
VERTEX
  5
221
100
AcDbEntity
  8
0
390
0
100
AcDbVertex
100
AcDb3dPolylineVertex
 10
87.980347
 20
131.22197
 30
0.0
 70
    48
  0
VERTEX
  5
222
100
AcDbEntity
  8
0
390
0
100
AcDbVertex
100
AcDb3dPolylineVertex
 10
88.135788
 20
131.237656
 30
0.0
 70
    40
  0
VERTEX
  5
223
100
AcDbEntity
  8
0
390
0
100
AcDbVertex
100
AcDb3dPolylineVertex
 10
87.980347
 20
131.22197
 30
0.0
 70
    48
  0
VERTEX
  5
224
100
AcDbEntity
  8
0
390
0
100
AcDbVertex
100
AcDb3dPolylineVertex
 10
88.135788
 20
131.237656
 30
0.0
 70
    48
  0
VERTEX
  5
225
100
AcDbEntity
  8
0
390
0
100
AcDbVertex
100
AcDb3dPolylineVertex
 10
88.135788
 20
131.237656
 30
0.0
 70
    48
  0
VERTEX
  5
226
100
AcDbEntity
  8
0
390
0
100
AcDbVertex
100
AcDb3dPolylineVertex
 10
88.20343
 20
131.254074
 30
0.0
 70
    40
  0
VERTEX
  5
227
100
AcDbEntity
  8
0
390
0
100
AcDbVertex
100
AcDb3dPolylineVertex
 10
88.135788
 20
131.237656
 30
0.0
 70
    48
  0
VERTEX
  5
228
100
AcDbEntity
  8
0
390
0
100
AcDbVertex
100
AcDb3dPolylineVertex
 10
88.20343
 20
131.254074
 30
0.0
 70
    48
  0
VERTEX
  5
229
100
AcDbEntity
  8
0
390
0
100
AcDbVertex
100
AcDb3dPolylineVertex
 10
88.20343
 20
131.254074
 30
0.0
 70
    48
  0
VERTEX
  5
22A
100
AcDbEntity
  8
0
390
0
100
AcDbVertex
100
AcDb3dPolylineVertex
 10
88.180817
 20
131.270645
 30
0.0
 70
    40
  0
VERTEX
  5
22B
100
AcDbEntity
  8
0
390
0
100
AcDbVertex
100
AcDb3dPolylineVertex
 10
88.20343
 20
131.254074
 30
0.0
 70
    48
  0
VERTEX
  5
22C
100
AcDbEntity
  8
0
390
0
100
AcDbVertex
100
AcDb3dPolylineVertex
 10
88.180817
 20
131.270645
 30
0.0
 70
    48
  0
VERTEX
  5
22D
100
AcDbEntity
  8
0
390
0
100
AcDbVertex
100
AcDb3dPolylineVertex
 10
88.180817
 20
131.270645
 30
0.0
 70
    48
  0
VERTEX
  5
22E
100
AcDbEntity
  8
0
390
0
100
AcDbVertex
100
AcDb3dPolylineVertex
 10
88.068756
 20
131.286758
 30
0.0
 70
    40
  0
VERTEX
  5
22F
100
AcDbEntity
  8
0
390
0
100
AcDbVertex
100
AcDb3dPolylineVertex
 10
88.180817
 20
131.270645
 30
0.0
 70
    48
  0
VERTEX
  5
230
100
AcDbEntity
  8
0
390
0
100
AcDbVertex
100
AcDb3dPolylineVertex
 10
88.068756
 20
131.286758
 30
0.0
 70
    48
  0
VERTEX
  5
231
100
AcDbEntity
  8
0
390
0
100
AcDbVertex
100
AcDb3dPolylineVertex
 10
88.068756
 20
131.286758
 30
0.0
 70
    48
  0
VERTEX
  5
232
100
AcDbEntity
  8
0
390
0
100
AcDbVertex
100
AcDb3dPolylineVertex
 10
87.871323
 20
131.301834
 30
0.0
 70
    40
  0
VERTEX
  5
233
100
AcDbEntity
  8
0
390
0
100
AcDbVertex
100
AcDb3dPolylineVertex
 10
88.068756
 20
131.286758
 30
0.0
 70
    48
  0
VERTEX
  5
234
100
AcDbEntity
  8
0
390
0
100
AcDbVertex
100
AcDb3dPolylineVertex
 10
87.871323
 20
131.301834
 30
0.0
 70
    48
  0
VERTEX
  5
235
100
AcDbEntity
  8
0
390
0
100
AcDbVertex
100
AcDb3dPolylineVertex
 10
87.871323
 20
131.301834
 30
0.0
 70
    48
  0
VERTEX
  5
236
100
AcDbEntity
  8
0
390
0
100
AcDbVertex
100
AcDb3dPolylineVertex
 10
87.595627
 20
131.315353
 30
0.0
 70
    40
  0
VERTEX
  5
237
100
AcDbEntity
  8
0
390
0
100
AcDbVertex
100
AcDb3dPolylineVertex
 10
87.871323
 20
131.301834
 30
0.0
 70
    48
  0
VERTEX
  5
238
100
AcDbEntity
  8
0
390
0
100
AcDbVertex
100
AcDb3dPolylineVertex
 10
87.595627
 20
131.315353
 30
0.0
 70
    48
  0
VERTEX
  5
239
100
AcDbEntity
  8
0
390
0
100
AcDbVertex
100
AcDb3dPolylineVertex
 10
87.595627
 20
131.315353
 30
0.0
 70
    48
  0
VERTEX
  5
23A
100
AcDbEntity
  8
0
390
0
100
AcDbVertex
100
AcDb3dPolylineVertex
 10
87.251648
 20
131.326797
 30
0.0
 70
    40
  0
VERTEX
  5
23B
100
AcDbEntity
  8
0
390
0
100
AcDbVertex
100
AcDb3dPolylineVertex
 10
87.595627
 20
131.315353
 30
0.0
 70
    48
  0
VERTEX
  5
23C
100
AcDbEntity
  8
0
390
0
100
AcDbVertex
100
AcDb3dPolylineVertex
 10
87.251648
 20
131.326797
 30
0.0
 70
    48
  0
VERTEX
  5
23D
100
AcDbEntity
  8
0
390
0
100
AcDbVertex
100
AcDb3dPolylineVertex
 10
87.251648
 20
131.326797
 30
0.0
 70
    48
  0
VERTEX
  5
23E
100
AcDbEntity
  8
0
390
0
100
AcDbVertex
100
AcDb3dPolylineVertex
 10
86.851822
 20
131.33577
 30
0.0
 70
    40
  0
VERTEX
  5
23F
100
AcDbEntity
  8
0
390
0
100
AcDbVertex
100
AcDb3dPolylineVertex
 10
87.251648
 20
131.326797
 30
0.0
 70
    48
  0
VERTEX
  5
240
100
AcDbEntity
  8
0
390
0
100
AcDbVertex
100
AcDb3dPolylineVertex
 10
86.851822
 20
131.33577
 30
0.0
 70
    48
  0
VERTEX
  5
241
100
AcDbEntity
  8
0
390
0
100
AcDbVertex
100
AcDb3dPolylineVertex
 10
86.851822
 20
131.33577
 30
0.0
 70
    48
  0
VERTEX
  5
242
100
AcDbEntity
  8
0
390
0
100
AcDbVertex
100
AcDb3dPolylineVertex
 10
86.410583
 20
131.341934
 30
0.0
 70
    40
  0
VERTEX
  5
243
100
AcDbEntity
  8
0
390
0
100
AcDbVertex
100
AcDb3dPolylineVertex
 10
86.851822
 20
131.33577
 30
0.0
 70
    48
  0
VERTEX
  5
244
100
AcDbEntity
  8
0
390
0
100
AcDbVertex
100
AcDb3dPolylineVertex
 10
86.410583
 20
131.341934
 30
0.0
 70
    48
  0
VERTEX
  5
245
100
AcDbEntity
  8
0
390
0
100
AcDbVertex
100
AcDb3dPolylineVertex
 10
86.410583
 20
131.341934
 30
0.0
 70
    48
  0
VERTEX
  5
246
100
AcDbEntity
  8
0
390
0
100
AcDbVertex
100
AcDb3dPolylineVertex
 10
85.943893
 20
131.345078
 30
0.0
 70
    40
  0
VERTEX
  5
247
100
AcDbEntity
  8
0
390
0
100
AcDbVertex
100
AcDb3dPolylineVertex
 10
86.410583
 20
131.341934
 30
0.0
 70
    48
  0
VERTEX
  5
248
100
AcDbEntity
  8
0
390
0
100
AcDbVertex
100
AcDb3dPolylineVertex
 10
85.943893
 20
131.345078
 30
0.0
 70
    48
  0
VERTEX
  5
249
100
AcDbEntity
  8
0
390
0
100
AcDbVertex
100
AcDb3dPolylineVertex
 10
85.943893
 20
131.345078
 30
0.0
 70
    48
  0
VERTEX
  5
24A
100
AcDbEntity
  8
0
390
0
100
AcDbVertex
100
AcDb3dPolylineVertex
 10
85.468613
 20
131.345078
 30
0.0
 70
    40
  0
VERTEX
  5
24B
100
AcDbEntity
  8
0
390
0
100
AcDbVertex
100
AcDb3dPolylineVertex
 10
85.943893
 20
131.345078
 30
0.0
 70
    48
  0
VERTEX
  5
24C
100
AcDbEntity
  8
0
390
0
100
AcDbVertex
100
AcDb3dPolylineVertex
 10
85.468613
 20
131.345078
 30
0.0
 70
    48
  0
VERTEX
  5
24D
100
AcDbEntity
  8
0
390
0
100
AcDbVertex
100
AcDb3dPolylineVertex
 10
85.468613
 20
131.345078
 30
0.0
 70
    48
  0
VERTEX
  5
24E
100
AcDbEntity
  8
0
390
0
100
AcDbVertex
100
AcDb3dPolylineVertex
 10
85.001923
 20
131.341934
 30
0.0
 70
    40
  0
VERTEX
  5
24F
100
AcDbEntity
  8
0
390
0
100
AcDbVertex
100
AcDb3dPolylineVertex
 10
85.468613
 20
131.345078
 30
0.0
 70
    48
  0
VERTEX
  5
250
100
AcDbEntity
  8
0
390
0
100
AcDbVertex
100
AcDb3dPolylineVertex
 10
85.001923
 20
131.341934
 30
0.0
 70
    48
  0
VERTEX
  5
251
100
AcDbEntity
  8
0
390
0
100
AcDbVertex
100
AcDb3dPolylineVertex
 10
85.001923
 20
131.341934
 30
0.0
 70
    48
  0
VERTEX
  5
252
100
AcDbEntity
  8
0
390
0
100
AcDbVertex
100
AcDb3dPolylineVertex
 10
84.560699
 20
131.33577
 30
0.0
 70
    40
  0
VERTEX
  5
253
100
AcDbEntity
  8
0
390
0
100
AcDbVertex
100
AcDb3dPolylineVertex
 10
85.001923
 20
131.341934
 30
0.0
 70
    48
  0
VERTEX
  5
254
100
AcDbEntity
  8
0
390
0
100
AcDbVertex
100
AcDb3dPolylineVertex
 10
84.560699
 20
131.33577
 30
0.0
 70
    48
  0
VERTEX
  5
255
100
AcDbEntity
  8
0
390
0
100
AcDbVertex
100
AcDb3dPolylineVertex
 10
84.560699
 20
131.33577
 30
0.0
 70
    48
  0
VERTEX
  5
256
100
AcDbEntity
  8
0
390
0
100
AcDbVertex
100
AcDb3dPolylineVertex
 10
84.160858
 20
131.326797
 30
0.0
 70
    40
  0
VERTEX
  5
257
100
AcDbEntity
  8
0
390
0
100
AcDbVertex
100
AcDb3dPolylineVertex
 10
84.560699
 20
131.33577
 30
0.0
 70
    48
  0
VERTEX
  5
258
100
AcDbEntity
  8
0
390
0
100
AcDbVertex
100
AcDb3dPolylineVertex
 10
84.160858
 20
131.326797
 30
0.0
 70
    48
  0
VERTEX
  5
259
100
AcDbEntity
  8
0
390
0
100
AcDbVertex
100
AcDb3dPolylineVertex
 10
84.160858
 20
131.326797
 30
0.0
 70
    48
  0
VERTEX
  5
25A
100
AcDbEntity
  8
0
390
0
100
AcDbVertex
100
AcDb3dPolylineVertex
 10
83.816879
 20
131.315353
 30
0.0
 70
    40
  0
VERTEX
  5
25B
100
AcDbEntity
  8
0
390
0
100
AcDbVertex
100
AcDb3dPolylineVertex
 10
84.160858
 20
131.326797
 30
0.0
 70
    48
  0
VERTEX
  5
25C
100
AcDbEntity
  8
0
390
0
100
AcDbVertex
100
AcDb3dPolylineVertex
 10
83.816879
 20
131.315353
 30
0.0
 70
    48
  0
VERTEX
  5
25D
100
AcDbEntity
  8
0
390
0
100
AcDbVertex
100
AcDb3dPolylineVertex
 10
83.816879
 20
131.315353
 30
0.0
 70
    48
  0
VERTEX
  5
25E
100
AcDbEntity
  8
0
390
0
100
AcDbVertex
100
AcDb3dPolylineVertex
 10
83.541199
 20
131.301834
 30
0.0
 70
    40
  0
VERTEX
  5
25F
100
AcDbEntity
  8
0
390
0
100
AcDbVertex
100
AcDb3dPolylineVertex
 10
83.816879
 20
131.315353
 30
0.0
 70
    48
  0
VERTEX
  5
260
100
AcDbEntity
  8
0
390
0
100
AcDbVertex
100
AcDb3dPolylineVertex
 10
83.541199
 20
131.301834
 30
0.0
 70
    48
  0
VERTEX
  5
261
100
AcDbEntity
  8
0
390
0
100
AcDbVertex
100
AcDb3dPolylineVertex
 10
83.541199
 20
131.301834
 30
0.0
 70
    48
  0
VERTEX
  5
262
100
AcDbEntity
  8
0
390
0
100
AcDbVertex
100
AcDb3dPolylineVertex
 10
83.34375
 20
131.286758
 30
0.0
 70
    40
  0
VERTEX
  5
263
100
AcDbEntity
  8
0
390
0
100
AcDbVertex
100
AcDb3dPolylineVertex
 10
83.541199
 20
131.301834
 30
0.0
 70
    48
  0
VERTEX
  5
264
100
AcDbEntity
  8
0
390
0
100
AcDbVertex
100
AcDb3dPolylineVertex
 10
83.34375
 20
131.286758
 30
0.0
 70
    48
  0
VERTEX
  5
265
100
AcDbEntity
  8
0
390
0
100
AcDbVertex
100
AcDb3dPolylineVertex
 10
83.34375
 20
131.286758
 30
0.0
 70
    48
  0
VERTEX
  5
266
100
AcDbEntity
  8
0
390
0
100
AcDbVertex
100
AcDb3dPolylineVertex
 10
83.231705
 20
131.270645
 30
0.0
 70
    40
  0
VERTEX
  5
267
100
AcDbEntity
  8
0
390
0
100
AcDbVertex
100
AcDb3dPolylineVertex
 10
83.34375
 20
131.286758
 30
0.0
 70
    48
  0
VERTEX
  5
268
100
AcDbEntity
  8
0
390
0
100
AcDbVertex
100
AcDb3dPolylineVertex
 10
83.231705
 20
131.270645
 30
0.0
 70
    48
  0
VERTEX
  5
269
100
AcDbEntity
  8
0
390
0
100
AcDbVertex
100
AcDb3dPolylineVertex
 10
83.231705
 20
131.270645
 30
0.0
 70
    48
  0
VERTEX
  5
26A
100
AcDbEntity
  8
0
390
0
100
AcDbVertex
100
AcDb3dPolylineVertex
 10
83.209091
 20
131.254074
 30
0.0
 70
    40
  0
VERTEX
  5
26B
100
AcDbEntity
  8
0
390
0
100
AcDbVertex
100
AcDb3dPolylineVertex
 10
83.231705
 20
131.270645
 30
0.0
 70
    48
  0
VERTEX
  5
26C
100
AcDbEntity
  8
0
390
0
100
AcDbVertex
100
AcDb3dPolylineVertex
 10
83.209091
 20
131.254074
 30
0.0
 70
    48
  0
VERTEX
  5
26D
100
AcDbEntity
  8
0
390
0
100
AcDbVertex
100
AcDb3dPolylineVertex
 10
83.209091
 20
131.254074
 30
0.0
 70
    48
  0
VERTEX
  5
26E
100
AcDbEntity
  8
0
390
0
100
AcDbVertex
100
AcDb3dPolylineVertex
 10
83.276733
 20
131.237656
 30
0.0
 70
    40
  0
VERTEX
  5
26F
100
AcDbEntity
  8
0
390
0
100
AcDbVertex
100
AcDb3dPolylineVertex
 10
83.209091
 20
131.254074
 30
0.0
 70
    48
  0
VERTEX
  5
270
100
AcDbEntity
  8
0
390
0
100
AcDbVertex
100
AcDb3dPolylineVertex
 10
83.276733
 20
131.237656
 30
0.0
 70
    48
  0
VERTEX
  5
271
100
AcDbEntity
  8
0
390
0
100
AcDbVertex
100
AcDb3dPolylineVertex
 10
83.276733
 20
131.237656
 30
0.0
 70
    48
  0
VERTEX
  5
272
100
AcDbEntity
  8
0
390
0
100
AcDbVertex
100
AcDb3dPolylineVertex
 10
83.432175
 20
131.22197
 30
0.0
 70
    40
  0
VERTEX
  5
273
100
AcDbEntity
  8
0
390
0
100
AcDbVertex
100
AcDb3dPolylineVertex
 10
83.276733
 20
131.237656
 30
0.0
 70
    48
  0
VERTEX
  5
274
100
AcDbEntity
  8
0
390
0
100
AcDbVertex
100
AcDb3dPolylineVertex
 10
83.432175
 20
131.22197
 30
0.0
 70
    48
  0
VERTEX
  5
275
100
AcDbEntity
  8
0
390
0
100
AcDbVertex
100
AcDb3dPolylineVertex
 10
83.432175
 20
131.22197
 30
0.0
 70
    48
  0
VERTEX
  5
276
100
AcDbEntity
  8
0
390
0
100
AcDbVertex
100
AcDb3dPolylineVertex
 10
83.669815
 20
131.207596
 30
0.0
 70
    40
  0
VERTEX
  5
277
100
AcDbEntity
  8
0
390
0
100
AcDbVertex
100
AcDb3dPolylineVertex
 10
83.432175
 20
131.22197
 30
0.0
 70
    48
  0
VERTEX
  5
278
100
AcDbEntity
  8
0
390
0
100
AcDbVertex
100
AcDb3dPolylineVertex
 10
83.669815
 20
131.207596
 30
0.0
 70
    48
  0
VERTEX
  5
279
100
AcDbEntity
  8
0
390
0
100
AcDbVertex
100
AcDb3dPolylineVertex
 10
83.669815
 20
131.207596
 30
0.0
 70
    48
  0
VERTEX
  5
27A
100
AcDbEntity
  8
0
390
0
100
AcDbVertex
100
AcDb3dPolylineVertex
 10
83.981064
 20
131.195084
 30
0.0
 70
    40
  0
VERTEX
  5
27B
100
AcDbEntity
  8
0
390
0
100
AcDbVertex
100
AcDb3dPolylineVertex
 10
83.669815
 20
131.207596
 30
0.0
 70
    48
  0
VERTEX
  5
27C
100
AcDbEntity
  8
0
390
0
100
AcDbVertex
100
AcDb3dPolylineVertex
 10
83.981064
 20
131.195084
 30
0.0
 70
    48
  0
VERTEX
  5
27D
100
AcDbEntity
  8
0
390
0
100
AcDbVertex
100
AcDb3dPolylineVertex
 10
83.981064
 20
131.195084
 30
0.0
 70
    48
  0
VERTEX
  5
27E
100
AcDbEntity
  8
0
390
0
100
AcDbVertex
100
AcDb3dPolylineVertex
 10
84.35466
 20
131.18483
 30
0.0
 70
    40
  0
VERTEX
  5
27F
100
AcDbEntity
  8
0
390
0
100
AcDbVertex
100
AcDb3dPolylineVertex
 10
83.981064
 20
131.195084
 30
0.0
 70
    48
  0
VERTEX
  5
280
100
AcDbEntity
  8
0
390
0
100
AcDbVertex
100
AcDb3dPolylineVertex
 10
84.35466
 20
131.18483
 30
0.0
 70
    48
  0
VERTEX
  5
281
100
AcDbEntity
  8
0
390
0
100
AcDbVertex
100
AcDb3dPolylineVertex
 10
84.35466
 20
131.18483
 30
0.0
 70
    48
  0
VERTEX
  5
282
100
AcDbEntity
  8
0
390
0
100
AcDbVertex
100
AcDb3dPolylineVertex
 10
84.7771
 20
131.177231
 30
0.0
 70
    40
  0
VERTEX
  5
283
100
AcDbEntity
  8
0
390
0
100
AcDbVertex
100
AcDb3dPolylineVertex
 10
84.35466
 20
131.18483
 30
0.0
 70
    48
  0
VERTEX
  5
284
100
AcDbEntity
  8
0
390
0
100
AcDbVertex
100
AcDb3dPolylineVertex
 10
84.7771
 20
131.177231
 30
0.0
 70
    48
  0
VERTEX
  5
285
100
AcDbEntity
  8
0
390
0
100
AcDbVertex
100
AcDb3dPolylineVertex
 10
84.7771
 20
131.177231
 30
0.0
 70
    48
  0
VERTEX
  5
286
100
AcDbEntity
  8
0
390
0
100
AcDbVertex
100
AcDb3dPolylineVertex
 10
85.233124
 20
131.172531
 30
0.0
 70
    40
  0
VERTEX
  5
287
100
AcDbEntity
  8
0
390
0
100
AcDbVertex
100
AcDb3dPolylineVertex
 10
84.7771
 20
131.177231
 30
0.0
 70
    48
  0
VERTEX
  5
288
100
AcDbEntity
  8
0
390
0
100
AcDbVertex
100
AcDb3dPolylineVertex
 10
85.233124
 20
131.172531
 30
0.0
 70
    48
  0
VERTEX
  5
289
100
AcDbEntity
  8
0
390
0
100
AcDbVertex
100
AcDb3dPolylineVertex
 10
85.233124
 20
131.172531
 30
0.0
 70
    48
  0
VERTEX
  5
28A
100
AcDbEntity
  8
0
390
0
100
AcDbVertex
100
AcDb3dPolylineVertex
 10
85.706253
 20
131.170975
 30
0.0
 70
    40
  0
VERTEX
  5
28B
100
AcDbEntity
  8
0
390
0
100
AcDbVertex
100
AcDb3dPolylineVertex
 10
85.233124
 20
131.172531
 30
0.0
 70
    48
  0
VERTEX
  5
28C
100
AcDbEntity
  8
0
390
0
100
AcDbVertex
100
AcDb3dPolylineVertex
 10
85.706253
 20
131.170975
 30
0.0
 70
    48
  0
VERTEX
  5
28D
100
AcDbEntity
  8
0
390
0
100
AcDbVertex
100
AcDb3dPolylineVertex
 10
85.706253
 20
131.170975
 30
0.0
 70
    48
  0
SEQEND
  5
28E
100
AcDbEntity
  8
0
390
0
  0
POLYLINE
  5
28F
100
AcDbEntity
  8
ARMATUR
390
0
  6
DURCHGEHEND
 62
     7
100
AcDb3dPolyline
 66
     1
 10
0.0
 20
0.0
 30
0.0
 70
    12
 75
     5
  0
VERTEX
  5
290
100
AcDbEntity
  8
0
390
0
100
AcDbVertex
100
AcDb3dPolylineVertex
 10
82.956253
 20
131.258224
 30
0.0
 70
    48
  0
VERTEX
  5
291
100
AcDbEntity
  8
0
390
0
100
AcDbVertex
100
AcDb3dPolylineVertex
 10
82.956253
 20
131.258224
 30
0.0
 70
    40
  0
VERTEX
  5
292
100
AcDbEntity
  8
0
390
0
100
AcDbVertex
100
AcDb3dPolylineVertex
 10
83.003082
 20
131.240585
 30
0.0
 70
    40
  0
VERTEX
  5
293
100
AcDbEntity
  8
0
390
0
100
AcDbVertex
100
AcDb3dPolylineVertex
 10
82.956253
 20
131.258224
 30
0.0
 70
    48
  0
VERTEX
  5
294
100
AcDbEntity
  8
0
390
0
100
AcDbVertex
100
AcDb3dPolylineVertex
 10
83.003082
 20
131.240585
 30
0.0
 70
    48
  0
VERTEX
  5
295
100
AcDbEntity
  8
0
390
0
100
AcDbVertex
100
AcDb3dPolylineVertex
 10
83.003082
 20
131.240585
 30
0.0
 70
    48
  0
VERTEX
  5
296
100
AcDbEntity
  8
0
390
0
100
AcDbVertex
100
AcDb3dPolylineVertex
 10
83.141968
 20
131.223557
 30
0.0
 70
    40
  0
VERTEX
  5
297
100
AcDbEntity
  8
0
390
0
100
AcDbVertex
100
AcDb3dPolylineVertex
 10
83.003082
 20
131.240585
 30
0.0
 70
    48
  0
VERTEX
  5
298
100
AcDbEntity
  8
0
390
0
100
AcDbVertex
100
AcDb3dPolylineVertex
 10
83.141968
 20
131.223557
 30
0.0
 70
    48
  0
VERTEX
  5
299
100
AcDbEntity
  8
0
390
0
100
AcDbVertex
100
AcDb3dPolylineVertex
 10
83.141968
 20
131.223557
 30
0.0
 70
    48
  0
VERTEX
  5
29A
100
AcDbEntity
  8
0
390
0
100
AcDbVertex
100
AcDb3dPolylineVertex
 10
83.368164
 20
131.207687
 30
0.0
 70
    40
  0
VERTEX
  5
29B
100
AcDbEntity
  8
0
390
0
100
AcDbVertex
100
AcDb3dPolylineVertex
 10
83.141968
 20
131.223557
 30
0.0
 70
    48
  0
VERTEX
  5
29C
100
AcDbEntity
  8
0
390
0
100
AcDbVertex
100
AcDb3dPolylineVertex
 10
83.368164
 20
131.207687
 30
0.0
 70
    48
  0
VERTEX
  5
29D
100
AcDbEntity
  8
0
390
0
100
AcDbVertex
100
AcDb3dPolylineVertex
 10
83.368164
 20
131.207687
 30
0.0
 70
    48
  0
VERTEX
  5
29E
100
AcDbEntity
  8
0
390
0
100
AcDbVertex
100
AcDb3dPolylineVertex
 10
83.673981
 20
131.193558
 30
0.0
 70
    40
  0
VERTEX
  5
29F
100
AcDbEntity
  8
0
390
0
100
AcDbVertex
100
AcDb3dPolylineVertex
 10
83.368164
 20
131.207687
 30
0.0
 70
    48
  0
VERTEX
  5
2A0
100
AcDbEntity
  8
0
390
0
100
AcDbVertex
100
AcDb3dPolylineVertex
 10
83.673981
 20
131.193558
 30
0.0
 70
    48
  0
VERTEX
  5
2A1
100
AcDbEntity
  8
0
390
0
100
AcDbVertex
100
AcDb3dPolylineVertex
 10
83.673981
 20
131.193558
 30
0.0
 70
    48
  0
VERTEX
  5
2A2
100
AcDbEntity
  8
0
390
0
100
AcDbVertex
100
AcDb3dPolylineVertex
 10
84.049011
 20
131.181625
 30
0.0
 70
    40
  0
VERTEX
  5
2A3
100
AcDbEntity
  8
0
390
0
100
AcDbVertex
100
AcDb3dPolylineVertex
 10
83.673981
 20
131.193558
 30
0.0
 70
    48
  0
VERTEX
  5
2A4
100
AcDbEntity
  8
0
390
0
100
AcDbVertex
100
AcDb3dPolylineVertex
 10
84.049011
 20
131.181625
 30
0.0
 70
    48
  0
VERTEX
  5
2A5
100
AcDbEntity
  8
0
390
0
100
AcDbVertex
100
AcDb3dPolylineVertex
 10
84.049011
 20
131.181625
 30
0.0
 70
    48
  0
VERTEX
  5
2A6
100
AcDbEntity
  8
0
390
0
100
AcDbVertex
100
AcDb3dPolylineVertex
 10
84.480484
 20
131.172318
 30
0.0
 70
    40
  0
VERTEX
  5
2A7
100
AcDbEntity
  8
0
390
0
100
AcDbVertex
100
AcDb3dPolylineVertex
 10
84.049011
 20
131.181625
 30
0.0
 70
    48
  0
VERTEX
  5
2A8
100
AcDbEntity
  8
0
390
0
100
AcDbVertex
100
AcDb3dPolylineVertex
 10
84.480484
 20
131.172318
 30
0.0
 70
    48
  0
VERTEX
  5
2A9
100
AcDbEntity
  8
0
390
0
100
AcDbVertex
100
AcDb3dPolylineVertex
 10
84.480484
 20
131.172318
 30
0.0
 70
    48
  0
VERTEX
  5
2AA
100
AcDbEntity
  8
0
390
0
100
AcDbVertex
100
AcDb3dPolylineVertex
 10
84.95369
 20
131.165909
 30
0.0
 70
    40
  0
VERTEX
  5
2AB
100
AcDbEntity
  8
0
390
0
100
AcDbVertex
100
AcDb3dPolylineVertex
 10
84.480484
 20
131.172318
 30
0.0
 70
    48
  0
VERTEX
  5
2AC
100
AcDbEntity
  8
0
390
0
100
AcDbVertex
100
AcDb3dPolylineVertex
 10
84.95369
 20
131.165909
 30
0.0
 70
    48
  0
VERTEX
  5
2AD
100
AcDbEntity
  8
0
390
0
100
AcDbVertex
100
AcDb3dPolylineVertex
 10
84.95369
 20
131.165909
 30
0.0
 70
    48
  0
VERTEX
  5
2AE
100
AcDbEntity
  8
0
390
0
100
AcDbVertex
100
AcDb3dPolylineVertex
 10
85.452515
 20
131.162643
 30
0.0
 70
    40
  0
VERTEX
  5
2AF
100
AcDbEntity
  8
0
390
0
100
AcDbVertex
100
AcDb3dPolylineVertex
 10
84.95369
 20
131.165909
 30
0.0
 70
    48
  0
VERTEX
  5
2B0
100
AcDbEntity
  8
0
390
0
100
AcDbVertex
100
AcDb3dPolylineVertex
 10
85.452515
 20
131.162643
 30
0.0
 70
    48
  0
VERTEX
  5
2B1
100
AcDbEntity
  8
0
390
0
100
AcDbVertex
100
AcDb3dPolylineVertex
 10
85.452515
 20
131.162643
 30
0.0
 70
    48
  0
VERTEX
  5
2B2
100
AcDbEntity
  8
0
390
0
100
AcDbVertex
100
AcDb3dPolylineVertex
 10
85.959991
 20
131.162643
 30
0.0
 70
    40
  0
VERTEX
  5
2B3
100
AcDbEntity
  8
0
390
0
100
AcDbVertex
100
AcDb3dPolylineVertex
 10
85.452515
 20
131.162643
 30
0.0
 70
    48
  0
VERTEX
  5
2B4
100
AcDbEntity
  8
0
390
0
100
AcDbVertex
100
AcDb3dPolylineVertex
 10
85.959991
 20
131.162643
 30
0.0
 70
    48
  0
VERTEX
  5
2B5
100
AcDbEntity
  8
0
390
0
100
AcDbVertex
100
AcDb3dPolylineVertex
 10
85.959991
 20
131.162643
 30
0.0
 70
    48
  0
VERTEX
  5
2B6
100
AcDbEntity
  8
0
390
0
100
AcDbVertex
100
AcDb3dPolylineVertex
 10
86.458832
 20
131.165909
 30
0.0
 70
    40
  0
VERTEX
  5
2B7
100
AcDbEntity
  8
0
390
0
100
AcDbVertex
100
AcDb3dPolylineVertex
 10
85.959991
 20
131.162643
 30
0.0
 70
    48
  0
VERTEX
  5
2B8
100
AcDbEntity
  8
0
390
0
100
AcDbVertex
100
AcDb3dPolylineVertex
 10
86.458832
 20
131.165909
 30
0.0
 70
    48
  0
VERTEX
  5
2B9
100
AcDbEntity
  8
0
390
0
100
AcDbVertex
100
AcDb3dPolylineVertex
 10
86.458832
 20
131.165909
 30
0.0
 70
    48
  0
VERTEX
  5
2BA
100
AcDbEntity
  8
0
390
0
100
AcDbVertex
100
AcDb3dPolylineVertex
 10
86.932037
 20
131.172318
 30
0.0
 70
    40
  0
VERTEX
  5
2BB
100
AcDbEntity
  8
0
390
0
100
AcDbVertex
100
AcDb3dPolylineVertex
 10
86.458832
 20
131.165909
 30
0.0
 70
    48
  0
VERTEX
  5
2BC
100
AcDbEntity
  8
0
390
0
100
AcDbVertex
100
AcDb3dPolylineVertex
 10
86.932037
 20
131.172318
 30
0.0
 70
    48
  0
VERTEX
  5
2BD
100
AcDbEntity
  8
0
390
0
100
AcDbVertex
100
AcDb3dPolylineVertex
 10
86.932037
 20
131.172318
 30
0.0
 70
    48
  0
VERTEX
  5
2BE
100
AcDbEntity
  8
0
390
0
100
AcDbVertex
100
AcDb3dPolylineVertex
 10
87.36351
 20
131.181625
 30
0.0
 70
    40
  0
VERTEX
  5
2BF
100
AcDbEntity
  8
0
390
0
100
AcDbVertex
100
AcDb3dPolylineVertex
 10
86.932037
 20
131.172318
 30
0.0
 70
    48
  0
VERTEX
  5
2C0
100
AcDbEntity
  8
0
390
0
100
AcDbVertex
100
AcDb3dPolylineVertex
 10
87.36351
 20
131.181625
 30
0.0
 70
    48
  0
VERTEX
  5
2C1
100
AcDbEntity
  8
0
390
0
100
AcDbVertex
100
AcDb3dPolylineVertex
 10
87.36351
 20
131.181625
 30
0.0
 70
    48
  0
VERTEX
  5
2C2
100
AcDbEntity
  8
0
390
0
100
AcDbVertex
100
AcDb3dPolylineVertex
 10
87.738525
 20
131.193558
 30
0.0
 70
    40
  0
VERTEX
  5
2C3
100
AcDbEntity
  8
0
390
0
100
AcDbVertex
100
AcDb3dPolylineVertex
 10
87.36351
 20
131.181625
 30
0.0
 70
    48
  0
VERTEX
  5
2C4
100
AcDbEntity
  8
0
390
0
100
AcDbVertex
100
AcDb3dPolylineVertex
 10
87.738525
 20
131.193558
 30
0.0
 70
    48
  0
VERTEX
  5
2C5
100
AcDbEntity
  8
0
390
0
100
AcDbVertex
100
AcDb3dPolylineVertex
 10
87.738525
 20
131.193558
 30
0.0
 70
    48
  0
VERTEX
  5
2C6
100
AcDbEntity
  8
0
390
0
100
AcDbVertex
100
AcDb3dPolylineVertex
 10
88.044357
 20
131.207687
 30
0.0
 70
    40
  0
VERTEX
  5
2C7
100
AcDbEntity
  8
0
390
0
100
AcDbVertex
100
AcDb3dPolylineVertex
 10
87.738525
 20
131.193558
 30
0.0
 70
    48
  0
VERTEX
  5
2C8
100
AcDbEntity
  8
0
390
0
100
AcDbVertex
100
AcDb3dPolylineVertex
 10
88.044357
 20
131.207687
 30
0.0
 70
    48
  0
VERTEX
  5
2C9
100
AcDbEntity
  8
0
390
0
100
AcDbVertex
100
AcDb3dPolylineVertex
 10
88.044357
 20
131.207687
 30
0.0
 70
    48
  0
VERTEX
  5
2CA
100
AcDbEntity
  8
0
390
0
100
AcDbVertex
100
AcDb3dPolylineVertex
 10
88.270554
 20
131.223557
 30
0.0
 70
    40
  0
VERTEX
  5
2CB
100
AcDbEntity
  8
0
390
0
100
AcDbVertex
100
AcDb3dPolylineVertex
 10
88.044357
 20
131.207687
 30
0.0
 70
    48
  0
VERTEX
  5
2CC
100
AcDbEntity
  8
0
390
0
100
AcDbVertex
100
AcDb3dPolylineVertex
 10
88.270554
 20
131.223557
 30
0.0
 70
    48
  0
VERTEX
  5
2CD
100
AcDbEntity
  8
0
390
0
100
AcDbVertex
100
AcDb3dPolylineVertex
 10
88.270554
 20
131.223557
 30
0.0
 70
    48
  0
VERTEX
  5
2CE
100
AcDbEntity
  8
0
390
0
100
AcDbVertex
100
AcDb3dPolylineVertex
 10
88.409439
 20
131.240585
 30
0.0
 70
    40
  0
VERTEX
  5
2CF
100
AcDbEntity
  8
0
390
0
100
AcDbVertex
100
AcDb3dPolylineVertex
 10
88.270554
 20
131.223557
 30
0.0
 70
    48
  0
VERTEX
  5
2D0
100
AcDbEntity
  8
0
390
0
100
AcDbVertex
100
AcDb3dPolylineVertex
 10
88.409439
 20
131.240585
 30
0.0
 70
    48
  0
VERTEX
  5
2D1
100
AcDbEntity
  8
0
390
0
100
AcDbVertex
100
AcDb3dPolylineVertex
 10
88.409439
 20
131.240585
 30
0.0
 70
    48
  0
VERTEX
  5
2D2
100
AcDbEntity
  8
0
390
0
100
AcDbVertex
100
AcDb3dPolylineVertex
 10
88.456253
 20
131.258224
 30
0.0
 70
    40
  0
VERTEX
  5
2D3
100
AcDbEntity
  8
0
390
0
100
AcDbVertex
100
AcDb3dPolylineVertex
 10
88.409439
 20
131.240585
 30
0.0
 70
    48
  0
VERTEX
  5
2D4
100
AcDbEntity
  8
0
390
0
100
AcDbVertex
100
AcDb3dPolylineVertex
 10
88.456253
 20
131.258224
 30
0.0
 70
    48
  0
VERTEX
  5
2D5
100
AcDbEntity
  8
0
390
0
100
AcDbVertex
100
AcDb3dPolylineVertex
 10
88.456253
 20
131.258224
 30
0.0
 70
    48
  0
SEQEND
  5
2D6
100
AcDbEntity
  8
0
390
0
  0
LINE
  5
2D7
100
AcDbEntity
  8
ARMATUR
390
0
  6
DURCHGEHEND
 62
     7
100
AcDbLine
 10
82.956253
 20
131.272263
 30
0.0
 11
82.956253
 21
131.258224
 31
0.0
  0
LINE
  5
2D8
100
AcDbEntity
  8
ARMATUR
390
0
  6
DURCHGEHEND
 62
     7
100
AcDbLine
 10
88.456253
 20
131.272232
 30
0.0
 11
88.456253
 21
131.258224
 31
0.0
  0
POLYLINE
  5
2D9
100
AcDbEntity
  8
ARMATUR
390
0
  6
DURCHGEHEND
 62
     7
100
AcDb3dPolyline
 66
     1
 10
0.0
 20
0.0
 30
0.0
 70
    12
 75
     5
  0
VERTEX
  5
2DA
100
AcDbEntity
  8
0
390
0
100
AcDbVertex
100
AcDb3dPolylineVertex
 10
85.706253
 20
131.205124
 30
0.0
 70
    48
  0
VERTEX
  5
2DB
100
AcDbEntity
  8
0
390
0
100
AcDbVertex
100
AcDb3dPolylineVertex
 10
85.706253
 20
131.205124
 30
0.0
 70
    40
  0
VERTEX
  5
2DC
100
AcDbEntity
  8
0
390
0
100
AcDbVertex
100
AcDb3dPolylineVertex
 10
86.156662
 20
131.206711
 30
0.0
 70
    40
  0
VERTEX
  5
2DD
100
AcDbEntity
  8
0
390
0
100
AcDbVertex
100
AcDb3dPolylineVertex
 10
85.706253
 20
131.205124
 30
0.0
 70
    48
  0
VERTEX
  5
2DE
100
AcDbEntity
  8
0
390
0
100
AcDbVertex
100
AcDb3dPolylineVertex
 10
86.156662
 20
131.206711
 30
0.0
 70
    48
  0
VERTEX
  5
2DF
100
AcDbEntity
  8
0
390
0
100
AcDbVertex
100
AcDb3dPolylineVertex
 10
86.156662
 20
131.206711
 30
0.0
 70
    48
  0
VERTEX
  5
2E0
100
AcDbEntity
  8
0
390
0
100
AcDbVertex
100
AcDb3dPolylineVertex
 10
86.588623
 20
131.211441
 30
0.0
 70
    40
  0
VERTEX
  5
2E1
100
AcDbEntity
  8
0
390
0
100
AcDbVertex
100
AcDb3dPolylineVertex
 10
86.156662
 20
131.206711
 30
0.0
 70
    48
  0
VERTEX
  5
2E2
100
AcDbEntity
  8
0
390
0
100
AcDbVertex
100
AcDb3dPolylineVertex
 10
86.588623
 20
131.211441
 30
0.0
 70
    48
  0
VERTEX
  5
2E3
100
AcDbEntity
  8
0
390
0
100
AcDbVertex
100
AcDb3dPolylineVertex
 10
86.588623
 20
131.211441
 30
0.0
 70
    48
  0
VERTEX
  5
2E4
100
AcDbEntity
  8
0
390
0
100
AcDbVertex
100
AcDb3dPolylineVertex
 10
86.984467
 20
131.219101
 30
0.0
 70
    40
  0
VERTEX
  5
2E5
100
AcDbEntity
  8
0
390
0
100
AcDbVertex
100
AcDb3dPolylineVertex
 10
86.588623
 20
131.211441
 30
0.0
 70
    48
  0
VERTEX
  5
2E6
100
AcDbEntity
  8
0
390
0
100
AcDbVertex
100
AcDb3dPolylineVertex
 10
86.984467
 20
131.219101
 30
0.0
 70
    48
  0
VERTEX
  5
2E7
100
AcDbEntity
  8
0
390
0
100
AcDbVertex
100
AcDb3dPolylineVertex
 10
86.984467
 20
131.219101
 30
0.0
 70
    48
  0
VERTEX
  5
2E8
100
AcDbEntity
  8
0
390
0
100
AcDbVertex
100
AcDb3dPolylineVertex
 10
87.327988
 20
131.229416
 30
0.0
 70
    40
  0
VERTEX
  5
2E9
100
AcDbEntity
  8
0
390
0
100
AcDbVertex
100
AcDb3dPolylineVertex
 10
86.984467
 20
131.219101
 30
0.0
 70
    48
  0
VERTEX
  5
2EA
100
AcDbEntity
  8
0
390
0
100
AcDbVertex
100
AcDb3dPolylineVertex
 10
87.327988
 20
131.229416
 30
0.0
 70
    48
  0
VERTEX
  5
2EB
100
AcDbEntity
  8
0
390
0
100
AcDbVertex
100
AcDb3dPolylineVertex
 10
87.327988
 20
131.229416
 30
0.0
 70
    48
  0
VERTEX
  5
2EC
100
AcDbEntity
  8
0
390
0
100
AcDbVertex
100
AcDb3dPolylineVertex
 10
87.605103
 20
131.241898
 30
0.0
 70
    40
  0
VERTEX
  5
2ED
100
AcDbEntity
  8
0
390
0
100
AcDbVertex
100
AcDb3dPolylineVertex
 10
87.327988
 20
131.229416
 30
0.0
 70
    48
  0
VERTEX
  5
2EE
100
AcDbEntity
  8
0
390
0
100
AcDbVertex
100
AcDb3dPolylineVertex
 10
87.605103
 20
131.241898
 30
0.0
 70
    48
  0
VERTEX
  5
2EF
100
AcDbEntity
  8
0
390
0
100
AcDbVertex
100
AcDb3dPolylineVertex
 10
87.605103
 20
131.241898
 30
0.0
 70
    48
  0
VERTEX
  5
2F0
100
AcDbEntity
  8
0
390
0
100
AcDbVertex
100
AcDb3dPolylineVertex
 10
87.804474
 20
131.256088
 30
0.0
 70
    40
  0
VERTEX
  5
2F1
100
AcDbEntity
  8
0
390
0
100
AcDbVertex
100
AcDb3dPolylineVertex
 10
87.605103
 20
131.241898
 30
0.0
 70
    48
  0
VERTEX
  5
2F2
100
AcDbEntity
  8
0
390
0
100
AcDbVertex
100
AcDb3dPolylineVertex
 10
87.804474
 20
131.256088
 30
0.0
 70
    48
  0
VERTEX
  5
2F3
100
AcDbEntity
  8
0
390
0
100
AcDbVertex
100
AcDb3dPolylineVertex
 10
87.804474
 20
131.256088
 30
0.0
 70
    48
  0
VERTEX
  5
2F4
100
AcDbEntity
  8
0
390
0
100
AcDbVertex
100
AcDb3dPolylineVertex
 10
87.917953
 20
131.271378
 30
0.0
 70
    40
  0
VERTEX
  5
2F5
100
AcDbEntity
  8
0
390
0
100
AcDbVertex
100
AcDb3dPolylineVertex
 10
87.804474
 20
131.256088
 30
0.0
 70
    48
  0
VERTEX
  5
2F6
100
AcDbEntity
  8
0
390
0
100
AcDbVertex
100
AcDb3dPolylineVertex
 10
87.917953
 20
131.271378
 30
0.0
 70
    48
  0
VERTEX
  5
2F7
100
AcDbEntity
  8
0
390
0
100
AcDbVertex
100
AcDb3dPolylineVertex
 10
87.917953
 20
131.271378
 30
0.0
 70
    48
  0
VERTEX
  5
2F8
100
AcDbEntity
  8
0
390
0
100
AcDbVertex
100
AcDb3dPolylineVertex
 10
87.940887
 20
131.287155
 30
0.0
 70
    40
  0
VERTEX
  5
2F9
100
AcDbEntity
  8
0
390
0
100
AcDbVertex
100
AcDb3dPolylineVertex
 10
87.917953
 20
131.271378
 30
0.0
 70
    48
  0
VERTEX
  5
2FA
100
AcDbEntity
  8
0
390
0
100
AcDbVertex
100
AcDb3dPolylineVertex
 10
87.940887
 20
131.287155
 30
0.0
 70
    48
  0
VERTEX
  5
2FB
100
AcDbEntity
  8
0
390
0
100
AcDbVertex
100
AcDb3dPolylineVertex
 10
87.940887
 20
131.287155
 30
0.0
 70
    48
  0
VERTEX
  5
2FC
100
AcDbEntity
  8
0
390
0
100
AcDbVertex
100
AcDb3dPolylineVertex
 10
87.88472
 20
131.30101
 30
0.0
 70
    40
  0
VERTEX
  5
2FD
100
AcDbEntity
  8
0
390
0
100
AcDbVertex
100
AcDb3dPolylineVertex
 10
87.940887
 20
131.287155
 30
0.0
 70
    48
  0
VERTEX
  5
2FE
100
AcDbEntity
  8
0
390
0
100
AcDbVertex
100
AcDb3dPolylineVertex
 10
87.88472
 20
131.30101
 30
0.0
 70
    48
  0
VERTEX
  5
2FF
100
AcDbEntity
  8
0
390
0
100
AcDbVertex
100
AcDb3dPolylineVertex
 10
87.88472
 20
131.30101
 30
0.0
 70
    48
  0
SEQEND
  5
300
100
AcDbEntity
  8
0
390
0
  0
POLYLINE
  5
301
100
AcDbEntity
  8
ARMATUR
390
0
  6
DURCHGEHEND
 62
     7
100
AcDb3dPolyline
 66
     1
 10
0.0
 20
0.0
 30
0.0
 70
    12
 75
     5
  0
VERTEX
  5
302
100
AcDbEntity
  8
0
390
0
100
AcDbVertex
100
AcDb3dPolylineVertex
 10
83.527802
 20
131.30101
 30
0.0
 70
    48
  0
VERTEX
  5
303
100
AcDbEntity
  8
0
390
0
100
AcDbVertex
100
AcDb3dPolylineVertex
 10
83.527802
 20
131.30101
 30
0.0
 70
    40
  0
VERTEX
  5
304
100
AcDbEntity
  8
0
390
0
100
AcDbVertex
100
AcDb3dPolylineVertex
 10
83.471634
 20
131.287155
 30
0.0
 70
    40
  0
VERTEX
  5
305
100
AcDbEntity
  8
0
390
0
100
AcDbVertex
100
AcDb3dPolylineVertex
 10
83.527802
 20
131.30101
 30
0.0
 70
    48
  0
VERTEX
  5
306
100
AcDbEntity
  8
0
390
0
100
AcDbVertex
100
AcDb3dPolylineVertex
 10
83.471634
 20
131.287155
 30
0.0
 70
    48
  0
VERTEX
  5
307
100
AcDbEntity
  8
0
390
0
100
AcDbVertex
100
AcDb3dPolylineVertex
 10
83.471634
 20
131.287155
 30
0.0
 70
    48
  0
VERTEX
  5
308
100
AcDbEntity
  8
0
390
0
100
AcDbVertex
100
AcDb3dPolylineVertex
 10
83.468842
 20
131.283859
 30
0.0
 70
    40
  0
VERTEX
  5
309
100
AcDbEntity
  8
0
390
0
100
AcDbVertex
100
AcDb3dPolylineVertex
 10
83.471634
 20
131.287155
 30
0.0
 70
    48
  0
VERTEX
  5
30A
100
AcDbEntity
  8
0
390
0
100
AcDbVertex
100
AcDb3dPolylineVertex
 10
83.468842
 20
131.283859
 30
0.0
 70
    48
  0
VERTEX
  5
30B
100
AcDbEntity
  8
0
390
0
100
AcDbVertex
100
AcDb3dPolylineVertex
 10
83.468842
 20
131.283859
 30
0.0
 70
    48
  0
SEQEND
  5
30C
100
AcDbEntity
  8
0
390
0
  0
ARC
  5
30D
100
AcDbEntity
  8
ARMATUR
390
0
  6
DURCHGEHEND
 62
     7
100
AcDbCircle
 10
85.076355
 20
159.54454
 30
0.0
 40
28.261353
100
AcDbArc
 50
267.704987
 51
269.09201
  0
ARC
  5
30E
100
AcDbEntity
  8
ARMATUR
390
0
  6
DURCHGEHEND
 62
     7
100
AcDbCircle
 10
86.415863
 20
156.396378
 30
0.0
 40
25.112381
100
AcDbArc
 50
270.824005
 51
272.785004
  0
POLYLINE
  5
30F
100
AcDbEntity
  8
ARMATUR
390
0
  6
DURCHGEHEND
 62
     7
100
AcDb3dPolyline
 66
     1
 10
0.0
 20
0.0
 30
0.0
 70
    12
 75
     5
  0
VERTEX
  5
310
100
AcDbEntity
  8
0
390
0
100
AcDbVertex
100
AcDb3dPolylineVertex
 10
85.706253
 20
131.206863
 30
0.0
 70
    48
  0
VERTEX
  5
311
100
AcDbEntity
  8
0
390
0
100
AcDbVertex
100
AcDb3dPolylineVertex
 10
85.706253
 20
131.206863
 30
0.0
 70
    40
  0
VERTEX
  5
312
100
AcDbEntity
  8
0
390
0
100
AcDbVertex
100
AcDb3dPolylineVertex
 10
86.146606
 20
131.20842
 30
0.0
 70
    40
  0
VERTEX
  5
313
100
AcDbEntity
  8
0
390
0
100
AcDbVertex
100
AcDb3dPolylineVertex
 10
85.706253
 20
131.206863
 30
0.0
 70
    48
  0
VERTEX
  5
314
100
AcDbEntity
  8
0
390
0
100
AcDbVertex
100
AcDb3dPolylineVertex
 10
86.146606
 20
131.20842
 30
0.0
 70
    48
  0
VERTEX
  5
315
100
AcDbEntity
  8
0
390
0
100
AcDbVertex
100
AcDb3dPolylineVertex
 10
86.146606
 20
131.20842
 30
0.0
 70
    48
  0
VERTEX
  5
316
100
AcDbEntity
  8
0
390
0
100
AcDbVertex
100
AcDb3dPolylineVertex
 10
86.568909
 20
131.213058
 30
0.0
 70
    40
  0
VERTEX
  5
317
100
AcDbEntity
  8
0
390
0
100
AcDbVertex
100
AcDb3dPolylineVertex
 10
86.146606
 20
131.20842
 30
0.0
 70
    48
  0
VERTEX
  5
318
100
AcDbEntity
  8
0
390
0
100
AcDbVertex
100
AcDb3dPolylineVertex
 10
86.568909
 20
131.213058
 30
0.0
 70
    48
  0
VERTEX
  5
319
100
AcDbEntity
  8
0
390
0
100
AcDbVertex
100
AcDb3dPolylineVertex
 10
86.568909
 20
131.213058
 30
0.0
 70
    48
  0
VERTEX
  5
31A
100
AcDbEntity
  8
0
390
0
100
AcDbVertex
100
AcDb3dPolylineVertex
 10
86.955902
 20
131.220535
 30
0.0
 70
    40
  0
VERTEX
  5
31B
100
AcDbEntity
  8
0
390
0
100
AcDbVertex
100
AcDb3dPolylineVertex
 10
86.568909
 20
131.213058
 30
0.0
 70
    48
  0
VERTEX
  5
31C
100
AcDbEntity
  8
0
390
0
100
AcDbVertex
100
AcDb3dPolylineVertex
 10
86.955902
 20
131.220535
 30
0.0
 70
    48
  0
VERTEX
  5
31D
100
AcDbEntity
  8
0
390
0
100
AcDbVertex
100
AcDb3dPolylineVertex
 10
86.955902
 20
131.220535
 30
0.0
 70
    48
  0
VERTEX
  5
31E
100
AcDbEntity
  8
0
390
0
100
AcDbVertex
100
AcDb3dPolylineVertex
 10
87.291748
 20
131.230606
 30
0.0
 70
    40
  0
VERTEX
  5
31F
100
AcDbEntity
  8
0
390
0
100
AcDbVertex
100
AcDb3dPolylineVertex
 10
86.955902
 20
131.220535
 30
0.0
 70
    48
  0
VERTEX
  5
320
100
AcDbEntity
  8
0
390
0
100
AcDbVertex
100
AcDb3dPolylineVertex
 10
87.291748
 20
131.230606
 30
0.0
 70
    48
  0
VERTEX
  5
321
100
AcDbEntity
  8
0
390
0
100
AcDbVertex
100
AcDb3dPolylineVertex
 10
87.291748
 20
131.230606
 30
0.0
 70
    48
  0
VERTEX
  5
322
100
AcDbEntity
  8
0
390
0
100
AcDbVertex
100
AcDb3dPolylineVertex
 10
87.562668
 20
131.242813
 30
0.0
 70
    40
  0
VERTEX
  5
323
100
AcDbEntity
  8
0
390
0
100
AcDbVertex
100
AcDb3dPolylineVertex
 10
87.291748
 20
131.230606
 30
0.0
 70
    48
  0
VERTEX
  5
324
100
AcDbEntity
  8
0
390
0
100
AcDbVertex
100
AcDb3dPolylineVertex
 10
87.562668
 20
131.242813
 30
0.0
 70
    48
  0
VERTEX
  5
325
100
AcDbEntity
  8
0
390
0
100
AcDbVertex
100
AcDb3dPolylineVertex
 10
87.562668
 20
131.242813
 30
0.0
 70
    48
  0
VERTEX
  5
326
100
AcDbEntity
  8
0
390
0
100
AcDbVertex
100
AcDb3dPolylineVertex
 10
87.757599
 20
131.256699
 30
0.0
 70
    40
  0
VERTEX
  5
327
100
AcDbEntity
  8
0
390
0
100
AcDbVertex
100
AcDb3dPolylineVertex
 10
87.562668
 20
131.242813
 30
0.0
 70
    48
  0
VERTEX
  5
328
100
AcDbEntity
  8
0
390
0
100
AcDbVertex
100
AcDb3dPolylineVertex
 10
87.757599
 20
131.256699
 30
0.0
 70
    48
  0
VERTEX
  5
329
100
AcDbEntity
  8
0
390
0
100
AcDbVertex
100
AcDb3dPolylineVertex
 10
87.757599
 20
131.256699
 30
0.0
 70
    48
  0
VERTEX
  5
32A
100
AcDbEntity
  8
0
390
0
100
AcDbVertex
100
AcDb3dPolylineVertex
 10
87.86853
 20
131.271652
 30
0.0
 70
    40
  0
VERTEX
  5
32B
100
AcDbEntity
  8
0
390
0
100
AcDbVertex
100
AcDb3dPolylineVertex
 10
87.757599
 20
131.256699
 30
0.0
 70
    48
  0
VERTEX
  5
32C
100
AcDbEntity
  8
0
390
0
100
AcDbVertex
100
AcDb3dPolylineVertex
 10
87.86853
 20
131.271652
 30
0.0
 70
    48
  0
VERTEX
  5
32D
100
AcDbEntity
  8
0
390
0
100
AcDbVertex
100
AcDb3dPolylineVertex
 10
87.86853
 20
131.271652
 30
0.0
 70
    48
  0
VERTEX
  5
32E
100
AcDbEntity
  8
0
390
0
100
AcDbVertex
100
AcDb3dPolylineVertex
 10
87.890945
 20
131.287064
 30
0.0
 70
    40
  0
VERTEX
  5
32F
100
AcDbEntity
  8
0
390
0
100
AcDbVertex
100
AcDb3dPolylineVertex
 10
87.86853
 20
131.271652
 30
0.0
 70
    48
  0
VERTEX
  5
330
100
AcDbEntity
  8
0
390
0
100
AcDbVertex
100
AcDb3dPolylineVertex
 10
87.890945
 20
131.287064
 30
0.0
 70
    48
  0
VERTEX
  5
331
100
AcDbEntity
  8
0
390
0
100
AcDbVertex
100
AcDb3dPolylineVertex
 10
87.890945
 20
131.287064
 30
0.0
 70
    48
  0
VERTEX
  5
332
100
AcDbEntity
  8
0
390
0
100
AcDbVertex
100
AcDb3dPolylineVertex
 10
87.823929
 20
131.302322
 30
0.0
 70
    40
  0
VERTEX
  5
333
100
AcDbEntity
  8
0
390
0
100
AcDbVertex
100
AcDb3dPolylineVertex
 10
87.890945
 20
131.287064
 30
0.0
 70
    48
  0
VERTEX
  5
334
100
AcDbEntity
  8
0
390
0
100
AcDbVertex
100
AcDb3dPolylineVertex
 10
87.823929
 20
131.302322
 30
0.0
 70
    48
  0
VERTEX
  5
335
100
AcDbEntity
  8
0
390
0
100
AcDbVertex
100
AcDb3dPolylineVertex
 10
87.823929
 20
131.302322
 30
0.0
 70
    48
  0
VERTEX
  5
336
100
AcDbEntity
  8
0
390
0
100
AcDbVertex
100
AcDb3dPolylineVertex
 10
87.790192
 20
131.306412
 30
0.0
 70
    40
  0
VERTEX
  5
337
100
AcDbEntity
  8
0
390
0
100
AcDbVertex
100
AcDb3dPolylineVertex
 10
87.823929
 20
131.302322
 30
0.0
 70
    48
  0
VERTEX
  5
338
100
AcDbEntity
  8
0
390
0
100
AcDbVertex
100
AcDb3dPolylineVertex
 10
87.790192
 20
131.306412
 30
0.0
 70
    48
  0
VERTEX
  5
339
100
AcDbEntity
  8
0
390
0
100
AcDbVertex
100
AcDb3dPolylineVertex
 10
87.790192
 20
131.306412
 30
0.0
 70
    48
  0
SEQEND
  5
33A
100
AcDbEntity
  8
0
390
0
  0
POLYLINE
  5
33B
100
AcDbEntity
  8
ARMATUR
390
0
  6
DURCHGEHEND
 62
     7
100
AcDb3dPolyline
 66
     1
 10
0.0
 20
0.0
 30
0.0
 70
    12
 75
     5
  0
VERTEX
  5
33C
100
AcDbEntity
  8
0
390
0
100
AcDbVertex
100
AcDb3dPolylineVertex
 10
83.62233
 20
131.306412
 30
0.0
 70
    48
  0
VERTEX
  5
33D
100
AcDbEntity
  8
0
390
0
100
AcDbVertex
100
AcDb3dPolylineVertex
 10
83.62233
 20
131.306412
 30
0.0
 70
    40
  0
VERTEX
  5
33E
100
AcDbEntity
  8
0
390
0
100
AcDbVertex
100
AcDb3dPolylineVertex
 10
83.588593
 20
131.302322
 30
0.0
 70
    40
  0
VERTEX
  5
33F
100
AcDbEntity
  8
0
390
0
100
AcDbVertex
100
AcDb3dPolylineVertex
 10
83.62233
 20
131.306412
 30
0.0
 70
    48
  0
VERTEX
  5
340
100
AcDbEntity
  8
0
390
0
100
AcDbVertex
100
AcDb3dPolylineVertex
 10
83.588593
 20
131.302322
 30
0.0
 70
    48
  0
VERTEX
  5
341
100
AcDbEntity
  8
0
390
0
100
AcDbVertex
100
AcDb3dPolylineVertex
 10
83.588593
 20
131.302322
 30
0.0
 70
    48
  0
VERTEX
  5
342
100
AcDbEntity
  8
0
390
0
100
AcDbVertex
100
AcDb3dPolylineVertex
 10
83.521561
 20
131.287064
 30
0.0
 70
    40
  0
VERTEX
  5
343
100
AcDbEntity
  8
0
390
0
100
AcDbVertex
100
AcDb3dPolylineVertex
 10
83.588593
 20
131.302322
 30
0.0
 70
    48
  0
VERTEX
  5
344
100
AcDbEntity
  8
0
390
0
100
AcDbVertex
100
AcDb3dPolylineVertex
 10
83.521561
 20
131.287064
 30
0.0
 70
    48
  0
VERTEX
  5
345
100
AcDbEntity
  8
0
390
0
100
AcDbVertex
100
AcDb3dPolylineVertex
 10
83.521561
 20
131.287064
 30
0.0
 70
    48
  0
VERTEX
  5
346
100
AcDbEntity
  8
0
390
0
100
AcDbVertex
100
AcDb3dPolylineVertex
 10
83.543976
 20
131.271652
 30
0.0
 70
    40
  0
VERTEX
  5
347
100
AcDbEntity
  8
0
390
0
100
AcDbVertex
100
AcDb3dPolylineVertex
 10
83.521561
 20
131.287064
 30
0.0
 70
    48
  0
VERTEX
  5
348
100
AcDbEntity
  8
0
390
0
100
AcDbVertex
100
AcDb3dPolylineVertex
 10
83.543976
 20
131.271652
 30
0.0
 70
    48
  0
VERTEX
  5
349
100
AcDbEntity
  8
0
390
0
100
AcDbVertex
100
AcDb3dPolylineVertex
 10
83.543976
 20
131.271652
 30
0.0
 70
    48
  0
VERTEX
  5
34A
100
AcDbEntity
  8
0
390
0
100
AcDbVertex
100
AcDb3dPolylineVertex
 10
83.654922
 20
131.256699
 30
0.0
 70
    40
  0
VERTEX
  5
34B
100
AcDbEntity
  8
0
390
0
100
AcDbVertex
100
AcDb3dPolylineVertex
 10
83.543976
 20
131.271652
 30
0.0
 70
    48
  0
VERTEX
  5
34C
100
AcDbEntity
  8
0
390
0
100
AcDbVertex
100
AcDb3dPolylineVertex
 10
83.654922
 20
131.256699
 30
0.0
 70
    48
  0
VERTEX
  5
34D
100
AcDbEntity
  8
0
390
0
100
AcDbVertex
100
AcDb3dPolylineVertex
 10
83.654922
 20
131.256699
 30
0.0
 70
    48
  0
VERTEX
  5
34E
100
AcDbEntity
  8
0
390
0
100
AcDbVertex
100
AcDb3dPolylineVertex
 10
83.849854
 20
131.242813
 30
0.0
 70
    40
  0
VERTEX
  5
34F
100
AcDbEntity
  8
0
390
0
100
AcDbVertex
100
AcDb3dPolylineVertex
 10
83.654922
 20
131.256699
 30
0.0
 70
    48
  0
VERTEX
  5
350
100
AcDbEntity
  8
0
390
0
100
AcDbVertex
100
AcDb3dPolylineVertex
 10
83.849854
 20
131.242813
 30
0.0
 70
    48
  0
VERTEX
  5
351
100
AcDbEntity
  8
0
390
0
100
AcDbVertex
100
AcDb3dPolylineVertex
 10
83.849854
 20
131.242813
 30
0.0
 70
    48
  0
VERTEX
  5
352
100
AcDbEntity
  8
0
390
0
100
AcDbVertex
100
AcDb3dPolylineVertex
 10
84.120773
 20
131.230606
 30
0.0
 70
    40
  0
VERTEX
  5
353
100
AcDbEntity
  8
0
390
0
100
AcDbVertex
100
AcDb3dPolylineVertex
 10
83.849854
 20
131.242813
 30
0.0
 70
    48
  0
VERTEX
  5
354
100
AcDbEntity
  8
0
390
0
100
AcDbVertex
100
AcDb3dPolylineVertex
 10
84.120773
 20
131.230606
 30
0.0
 70
    48
  0
VERTEX
  5
355
100
AcDbEntity
  8
0
390
0
100
AcDbVertex
100
AcDb3dPolylineVertex
 10
84.120773
 20
131.230606
 30
0.0
 70
    48
  0
VERTEX
  5
356
100
AcDbEntity
  8
0
390
0
100
AcDbVertex
100
AcDb3dPolylineVertex
 10
84.456604
 20
131.220535
 30
0.0
 70
    40
  0
VERTEX
  5
357
100
AcDbEntity
  8
0
390
0
100
AcDbVertex
100
AcDb3dPolylineVertex
 10
84.120773
 20
131.230606
 30
0.0
 70
    48
  0
VERTEX
  5
358
100
AcDbEntity
  8
0
390
0
100
AcDbVertex
100
AcDb3dPolylineVertex
 10
84.456604
 20
131.220535
 30
0.0
 70
    48
  0
VERTEX
  5
359
100
AcDbEntity
  8
0
390
0
100
AcDbVertex
100
AcDb3dPolylineVertex
 10
84.456604
 20
131.220535
 30
0.0
 70
    48
  0
VERTEX
  5
35A
100
AcDbEntity
  8
0
390
0
100
AcDbVertex
100
AcDb3dPolylineVertex
 10
84.843597
 20
131.213058
 30
0.0
 70
    40
  0
VERTEX
  5
35B
100
AcDbEntity
  8
0
390
0
100
AcDbVertex
100
AcDb3dPolylineVertex
 10
84.456604
 20
131.220535
 30
0.0
 70
    48
  0
VERTEX
  5
35C
100
AcDbEntity
  8
0
390
0
100
AcDbVertex
100
AcDb3dPolylineVertex
 10
84.843597
 20
131.213058
 30
0.0
 70
    48
  0
VERTEX
  5
35D
100
AcDbEntity
  8
0
390
0
100
AcDbVertex
100
AcDb3dPolylineVertex
 10
84.843597
 20
131.213058
 30
0.0
 70
    48
  0
VERTEX
  5
35E
100
AcDbEntity
  8
0
390
0
100
AcDbVertex
100
AcDb3dPolylineVertex
 10
85.265915
 20
131.20842
 30
0.0
 70
    40
  0
VERTEX
  5
35F
100
AcDbEntity
  8
0
390
0
100
AcDbVertex
100
AcDb3dPolylineVertex
 10
84.843597
 20
131.213058
 30
0.0
 70
    48
  0
VERTEX
  5
360
100
AcDbEntity
  8
0
390
0
100
AcDbVertex
100
AcDb3dPolylineVertex
 10
85.265915
 20
131.20842
 30
0.0
 70
    48
  0
VERTEX
  5
361
100
AcDbEntity
  8
0
390
0
100
AcDbVertex
100
AcDb3dPolylineVertex
 10
85.265915
 20
131.20842
 30
0.0
 70
    48
  0
VERTEX
  5
362
100
AcDbEntity
  8
0
390
0
100
AcDbVertex
100
AcDb3dPolylineVertex
 10
85.706253
 20
131.206863
 30
0.0
 70
    40
  0
VERTEX
  5
363
100
AcDbEntity
  8
0
390
0
100
AcDbVertex
100
AcDb3dPolylineVertex
 10
85.265915
 20
131.20842
 30
0.0
 70
    48
  0
VERTEX
  5
364
100
AcDbEntity
  8
0
390
0
100
AcDbVertex
100
AcDb3dPolylineVertex
 10
85.706253
 20
131.206863
 30
0.0
 70
    48
  0
VERTEX
  5
365
100
AcDbEntity
  8
0
390
0
100
AcDbVertex
100
AcDb3dPolylineVertex
 10
85.706253
 20
131.206863
 30
0.0
 70
    48
  0
SEQEND
  5
366
100
AcDbEntity
  8
0
390
0
  0
POLYLINE
  5
367
100
AcDbEntity
  8
ARMATUR
390
0
  6
DURCHGEHEND
 62
     7
100
AcDb3dPolyline
 66
     1
 10
0.0
 20
0.0
 30
0.0
 70
    12
 75
     5
  0
VERTEX
  5
368
100
AcDbEntity
  8
0
390
0
100
AcDbVertex
100
AcDb3dPolylineVertex
 10
87.550735
 20
131.317123
 30
0.0
 70
    48
  0
VERTEX
  5
369
100
AcDbEntity
  8
0
390
0
100
AcDbVertex
100
AcDb3dPolylineVertex
 10
87.550735
 20
131.317123
 30
0.0
 70
    40
  0
VERTEX
  5
36A
100
AcDbEntity
  8
0
390
0
100
AcDbVertex
100
AcDb3dPolylineVertex
 10
87.436081
 20
131.311417
 30
0.0
 70
    40
  0
VERTEX
  5
36B
100
AcDbEntity
  8
0
390
0
100
AcDbVertex
100
AcDb3dPolylineVertex
 10
87.550735
 20
131.317123
 30
0.0
 70
    48
  0
VERTEX
  5
36C
100
AcDbEntity
  8
0
390
0
100
AcDbVertex
100
AcDb3dPolylineVertex
 10
87.436081
 20
131.311417
 30
0.0
 70
    48
  0
VERTEX
  5
36D
100
AcDbEntity
  8
0
390
0
100
AcDbVertex
100
AcDb3dPolylineVertex
 10
87.436081
 20
131.311417
 30
0.0
 70
    48
  0
VERTEX
  5
36E
100
AcDbEntity
  8
0
390
0
100
AcDbVertex
100
AcDb3dPolylineVertex
 10
87.131134
 20
131.300217
 30
0.0
 70
    40
  0
VERTEX
  5
36F
100
AcDbEntity
  8
0
390
0
100
AcDbVertex
100
AcDb3dPolylineVertex
 10
87.436081
 20
131.311417
 30
0.0
 70
    48
  0
VERTEX
  5
370
100
AcDbEntity
  8
0
390
0
100
AcDbVertex
100
AcDb3dPolylineVertex
 10
87.131134
 20
131.300217
 30
0.0
 70
    48
  0
VERTEX
  5
371
100
AcDbEntity
  8
0
390
0
100
AcDbVertex
100
AcDb3dPolylineVertex
 10
87.131134
 20
131.300217
 30
0.0
 70
    48
  0
VERTEX
  5
372
100
AcDbEntity
  8
0
390
0
100
AcDbVertex
100
AcDb3dPolylineVertex
 10
86.767853
 20
131.291397
 30
0.0
 70
    40
  0
VERTEX
  5
373
100
AcDbEntity
  8
0
390
0
100
AcDbVertex
100
AcDb3dPolylineVertex
 10
87.131134
 20
131.300217
 30
0.0
 70
    48
  0
VERTEX
  5
374
100
AcDbEntity
  8
0
390
0
100
AcDbVertex
100
AcDb3dPolylineVertex
 10
86.767853
 20
131.291397
 30
0.0
 70
    48
  0
VERTEX
  5
375
100
AcDbEntity
  8
0
390
0
100
AcDbVertex
100
AcDb3dPolylineVertex
 10
86.767853
 20
131.291397
 30
0.0
 70
    48
  0
VERTEX
  5
376
100
AcDbEntity
  8
0
390
0
100
AcDbVertex
100
AcDb3dPolylineVertex
 10
86.361115
 20
131.285324
 30
0.0
 70
    40
  0
VERTEX
  5
377
100
AcDbEntity
  8
0
390
0
100
AcDbVertex
100
AcDb3dPolylineVertex
 10
86.767853
 20
131.291397
 30
0.0
 70
    48
  0
VERTEX
  5
378
100
AcDbEntity
  8
0
390
0
100
AcDbVertex
100
AcDb3dPolylineVertex
 10
86.361115
 20
131.285324
 30
0.0
 70
    48
  0
VERTEX
  5
379
100
AcDbEntity
  8
0
390
0
100
AcDbVertex
100
AcDb3dPolylineVertex
 10
86.361115
 20
131.285324
 30
0.0
 70
    48
  0
VERTEX
  5
37A
100
AcDbEntity
  8
0
390
0
100
AcDbVertex
100
AcDb3dPolylineVertex
 10
85.927567
 20
131.282211
 30
0.0
 70
    40
  0
VERTEX
  5
37B
100
AcDbEntity
  8
0
390
0
100
AcDbVertex
100
AcDb3dPolylineVertex
 10
86.361115
 20
131.285324
 30
0.0
 70
    48
  0
VERTEX
  5
37C
100
AcDbEntity
  8
0
390
0
100
AcDbVertex
100
AcDb3dPolylineVertex
 10
85.927567
 20
131.282211
 30
0.0
 70
    48
  0
VERTEX
  5
37D
100
AcDbEntity
  8
0
390
0
100
AcDbVertex
100
AcDb3dPolylineVertex
 10
85.927567
 20
131.282211
 30
0.0
 70
    48
  0
VERTEX
  5
37E
100
AcDbEntity
  8
0
390
0
100
AcDbVertex
100
AcDb3dPolylineVertex
 10
85.484955
 20
131.282211
 30
0.0
 70
    40
  0
VERTEX
  5
37F
100
AcDbEntity
  8
0
390
0
100
AcDbVertex
100
AcDb3dPolylineVertex
 10
85.927567
 20
131.282211
 30
0.0
 70
    48
  0
VERTEX
  5
380
100
AcDbEntity
  8
0
390
0
100
AcDbVertex
100
AcDb3dPolylineVertex
 10
85.484955
 20
131.282211
 30
0.0
 70
    48
  0
VERTEX
  5
381
100
AcDbEntity
  8
0
390
0
100
AcDbVertex
100
AcDb3dPolylineVertex
 10
85.484955
 20
131.282211
 30
0.0
 70
    48
  0
VERTEX
  5
382
100
AcDbEntity
  8
0
390
0
100
AcDbVertex
100
AcDb3dPolylineVertex
 10
85.051407
 20
131.285324
 30
0.0
 70
    40
  0
VERTEX
  5
383
100
AcDbEntity
  8
0
390
0
100
AcDbVertex
100
AcDb3dPolylineVertex
 10
85.484955
 20
131.282211
 30
0.0
 70
    48
  0
VERTEX
  5
384
100
AcDbEntity
  8
0
390
0
100
AcDbVertex
100
AcDb3dPolylineVertex
 10
85.051407
 20
131.285324
 30
0.0
 70
    48
  0
VERTEX
  5
385
100
AcDbEntity
  8
0
390
0
100
AcDbVertex
100
AcDb3dPolylineVertex
 10
85.051407
 20
131.285324
 30
0.0
 70
    48
  0
VERTEX
  5
386
100
AcDbEntity
  8
0
390
0
100
AcDbVertex
100
AcDb3dPolylineVertex
 10
84.644653
 20
131.291397
 30
0.0
 70
    40
  0
VERTEX
  5
387
100
AcDbEntity
  8
0
390
0
100
AcDbVertex
100
AcDb3dPolylineVertex
 10
85.051407
 20
131.285324
 30
0.0
 70
    48
  0
VERTEX
  5
388
100
AcDbEntity
  8
0
390
0
100
AcDbVertex
100
AcDb3dPolylineVertex
 10
84.644653
 20
131.291397
 30
0.0
 70
    48
  0
VERTEX
  5
389
100
AcDbEntity
  8
0
390
0
100
AcDbVertex
100
AcDb3dPolylineVertex
 10
84.644653
 20
131.291397
 30
0.0
 70
    48
  0
VERTEX
  5
38A
100
AcDbEntity
  8
0
390
0
100
AcDbVertex
100
AcDb3dPolylineVertex
 10
84.281387
 20
131.300217
 30
0.0
 70
    40
  0
VERTEX
  5
38B
100
AcDbEntity
  8
0
390
0
100
AcDbVertex
100
AcDb3dPolylineVertex
 10
84.644653
 20
131.291397
 30
0.0
 70
    48
  0
VERTEX
  5
38C
100
AcDbEntity
  8
0
390
0
100
AcDbVertex
100
AcDb3dPolylineVertex
 10
84.281387
 20
131.300217
 30
0.0
 70
    48
  0
VERTEX
  5
38D
100
AcDbEntity
  8
0
390
0
100
AcDbVertex
100
AcDb3dPolylineVertex
 10
84.281387
 20
131.300217
 30
0.0
 70
    48
  0
VERTEX
  5
38E
100
AcDbEntity
  8
0
390
0
100
AcDbVertex
100
AcDb3dPolylineVertex
 10
83.97644
 20
131.311417
 30
0.0
 70
    40
  0
VERTEX
  5
38F
100
AcDbEntity
  8
0
390
0
100
AcDbVertex
100
AcDb3dPolylineVertex
 10
84.281387
 20
131.300217
 30
0.0
 70
    48
  0
VERTEX
  5
390
100
AcDbEntity
  8
0
390
0
100
AcDbVertex
100
AcDb3dPolylineVertex
 10
83.97644
 20
131.311417
 30
0.0
 70
    48
  0
VERTEX
  5
391
100
AcDbEntity
  8
0
390
0
100
AcDbVertex
100
AcDb3dPolylineVertex
 10
83.97644
 20
131.311417
 30
0.0
 70
    48
  0
VERTEX
  5
392
100
AcDbEntity
  8
0
390
0
100
AcDbVertex
100
AcDb3dPolylineVertex
 10
83.861786
 20
131.317123
 30
0.0
 70
    40
  0
VERTEX
  5
393
100
AcDbEntity
  8
0
390
0
100
AcDbVertex
100
AcDb3dPolylineVertex
 10
83.97644
 20
131.311417
 30
0.0
 70
    48
  0
VERTEX
  5
394
100
AcDbEntity
  8
0
390
0
100
AcDbVertex
100
AcDb3dPolylineVertex
 10
83.861786
 20
131.317123
 30
0.0
 70
    48
  0
VERTEX
  5
395
100
AcDbEntity
  8
0
390
0
100
AcDbVertex
100
AcDb3dPolylineVertex
 10
83.861786
 20
131.317123
 30
0.0
 70
    48
  0
SEQEND
  5
396
100
AcDbEntity
  8
0
390
0
  0
LINE
  5
397
100
AcDbEntity
  8
ARMATUR
390
0
  6
DURCHGEHEND
 62
     7
100
AcDbLine
 10
84.355499
 20
131.331619
 30
0.0
 11
84.475891
 21
131.327438
 31
0.0
  0
LINE
  5
398
100
AcDbEntity
  8
ARMATUR
390
0
  6
DURCHGEHEND
 62
     7
100
AcDbLine
 10
84.475891
 20
131.327438
 30
0.0
 11
84.741058
 21
131.336685
 31
0.0
  0
LINE
  5
399
100
AcDbEntity
  8
ARMATUR
390
0
  6
DURCHGEHEND
 62
     7
100
AcDbLine
 10
84.741058
 20
131.336685
 30
0.0
 11
84.700668
 21
131.338089
 31
0.0
  0
LINE
  5
39A
100
AcDbEntity
  8
ARMATUR
390
0
  6
DURCHGEHEND
 62
     7
100
AcDbLine
 10
86.056274
 20
131.293747
 30
0.0
 11
86.312531
 21
131.284805
 31
0.0
  0
LINE
  5
39B
100
AcDbEntity
  8
ARMATUR
390
0
  6
DURCHGEHEND
 62
     7
100
AcDbLine
 10
86.337799
 20
131.285049
 30
0.0
 11
86.586609
 21
131.293747
 31
0.0
  0
LINE
  5
39C
100
AcDbEntity
  8
ARMATUR
390
0
  6
DURCHGEHEND
 62
     7
100
AcDbLine
 10
86.586609
 20
131.293747
 30
0.0
 11
86.321442
 21
131.302994
 31
0.0
  0
LINE
  5
39D
100
AcDbEntity
  8
ARMATUR
390
0
  6
DURCHGEHEND
 62
     7
100
AcDbLine
 10
86.321442
 20
131.302994
 30
0.0
 11
86.056274
 21
131.293747
 31
0.0
  0
LINE
  5
39E
100
AcDbEntity
  8
ARMATUR
390
0
  6
DURCHGEHEND
 62
     7
100
AcDbLine
 10
86.671463
 20
131.315231
 30
0.0
 11
86.93663
 21
131.305954
 31
0.0
  0
LINE
  5
39F
100
AcDbEntity
  8
ARMATUR
390
0
  6
DURCHGEHEND
 62
     7
100
AcDbLine
 10
86.93663
 20
131.305954
 30
0.0
 11
87.201782
 21
131.315231
 31
0.0
  0
LINE
  5
3A0
100
AcDbEntity
  8
ARMATUR
390
0
  6
DURCHGEHEND
 62
     7
100
AcDbLine
 10
87.201782
 20
131.315231
 30
0.0
 11
86.93663
 21
131.324478
 31
0.0
  0
LINE
  5
3A1
100
AcDbEntity
  8
ARMATUR
390
0
  6
DURCHGEHEND
 62
     7
100
AcDbLine
 10
86.93663
 20
131.324478
 30
0.0
 11
86.671463
 21
131.315231
 31
0.0
  0
LINE
  5
3A2
100
AcDbEntity
  8
ARMATUR
390
0
  6
DURCHGEHEND
 62
     7
100
AcDbLine
 10
86.671463
 20
131.336685
 30
0.0
 11
86.93663
 21
131.327438
 31
0.0
  0
LINE
  5
3A3
100
AcDbEntity
  8
ARMATUR
390
0
  6
DURCHGEHEND
 62
     7
100
AcDbLine
 10
86.93663
 20
131.327438
 30
0.0
 11
87.057022
 21
131.331619
 31
0.0
  0
LINE
  5
3A4
100
AcDbEntity
  8
ARMATUR
390
0
  6
DURCHGEHEND
 62
     7
100
AcDbLine
 10
86.711853
 20
131.338089
 30
0.0
 11
86.671463
 21
131.336685
 31
0.0
  0
LINE
  5
3A5
100
AcDbEntity
  8
ARMATUR
390
0
  6
DURCHGEHEND
 62
     7
100
AcDbLine
 10
85.441101
 20
131.293747
 30
0.0
 11
85.706253
 21
131.2845
 31
0.0
  0
LINE
  5
3A6
100
AcDbEntity
  8
ARMATUR
390
0
  6
DURCHGEHEND
 62
     7
100
AcDbLine
 10
85.706253
 20
131.2845
 30
0.0
 11
85.97142
 21
131.293747
 31
0.0
  0
LINE
  5
3A7
100
AcDbEntity
  8
ARMATUR
390
0
  6
DURCHGEHEND
 62
     7
100
AcDbLine
 10
85.97142
 20
131.293747
 30
0.0
 11
85.706253
 21
131.302994
 31
0.0
  0
LINE
  5
3A8
100
AcDbEntity
  8
ARMATUR
390
0
  6
DURCHGEHEND
 62
     7
100
AcDbLine
 10
85.706253
 20
131.302994
 30
0.0
 11
85.441101
 21
131.293747
 31
0.0
  0
LINE
  5
3A9
100
AcDbEntity
  8
ARMATUR
390
0
  6
DURCHGEHEND
 62
     7
100
AcDbLine
 10
86.056274
 20
131.315231
 30
0.0
 11
86.321442
 21
131.305954
 31
0.0
  0
LINE
  5
3AA
100
AcDbEntity
  8
ARMATUR
390
0
  6
DURCHGEHEND
 62
     7
100
AcDbLine
 10
86.321442
 20
131.305954
 30
0.0
 11
86.586609
 21
131.315231
 31
0.0
  0
LINE
  5
3AB
100
AcDbEntity
  8
ARMATUR
390
0
  6
DURCHGEHEND
 62
     7
100
AcDbLine
 10
86.586609
 20
131.315231
 30
0.0
 11
86.321442
 21
131.324478
 31
0.0
  0
LINE
  5
3AC
100
AcDbEntity
  8
ARMATUR
390
0
  6
DURCHGEHEND
 62
     7
100
AcDbLine
 10
86.321442
 20
131.324478
 30
0.0
 11
86.056274
 21
131.315231
 31
0.0
  0
LINE
  5
3AD
100
AcDbEntity
  8
ARMATUR
390
0
  6
DURCHGEHEND
 62
     7
100
AcDbLine
 10
84.825912
 20
131.293747
 30
0.0
 11
85.074707
 21
131.285049
 31
0.0
  0
LINE
  5
3AE
100
AcDbEntity
  8
ARMATUR
390
0
  6
DURCHGEHEND
 62
     7
100
AcDbLine
 10
85.099976
 20
131.284805
 30
0.0
 11
85.356247
 21
131.293747
 31
0.0
  0
LINE
  5
3AF
100
AcDbEntity
  8
ARMATUR
390
0
  6
DURCHGEHEND
 62
     7
100
AcDbLine
 10
85.356247
 20
131.293747
 30
0.0
 11
85.09108
 21
131.302994
 31
0.0
  0
LINE
  5
3B0
100
AcDbEntity
  8
ARMATUR
390
0
  6
DURCHGEHEND
 62
     7
100
AcDbLine
 10
85.09108
 20
131.302994
 30
0.0
 11
84.825912
 21
131.293747
 31
0.0
  0
LINE
  5
3B1
100
AcDbEntity
  8
ARMATUR
390
0
  6
DURCHGEHEND
 62
     7
100
AcDbLine
 10
85.441101
 20
131.315231
 30
0.0
 11
85.706253
 21
131.305954
 31
0.0
  0
LINE
  5
3B2
100
AcDbEntity
  8
ARMATUR
390
0
  6
DURCHGEHEND
 62
     7
100
AcDbLine
 10
85.706253
 20
131.305954
 30
0.0
 11
85.97142
 21
131.315231
 31
0.0
  0
LINE
  5
3B3
100
AcDbEntity
  8
ARMATUR
390
0
  6
DURCHGEHEND
 62
     7
100
AcDbLine
 10
85.97142
 20
131.315231
 30
0.0
 11
85.706253
 21
131.324478
 31
0.0
  0
LINE
  5
3B4
100
AcDbEntity
  8
ARMATUR
390
0
  6
DURCHGEHEND
 62
     7
100
AcDbLine
 10
85.706253
 20
131.324478
 30
0.0
 11
85.441101
 21
131.315231
 31
0.0
  0
LINE
  5
3B5
100
AcDbEntity
  8
ARMATUR
390
0
  6
DURCHGEHEND
 62
     7
100
AcDbLine
 10
86.056274
 20
131.336685
 30
0.0
 11
86.321442
 21
131.327438
 31
0.0
  0
LINE
  5
3B6
100
AcDbEntity
  8
ARMATUR
390
0
  6
DURCHGEHEND
 62
     7
100
AcDbLine
 10
86.321442
 20
131.327438
 30
0.0
 11
86.586609
 21
131.336685
 31
0.0
  0
LINE
  5
3B7
100
AcDbEntity
  8
ARMATUR
390
0
  6
DURCHGEHEND
 62
     7
100
AcDbLine
 10
86.586609
 20
131.336685
 30
0.0
 11
86.447449
 21
131.341537
 31
0.0
  0
LINE
  5
3B8
100
AcDbEntity
  8
ARMATUR
390
0
  6
DURCHGEHEND
 62
     7
100
AcDbLine
 10
86.248352
 20
131.343399
 30
0.0
 11
86.056274
 21
131.336685
 31
0.0
  0
LINE
  5
3B9
100
AcDbEntity
  8
ARMATUR
390
0
  6
DURCHGEHEND
 62
     7
100
AcDbLine
 10
84.825912
 20
131.315231
 30
0.0
 11
85.09108
 21
131.305954
 31
0.0
  0
LINE
  5
3BA
100
AcDbEntity
  8
ARMATUR
390
0
  6
DURCHGEHEND
 62
     7
100
AcDbLine
 10
85.09108
 20
131.305954
 30
0.0
 11
85.356247
 21
131.315231
 31
0.0
  0
LINE
  5
3BB
100
AcDbEntity
  8
ARMATUR
390
0
  6
DURCHGEHEND
 62
     7
100
AcDbLine
 10
85.356247
 20
131.315231
 30
0.0
 11
85.09108
 21
131.324478
 31
0.0
  0
LINE
  5
3BC
100
AcDbEntity
  8
ARMATUR
390
0
  6
DURCHGEHEND
 62
     7
100
AcDbLine
 10
85.09108
 20
131.324478
 30
0.0
 11
84.825912
 21
131.315231
 31
0.0
  0
LINE
  5
3BD
100
AcDbEntity
  8
ARMATUR
390
0
  6
DURCHGEHEND
 62
     7
100
AcDbLine
 10
85.441101
 20
131.336685
 30
0.0
 11
85.706253
 21
131.327438
 31
0.0
  0
LINE
  5
3BE
100
AcDbEntity
  8
ARMATUR
390
0
  6
DURCHGEHEND
 62
     7
100
AcDbLine
 10
85.706253
 20
131.327438
 30
0.0
 11
85.97142
 21
131.336685
 31
0.0
  0
LINE
  5
3BF
100
AcDbEntity
  8
ARMATUR
390
0
  6
DURCHGEHEND
 62
     7
100
AcDbLine
 10
85.97142
 20
131.336685
 30
0.0
 11
85.71991
 21
131.345474
 31
0.0
  0
LINE
  5
3C0
100
AcDbEntity
  8
ARMATUR
390
0
  6
DURCHGEHEND
 62
     7
100
AcDbLine
 10
85.692612
 20
131.345474
 30
0.0
 11
85.441101
 21
131.336685
 31
0.0
  0
LINE
  5
3C1
100
AcDbEntity
  8
ARMATUR
390
0
  6
DURCHGEHEND
 62
     7
100
AcDbLine
 10
84.210724
 20
131.315231
 30
0.0
 11
84.475891
 21
131.305954
 31
0.0
  0
LINE
  5
3C2
100
AcDbEntity
  8
ARMATUR
390
0
  6
DURCHGEHEND
 62
     7
100
AcDbLine
 10
84.475891
 20
131.305954
 30
0.0
 11
84.741058
 21
131.315231
 31
0.0
  0
LINE
  5
3C3
100
AcDbEntity
  8
ARMATUR
390
0
  6
DURCHGEHEND
 62
     7
100
AcDbLine
 10
84.741058
 20
131.315231
 30
0.0
 11
84.475891
 21
131.324478
 31
0.0
  0
LINE
  5
3C4
100
AcDbEntity
  8
ARMATUR
390
0
  6
DURCHGEHEND
 62
     7
100
AcDbLine
 10
84.475891
 20
131.324478
 30
0.0
 11
84.210724
 21
131.315231
 31
0.0
  0
LINE
  5
3C5
100
AcDbEntity
  8
ARMATUR
390
0
  6
DURCHGEHEND
 62
     7
100
AcDbLine
 10
84.825912
 20
131.336685
 30
0.0
 11
85.09108
 21
131.327438
 31
0.0
  0
LINE
  5
3C6
100
AcDbEntity
  8
ARMATUR
390
0
  6
DURCHGEHEND
 62
     7
100
AcDbLine
 10
85.09108
 20
131.327438
 30
0.0
 11
85.356247
 21
131.336685
 31
0.0
  0
LINE
  5
3C7
100
AcDbEntity
  8
ARMATUR
390
0
  6
DURCHGEHEND
 62
     7
100
AcDbLine
 10
85.356247
 20
131.336685
 30
0.0
 11
85.164169
 21
131.343399
 31
0.0
  0
LINE
  5
3C8
100
AcDbEntity
  8
ARMATUR
390
0
  6
DURCHGEHEND
 62
     7
100
AcDbLine
 10
84.965073
 20
131.341537
 30
0.0
 11
84.825912
 21
131.336685
 31
0.0
  0
LINE
  5
3C9
100
AcDbEntity
  8
ARMATUR
390
0
  6
DURCHGEHEND
 62
     7
100
AcDbLine
 10
85.234467
 20
131.343887
 30
0.0
 11
85.398666
 21
131.338181
 31
0.0
  0
LINE
  5
3CA
100
AcDbEntity
  8
ARMATUR
390
0
  6
DURCHGEHEND
 62
     7
100
AcDbLine
 10
85.398666
 20
131.338181
 30
0.0
 11
85.605774
 21
131.345383
 31
0.0
  0
LINE
  5
3CB
100
AcDbEntity
  8
ARMATUR
390
0
  6
DURCHGEHEND
 62
     7
100
AcDbLine
 10
84.518311
 20
131.325943
 30
0.0
 11
84.783478
 21
131.316696
 31
0.0
  0
LINE
  5
3CC
100
AcDbEntity
  8
ARMATUR
390
0
  6
DURCHGEHEND
 62
     7
100
AcDbLine
 10
84.783478
 20
131.316696
 30
0.0
 11
85.048645
 21
131.325943
 31
0.0
  0
LINE
  5
3CD
100
AcDbEntity
  8
ARMATUR
390
0
  6
DURCHGEHEND
 62
     7
100
AcDbLine
 10
85.048645
 20
131.325943
 30
0.0
 11
84.783478
 21
131.33522
 31
0.0
  0
LINE
  5
3CE
100
AcDbEntity
  8
ARMATUR
390
0
  6
DURCHGEHEND
 62
     7
100
AcDbLine
 10
84.783478
 20
131.33522
 30
0.0
 11
84.518311
 21
131.325943
 31
0.0
  0
LINE
  5
3CF
100
AcDbEntity
  8
ARMATUR
390
0
  6
DURCHGEHEND
 62
     7
100
AcDbLine
 10
85.806732
 20
131.345383
 30
0.0
 11
86.013855
 21
131.338181
 31
0.0
  0
LINE
  5
3D0
100
AcDbEntity
  8
ARMATUR
390
0
  6
DURCHGEHEND
 62
     7
100
AcDbLine
 10
86.013855
 20
131.338181
 30
0.0
 11
86.178055
 21
131.343887
 31
0.0
  0
LINE
  5
3D1
100
AcDbEntity
  8
ARMATUR
390
0
  6
DURCHGEHEND
 62
     7
100
AcDbLine
 10
85.133499
 20
131.325943
 30
0.0
 11
85.398666
 21
131.316696
 31
0.0
  0
LINE
  5
3D2
100
AcDbEntity
  8
ARMATUR
390
0
  6
DURCHGEHEND
 62
     7
100
AcDbLine
 10
85.398666
 20
131.316696
 30
0.0
 11
85.663834
 21
131.325943
 31
0.0
  0
LINE
  5
3D3
100
AcDbEntity
  8
ARMATUR
390
0
  6
DURCHGEHEND
 62
     7
100
AcDbLine
 10
85.663834
 20
131.325943
 30
0.0
 11
85.398666
 21
131.33522
 31
0.0
  0
LINE
  5
3D4
100
AcDbEntity
  8
ARMATUR
390
0
  6
DURCHGEHEND
 62
     7
100
AcDbLine
 10
85.398666
 20
131.33522
 30
0.0
 11
85.133499
 21
131.325943
 31
0.0
  0
LINE
  5
3D5
100
AcDbEntity
  8
ARMATUR
390
0
  6
DURCHGEHEND
 62
     7
100
AcDbLine
 10
84.518311
 20
131.304489
 30
0.0
 11
84.783478
 21
131.295242
 31
0.0
  0
LINE
  5
3D6
100
AcDbEntity
  8
ARMATUR
390
0
  6
DURCHGEHEND
 62
     7
100
AcDbLine
 10
84.783478
 20
131.295242
 30
0.0
 11
85.048645
 21
131.304489
 31
0.0
  0
LINE
  5
3D7
100
AcDbEntity
  8
ARMATUR
390
0
  6
DURCHGEHEND
 62
     7
100
AcDbLine
 10
85.048645
 20
131.304489
 30
0.0
 11
84.783478
 21
131.313736
 31
0.0
  0
LINE
  5
3D8
100
AcDbEntity
  8
ARMATUR
390
0
  6
DURCHGEHEND
 62
     7
100
AcDbLine
 10
84.783478
 20
131.313736
 30
0.0
 11
84.518311
 21
131.304489
 31
0.0
  0
LINE
  5
3D9
100
AcDbEntity
  8
ARMATUR
390
0
  6
DURCHGEHEND
 62
     7
100
AcDbLine
 10
85.748688
 20
131.325943
 30
0.0
 11
86.013855
 21
131.316696
 31
0.0
  0
LINE
  5
3DA
100
AcDbEntity
  8
ARMATUR
390
0
  6
DURCHGEHEND
 62
     7
100
AcDbLine
 10
86.013855
 20
131.316696
 30
0.0
 11
86.279022
 21
131.325943
 31
0.0
  0
LINE
  5
3DB
100
AcDbEntity
  8
ARMATUR
390
0
  6
DURCHGEHEND
 62
     7
100
AcDbLine
 10
86.279022
 20
131.325943
 30
0.0
 11
86.013855
 21
131.33522
 31
0.0
  0
LINE
  5
3DC
100
AcDbEntity
  8
ARMATUR
390
0
  6
DURCHGEHEND
 62
     7
100
AcDbLine
 10
86.013855
 20
131.33522
 30
0.0
 11
85.748688
 21
131.325943
 31
0.0
  0
LINE
  5
3DD
100
AcDbEntity
  8
ARMATUR
390
0
  6
DURCHGEHEND
 62
     7
100
AcDbLine
 10
85.133499
 20
131.304489
 30
0.0
 11
85.398666
 21
131.295242
 31
0.0
  0
LINE
  5
3DE
100
AcDbEntity
  8
ARMATUR
390
0
  6
DURCHGEHEND
 62
     7
100
AcDbLine
 10
85.398666
 20
131.295242
 30
0.0
 11
85.663834
 21
131.304489
 31
0.0
  0
LINE
  5
3DF
100
AcDbEntity
  8
ARMATUR
390
0
  6
DURCHGEHEND
 62
     7
100
AcDbLine
 10
85.663834
 20
131.304489
 30
0.0
 11
85.398666
 21
131.313736
 31
0.0
  0
LINE
  5
3E0
100
AcDbEntity
  8
ARMATUR
390
0
  6
DURCHGEHEND
 62
     7
100
AcDbLine
 10
85.398666
 20
131.313736
 30
0.0
 11
85.133499
 21
131.304489
 31
0.0
  0
LINE
  5
3E1
100
AcDbEntity
  8
ARMATUR
390
0
  6
DURCHGEHEND
 62
     7
100
AcDbLine
 10
86.576111
 20
131.340012
 30
0.0
 11
86.629028
 21
131.338181
 31
0.0
  0
LINE
  5
3E2
100
AcDbEntity
  8
ARMATUR
390
0
  6
DURCHGEHEND
 62
     7
100
AcDbLine
 10
86.629028
 20
131.338181
 30
0.0
 11
86.652267
 21
131.338974
 31
0.0
  0
LINE
  5
3E3
100
AcDbEntity
  8
ARMATUR
390
0
  6
DURCHGEHEND
 62
     7
100
AcDbLine
 10
86.363861
 20
131.325943
 30
0.0
 11
86.629028
 21
131.316696
 31
0.0
  0
LINE
  5
3E4
100
AcDbEntity
  8
ARMATUR
390
0
  6
DURCHGEHEND
 62
     7
100
AcDbLine
 10
86.629028
 20
131.316696
 30
0.0
 11
86.894196
 21
131.325943
 31
0.0
  0
LINE
  5
3E5
100
AcDbEntity
  8
ARMATUR
390
0
  6
DURCHGEHEND
 62
     7
100
AcDbLine
 10
86.894196
 20
131.325943
 30
0.0
 11
86.629028
 21
131.33522
 31
0.0
  0
LINE
  5
3E6
100
AcDbEntity
  8
ARMATUR
390
0
  6
DURCHGEHEND
 62
     7
100
AcDbLine
 10
86.629028
 20
131.33522
 30
0.0
 11
86.363861
 21
131.325943
 31
0.0
  0
LINE
  5
3E7
100
AcDbEntity
  8
ARMATUR
390
0
  6
DURCHGEHEND
 62
     7
100
AcDbLine
 10
85.748688
 20
131.304489
 30
0.0
 11
86.013855
 21
131.295242
 31
0.0
  0
LINE
  5
3E8
100
AcDbEntity
  8
ARMATUR
390
0
  6
DURCHGEHEND
 62
     7
100
AcDbLine
 10
86.013855
 20
131.295242
 30
0.0
 11
86.279022
 21
131.304489
 31
0.0
  0
LINE
  5
3E9
100
AcDbEntity
  8
ARMATUR
390
0
  6
DURCHGEHEND
 62
     7
100
AcDbLine
 10
86.279022
 20
131.304489
 30
0.0
 11
86.013855
 21
131.313736
 31
0.0
  0
LINE
  5
3EA
100
AcDbEntity
  8
ARMATUR
390
0
  6
DURCHGEHEND
 62
     7
100
AcDbLine
 10
86.013855
 20
131.313736
 30
0.0
 11
85.748688
 21
131.304489
 31
0.0
  0
LINE
  5
3EB
100
AcDbEntity
  8
ARMATUR
390
0
  6
DURCHGEHEND
 62
     7
100
AcDbLine
 10
86.363861
 20
131.304489
 30
0.0
 11
86.629028
 21
131.295242
 31
0.0
  0
LINE
  5
3EC
100
AcDbEntity
  8
ARMATUR
390
0
  6
DURCHGEHEND
 62
     7
100
AcDbLine
 10
86.629028
 20
131.295242
 30
0.0
 11
86.894196
 21
131.304489
 31
0.0
  0
LINE
  5
3ED
100
AcDbEntity
  8
ARMATUR
390
0
  6
DURCHGEHEND
 62
     7
100
AcDbLine
 10
86.894196
 20
131.304489
 30
0.0
 11
86.629028
 21
131.313736
 31
0.0
  0
LINE
  5
3EE
100
AcDbEntity
  8
ARMATUR
390
0
  6
DURCHGEHEND
 62
     7
100
AcDbLine
 10
86.629028
 20
131.313736
 30
0.0
 11
86.363861
 21
131.304489
 31
0.0
  0
LINE
  5
3EF
100
AcDbEntity
  8
ARMATUR
390
0
  6
DURCHGEHEND
 62
     7
100
AcDbLine
 10
86.97905
 20
131.325943
 30
0.0
 11
87.244217
 21
131.316696
 31
0.0
  0
LINE
  5
3F0
100
AcDbEntity
  8
ARMATUR
390
0
  6
DURCHGEHEND
 62
     7
100
AcDbLine
 10
87.244217
 20
131.316696
 30
0.0
 11
87.403824
 21
131.322281
 31
0.0
  0
LINE
  5
3F1
100
AcDbEntity
  8
ARMATUR
390
0
  6
DURCHGEHEND
 62
     7
100
AcDbLine
 10
87.108154
 20
131.33046
 30
0.0
 11
86.97905
 21
131.325943
 31
0.0
  0
LINE
  5
3F2
100
AcDbEntity
  8
ARMATUR
390
0
  6
DURCHGEHEND
 62
     7
100
AcDbLine
 10
84.760254
 20
131.338974
 30
0.0
 11
84.783478
 21
131.338181
 31
0.0
  0
LINE
  5
3F3
100
AcDbEntity
  8
ARMATUR
390
0
  6
DURCHGEHEND
 62
     7
100
AcDbLine
 10
84.783478
 20
131.338181
 30
0.0
 11
84.836411
 21
131.340012
 31
0.0
  0
LINE
  5
3F4
100
AcDbEntity
  8
ARMATUR
390
0
  6
DURCHGEHEND
 62
     7
100
AcDbLine
 10
84.008698
 20
131.322281
 30
0.0
 11
84.168304
 21
131.316696
 31
0.0
  0
LINE
  5
3F5
100
AcDbEntity
  8
ARMATUR
390
0
  6
DURCHGEHEND
 62
     7
100
AcDbLine
 10
84.168304
 20
131.316696
 30
0.0
 11
84.433472
 21
131.325943
 31
0.0
  0
LINE
  5
3F6
100
AcDbEntity
  8
ARMATUR
390
0
  6
DURCHGEHEND
 62
     7
100
AcDbLine
 10
84.433472
 20
131.325943
 30
0.0
 11
84.304367
 21
131.33046
 31
0.0
  0
LINE
  5
3F7
100
AcDbEntity
  8
ARMATUR
390
0
  6
DURCHGEHEND
 62
     7
100
AcDbLine
 10
83.994385
 20
131.310623
 30
0.0
 11
84.12587
 21
131.315231
 31
0.0
  0
LINE
  5
3F8
100
AcDbEntity
  8
ARMATUR
390
0
  6
DURCHGEHEND
 62
     7
100
AcDbLine
 10
84.12587
 20
131.315231
 30
0.0
 11
83.965118
 21
131.320816
 31
0.0
  0
LINE
  5
3F9
100
AcDbEntity
  8
ARMATUR
390
0
  6
DURCHGEHEND
 62
     7
100
AcDbLine
 10
87.447388
 20
131.320816
 30
0.0
 11
87.286652
 21
131.315231
 31
0.0
  0
LINE
  5
3FA
100
AcDbEntity
  8
ARMATUR
390
0
  6
DURCHGEHEND
 62
     7
100
AcDbLine
 10
87.286652
 20
131.315231
 30
0.0
 11
87.418137
 21
131.310623
 31
0.0
  0
LINE
  5
3FB
100
AcDbEntity
  8
ARMATUR
390
0
  6
DURCHGEHEND
 62
     7
100
AcDbLine
 10
87.424301
 20
131.307449
 30
0.0
 11
87.462601
 21
131.309067
 31
0.0
  0
LINE
  5
3FC
100
AcDbEntity
  8
ARMATUR
390
0
  6
DURCHGEHEND
 62
     7
100
AcDbLine
 10
87.424301
 20
131.307449
 30
0.0
 11
87.415436
 21
131.307755
 31
0.0
  0
LINE
  5
3FD
100
AcDbEntity
  8
ARMATUR
390
0
  6
DURCHGEHEND
 62
     7
100
AcDbLine
 10
87.379944
 20
131.309006
 30
0.0
 11
87.244217
 21
131.313736
 31
0.0
  0
LINE
  5
3FE
100
AcDbEntity
  8
ARMATUR
390
0
  6
DURCHGEHEND
 62
     7
100
AcDbLine
 10
87.244217
 20
131.313736
 30
0.0
 11
86.97905
 21
131.304489
 31
0.0
  0
LINE
  5
3FF
100
AcDbEntity
  8
ARMATUR
390
0
  6
DURCHGEHEND
 62
     7
100
AcDbLine
 10
86.97905
 20
131.304489
 30
0.0
 11
87.114777
 21
131.299759
 31
0.0
  0
LINE
  5
400
100
AcDbEntity
  8
ARMATUR
390
0
  6
DURCHGEHEND
 62
     7
100
AcDbLine
 10
87.112579
 20
131.29686
 30
0.0
 11
87.159134
 21
131.298203
 31
0.0
  0
LINE
  5
401
100
AcDbEntity
  8
ARMATUR
390
0
  6
DURCHGEHEND
 62
     7
100
AcDbLine
 10
87.068115
 20
131.298416
 30
0.0
 11
86.93663
 21
131.302994
 31
0.0
  0
LINE
  5
402
100
AcDbEntity
  8
ARMATUR
390
0
  6
DURCHGEHEND
 62
     7
100
AcDbLine
 10
86.93663
 20
131.302994
 30
0.0
 11
86.671463
 21
131.293747
 31
0.0
  0
LINE
  5
403
100
AcDbEntity
  8
ARMATUR
390
0
  6
DURCHGEHEND
 62
     7
100
AcDbLine
 10
86.671463
 20
131.293747
 30
0.0
 11
86.748932
 21
131.291031
 31
0.0
  0
LINE
  5
404
100
AcDbEntity
  8
ARMATUR
390
0
  6
DURCHGEHEND
 62
     7
100
AcDbLine
 10
86.739685
 20
131.288406
 30
0.0
 11
86.794968
 21
131.289444
 31
0.0
  0
LINE
  5
405
100
AcDbEntity
  8
ARMATUR
390
0
  6
DURCHGEHEND
 62
     7
100
AcDbLine
 10
86.739685
 20
131.288406
 30
0.0
 11
86.730408
 21
131.288742
 31
0.0
  0
LINE
  5
406
100
AcDbEntity
  8
ARMATUR
390
0
  6
DURCHGEHEND
 62
     7
100
AcDbLine
 10
86.693237
 20
131.290024
 30
0.0
 11
86.629028
 21
131.292252
 31
0.0
  0
LINE
  5
407
100
AcDbEntity
  8
ARMATUR
390
0
  6
DURCHGEHEND
 62
     7
100
AcDbLine
 10
86.629028
 20
131.292252
 30
0.0
 11
86.465485
 21
131.286545
 31
0.0
  0
LINE
  5
408
100
AcDbEntity
  8
ARMATUR
390
0
  6
DURCHGEHEND
 62
     7
100
AcDbLine
 10
86.245789
 20
131.284164
 30
0.0
 11
86.013855
 21
131.292252
 31
0.0
  0
LINE
  5
409
100
AcDbEntity
  8
ARMATUR
390
0
  6
DURCHGEHEND
 62
     7
100
AcDbLine
 10
86.013855
 20
131.292252
 30
0.0
 11
85.748688
 21
131.283005
 31
0.0
  0
LINE
  5
40A
100
AcDbEntity
  8
ARMATUR
390
0
  6
DURCHGEHEND
 62
     7
100
AcDbLine
 10
85.748688
 20
131.283005
 30
0.0
 11
85.781738
 21
131.281845
 31
0.0
  0
LINE
  5
40B
100
AcDbEntity
  8
ARMATUR
390
0
  6
DURCHGEHEND
 62
     7
100
AcDbLine
 10
85.630768
 20
131.281845
 30
0.0
 11
85.663834
 21
131.283005
 31
0.0
  0
LINE
  5
40C
100
AcDbEntity
  8
ARMATUR
390
0
  6
DURCHGEHEND
 62
     7
100
AcDbLine
 10
85.663834
 20
131.283005
 30
0.0
 11
85.398666
 21
131.292252
 31
0.0
  0
LINE
  5
40D
100
AcDbEntity
  8
ARMATUR
390
0
  6
DURCHGEHEND
 62
     7
100
AcDbLine
 10
85.398666
 20
131.292252
 30
0.0
 11
85.166718
 21
131.284164
 31
0.0
  0
LINE
  5
40E
100
AcDbEntity
  8
ARMATUR
390
0
  6
DURCHGEHEND
 62
     7
100
AcDbLine
 10
85.046661
 20
131.283066
 30
0.0
 11
85.164063
 21
131.281937
 31
0.0
  0
LINE
  5
40F
100
AcDbEntity
  8
ARMATUR
390
0
  6
DURCHGEHEND
 62
     7
100
AcDbLine
 10
85.046661
 20
131.283096
 30
0.0
 11
85.027603
 21
131.283737
 31
0.0
  0
LINE
  5
410
100
AcDbEntity
  8
ARMATUR
390
0
  6
DURCHGEHEND
 62
     7
100
AcDbLine
 10
84.947021
 20
131.286545
 30
0.0
 11
84.783478
 21
131.292252
 31
0.0
  0
LINE
  5
411
100
AcDbEntity
  8
ARMATUR
390
0
  6
DURCHGEHEND
 62
     7
100
AcDbLine
 10
84.783478
 20
131.292252
 30
0.0
 11
84.719269
 21
131.290024
 31
0.0
  0
LINE
  5
412
100
AcDbEntity
  8
ARMATUR
390
0
  6
DURCHGEHEND
 62
     7
100
AcDbLine
 10
84.663589
 20
131.291031
 30
0.0
 11
84.741058
 21
131.293747
 31
0.0
  0
LINE
  5
413
100
AcDbEntity
  8
ARMATUR
390
0
  6
DURCHGEHEND
 62
     7
100
AcDbLine
 10
84.741058
 20
131.293747
 30
0.0
 11
84.475891
 21
131.302994
 31
0.0
  0
LINE
  5
414
100
AcDbEntity
  8
ARMATUR
390
0
  6
DURCHGEHEND
 62
     7
100
AcDbLine
 10
84.475891
 20
131.302994
 30
0.0
 11
84.344406
 21
131.298416
 31
0.0
  0
LINE
  5
415
100
AcDbEntity
  8
ARMATUR
390
0
  6
DURCHGEHEND
 62
     7
100
AcDbLine
 10
84.297729
 20
131.299759
 30
0.0
 11
84.433472
 21
131.304489
 31
0.0
  0
LINE
  5
416
100
AcDbEntity
  8
ARMATUR
390
0
  6
DURCHGEHEND
 62
     7
100
AcDbLine
 10
84.433472
 20
131.304489
 30
0.0
 11
84.168304
 21
131.313736
 31
0.0
  0
LINE
  5
417
100
AcDbEntity
  8
ARMATUR
390
0
  6
DURCHGEHEND
 62
     7
100
AcDbLine
 10
84.168304
 20
131.313736
 30
0.0
 11
84.032578
 21
131.309006
 31
0.0
  0
LINE
  5
418
100
AcDbEntity
  8
ARMATUR
390
0
  6
DURCHGEHEND
 62
     7
100
AcDbLine
 10
86.629028
 20
131.338181
 30
0.0
 11
86.629028
 21
131.33931
 31
0.0
  0
LINE
  5
419
100
AcDbEntity
  8
ARMATUR
390
0
  6
DURCHGEHEND
 62
     7
100
AcDbLine
 10
84.783478
 20
131.338181
 30
0.0
 11
84.783478
 21
131.33931
 31
0.0
  0
LINE
  5
41A
100
AcDbEntity
  8
ARMATUR
390
0
  6
DURCHGEHEND
 62
     7
100
AcDbLine
 10
85.398666
 20
131.338181
 30
0.0
 11
85.398666
 21
131.344803
 31
0.0
  0
LINE
  5
41B
100
AcDbEntity
  8
ARMATUR
390
0
  6
DURCHGEHEND
 62
     7
100
AcDbLine
 10
86.013855
 20
131.338181
 30
0.0
 11
86.013855
 21
131.344803
 31
0.0
  0
LINE
  5
41C
100
AcDbEntity
  8
ARMATUR
390
0
  6
DURCHGEHEND
 62
     7
100
AcDbLine
 10
86.321442
 20
131.327438
 30
0.0
 11
86.321442
 21
131.342789
 31
0.0
  0
LINE
  5
41D
100
AcDbEntity
  8
ARMATUR
390
0
  6
DURCHGEHEND
 62
     7
100
AcDbLine
 10
84.475891
 20
131.327438
 30
0.0
 11
84.475891
 21
131.334183
 31
0.0
  0
LINE
  5
41E
100
AcDbEntity
  8
ARMATUR
390
0
  6
DURCHGEHEND
 62
     7
100
AcDbLine
 10
86.93663
 20
131.327438
 30
0.0
 11
86.93663
 21
131.334183
 31
0.0
  0
LINE
  5
41F
100
AcDbEntity
  8
ARMATUR
390
0
  6
DURCHGEHEND
 62
     7
100
AcDbLine
 10
85.09108
 20
131.327438
 30
0.0
 11
85.09108
 21
131.342789
 31
0.0
  0
LINE
  5
420
100
AcDbEntity
  8
ARMATUR
390
0
  6
DURCHGEHEND
 62
     7
100
AcDbLine
 10
85.706253
 20
131.327438
 30
0.0
 11
85.706253
 21
131.345474
 31
0.0
  0
LINE
  5
421
100
AcDbEntity
  8
ARMATUR
390
0
  6
DURCHGEHEND
 62
     7
100
AcDbLine
 10
84.783478
 20
131.316696
 30
0.0
 11
84.783478
 21
131.33522
 31
0.0
  0
LINE
  5
422
100
AcDbEntity
  8
ARMATUR
390
0
  6
DURCHGEHEND
 62
     7
100
AcDbLine
 10
85.398666
 20
131.316696
 30
0.0
 11
85.398666
 21
131.33522
 31
0.0
  0
LINE
  5
423
100
AcDbEntity
  8
ARMATUR
390
0
  6
DURCHGEHEND
 62
     7
100
AcDbLine
 10
84.168304
 20
131.316696
 30
0.0
 11
84.168304
 21
131.327011
 31
0.0
  0
LINE
  5
424
100
AcDbEntity
  8
ARMATUR
390
0
  6
DURCHGEHEND
 62
     7
100
AcDbLine
 10
86.629028
 20
131.316696
 30
0.0
 11
86.629028
 21
131.33522
 31
0.0
  0
LINE
  5
425
100
AcDbEntity
  8
ARMATUR
390
0
  6
DURCHGEHEND
 62
     7
100
AcDbLine
 10
86.013855
 20
131.316696
 30
0.0
 11
86.013855
 21
131.33522
 31
0.0
  0
LINE
  5
426
100
AcDbEntity
  8
ARMATUR
390
0
  6
DURCHGEHEND
 62
     7
100
AcDbLine
 10
87.244217
 20
131.316696
 30
0.0
 11
87.244217
 21
131.327011
 31
0.0
  0
LINE
  5
427
100
AcDbEntity
  8
ARMATUR
390
0
  6
DURCHGEHEND
 62
     7
100
AcDbLine
 10
85.09108
 20
131.305954
 30
0.0
 11
85.09108
 21
131.324478
 31
0.0
  0
LINE
  5
428
100
AcDbEntity
  8
ARMATUR
390
0
  6
DURCHGEHEND
 62
     7
100
AcDbLine
 10
84.475891
 20
131.305954
 30
0.0
 11
84.475891
 21
131.324478
 31
0.0
  0
LINE
  5
429
100
AcDbEntity
  8
ARMATUR
390
0
  6
DURCHGEHEND
 62
     7
100
AcDbLine
 10
86.93663
 20
131.305954
 30
0.0
 11
86.93663
 21
131.324478
 31
0.0
  0
LINE
  5
42A
100
AcDbEntity
  8
ARMATUR
390
0
  6
DURCHGEHEND
 62
     7
100
AcDbLine
 10
85.706253
 20
131.305954
 30
0.0
 11
85.706253
 21
131.324478
 31
0.0
  0
LINE
  5
42B
100
AcDbEntity
  8
ARMATUR
390
0
  6
DURCHGEHEND
 62
     7
100
AcDbLine
 10
86.321442
 20
131.305954
 30
0.0
 11
86.321442
 21
131.324478
 31
0.0
  0
LINE
  5
42C
100
AcDbEntity
  8
ARMATUR
390
0
  6
DURCHGEHEND
 62
     7
100
AcDbLine
 10
84.783478
 20
131.295242
 30
0.0
 11
84.783478
 21
131.313736
 31
0.0
  0
LINE
  5
42D
100
AcDbEntity
  8
ARMATUR
390
0
  6
DURCHGEHEND
 62
     7
100
AcDbLine
 10
85.398666
 20
131.295242
 30
0.0
 11
85.398666
 21
131.313736
 31
0.0
  0
LINE
  5
42E
100
AcDbEntity
  8
ARMATUR
390
0
  6
DURCHGEHEND
 62
     7
100
AcDbLine
 10
86.013855
 20
131.295242
 30
0.0
 11
86.013855
 21
131.313736
 31
0.0
  0
LINE
  5
42F
100
AcDbEntity
  8
ARMATUR
390
0
  6
DURCHGEHEND
 62
     7
100
AcDbLine
 10
86.629028
 20
131.295242
 30
0.0
 11
86.629028
 21
131.313736
 31
0.0
  0
LINE
  5
430
100
AcDbEntity
  8
ARMATUR
390
0
  6
DURCHGEHEND
 62
     7
100
AcDbLine
 10
85.09108
 20
131.284897
 30
0.0
 11
85.09108
 21
131.302994
 31
0.0
  0
LINE
  5
431
100
AcDbEntity
  8
ARMATUR
390
0
  6
DURCHGEHEND
 62
     7
100
AcDbLine
 10
86.321442
 20
131.284897
 30
0.0
 11
86.321442
 21
131.302994
 31
0.0
  0
LINE
  5
432
100
AcDbEntity
  8
ARMATUR
390
0
  6
DURCHGEHEND
 62
     7
100
AcDbLine
 10
85.706253
 20
131.2845
 30
0.0
 11
85.706253
 21
131.302994
 31
0.0
  0
LINE
  5
433
100
AcDbEntity
  8
ARMATUR
390
0
  6
DURCHGEHEND
 62
     7
100
AcDbLine
 10
85.706253
 20
69.98732
 30
0.0
 11
89.616165
 21
69.919067
 31
0.0
  0
LINE
  5
434
100
AcDbEntity
  8
ARMATUR
390
0
  6
DURCHGEHEND
 62
     7
100
AcDbLine
 10
89.616165
 20
66.884766
 30
0.0
 11
85.706253
 21
66.884766
 31
0.0
  0
LINE
  5
435
100
AcDbEntity
  8
ARMATUR
390
0
  6
DURCHGEHEND
 62
     7
100
AcDbLine
 10
85.706253
 20
69.98732
 30
0.0
 11
81.796356
 21
69.919067
 31
0.0
  0
LINE
  5
436
100
AcDbEntity
  8
ARMATUR
390
0
  6
DURCHGEHEND
 62
     7
100
AcDbLine
 10
85.706253
 20
66.884766
 30
0.0
 11
81.796356
 21
66.884766
 31
0.0
  0
ARC
  5
437
100
AcDbEntity
  8
ARMATUR
390
0
  6
DURCHGEHEND
 62
     7
100
AcDbCircle
 10
80.331253
 20
69.393417
 30
0.0
 40
0.5
100
AcDbArc
 50
91.0
 51
180.0
  0
LINE
  5
438
100
AcDbEntity
  8
ARMATUR
390
0
  6
DURCHGEHEND
 62
     7
100
AcDbLine
 10
81.796356
 20
69.919067
 30
0.0
 11
80.32254
 21
69.893341
 31
0.0
  0
LINE
  5
439
100
AcDbEntity
  8
ARMATUR
390
0
  6
DURCHGEHEND
 62
     7
100
AcDbLine
 10
91.581253
 20
69.393417
 30
0.0
 11
91.581253
 21
66.884766
 31
0.0
  0
LINE
  5
43A
100
AcDbEntity
  8
ARMATUR
390
0
  6
DURCHGEHEND
 62
     7
100
AcDbLine
 10
91.581253
 20
66.884766
 30
0.0
 11
89.616165
 21
66.884766
 31
0.0
  0
LINE
  5
43B
100
AcDbEntity
  8
ARMATUR
390
0
  6
DURCHGEHEND
 62
     7
100
AcDbLine
 10
79.831268
 20
69.393417
 30
0.0
 11
79.831268
 21
66.884766
 31
0.0
  0
LINE
  5
43C
100
AcDbEntity
  8
ARMATUR
390
0
  6
DURCHGEHEND
 62
     7
100
AcDbLine
 10
81.796356
 20
66.884766
 30
0.0
 11
79.831268
 21
66.884766
 31
0.0
  0
LINE
  5
43D
100
AcDbEntity
  8
ARMATUR
390
0
  6
DURCHGEHEND
 62
     7
100
AcDbLine
 10
89.616165
 20
69.919067
 30
0.0
 11
91.089981
 21
69.893341
 31
0.0
  0
ARC
  5
43E
100
AcDbEntity
  8
ARMATUR
390
0
  6
DURCHGEHEND
 62
     7
100
AcDbCircle
 10
91.081253
 20
69.393417
 30
0.0
 40
0.5
100
AcDbArc
 50
0.0
 51
89.0
  0
LINE
  5
43F
100
AcDbEntity
  8
ARMATUR
390
0
  6
DURCHGEHEND
 62
     7
100
AcDbLine
 10
91.581253
 20
72.384766
 30
0.0
 11
91.581253
 21
69.393417
 31
0.0
  0
LINE
  5
440
100
AcDbEntity
  8
ARMATUR
390
0
  6
DURCHGEHEND
 62
     7
100
AcDbLine
 10
79.831268
 20
72.384766
 30
0.0
 11
79.831268
 21
69.393417
 31
0.0
  0
LINE
  5
441
100
AcDbEntity
  8
ARMATUR
390
0
  6
DURCHGEHEND
 62
     7
100
AcDbLine
 10
80.331253
 20
108.884773
 30
0.0
 11
91.081253
 21
108.884773
 31
0.0
  0
LINE
  5
442
100
AcDbEntity
  8
ARMATUR
390
0
  6
DURCHGEHEND
 62
     7
100
AcDbLine
 10
79.831268
 20
108.884773
 30
0.0
 11
80.331253
 21
108.884773
 31
0.0
  0
LINE
  5
443
100
AcDbEntity
  8
ARMATUR
390
0
  6
DURCHGEHEND
 62
     7
100
AcDbLine
 10
79.831268
 20
108.884773
 30
0.0
 11
79.831268
 21
108.883919
 31
0.0
  0
LINE
  5
444
100
AcDbEntity
  8
ARMATUR
390
0
  6
DURCHGEHEND
 62
     7
100
AcDbLine
 10
91.081253
 20
108.884773
 30
0.0
 11
91.581253
 21
108.884773
 31
0.0
  0
LINE
  5
445
100
AcDbEntity
  8
ARMATUR
390
0
  6
DURCHGEHEND
 62
     7
100
AcDbLine
 10
91.581253
 20
108.883919
 30
0.0
 11
91.581253
 21
108.884773
 31
0.0
  0
LINE
  5
446
100
AcDbEntity
  8
ARMATUR
390
0
  6
DURCHGEHEND
 62
     7
100
AcDbLine
 10
79.831268
 20
108.883919
 30
0.0
 11
79.831268
 21
72.384766
 31
0.0
  0
LINE
  5
447
100
AcDbEntity
  8
ARMATUR
390
0
  6
DURCHGEHEND
 62
     7
100
AcDbLine
 10
91.581253
 20
108.883919
 30
0.0
 11
91.581253
 21
72.384766
 31
0.0
  0
LINE
  5
448
100
AcDbEntity
  8
ARMATUR
390
0
  6
DURCHGEHEND
 62
     7
100
AcDbLine
 10
80.206253
 20
108.884773
 30
0.0
 11
80.206253
 21
109.384773
 31
0.0
  0
LINE
  5
449
100
AcDbEntity
  8
ARMATUR
390
0
  6
DURCHGEHEND
 62
     7
100
AcDbLine
 10
91.206253
 20
108.884773
 30
0.0
 11
91.206253
 21
109.384773
 31
0.0
  0
LINE
  5
44A
100
AcDbEntity
  8
ARMATUR
390
0
  6
DURCHGEHEND
 62
     7
100
AcDbLine
 10
82.767487
 20
57.159767
 30
0.0
 11
87.796021
 21
57.159767
 31
0.0
  0
LINE
  5
44B
100
AcDbEntity
  8
ARMATUR
390
0
  6
DURCHGEHEND
 62
     7
100
AcDbLine
 10
81.186172
 20
57.909767
 30
0.0
 11
91.699478
 21
57.909767
 31
0.0
  0
LINE
  5
44C
100
AcDbEntity
  8
ARMATUR
390
0
  6
DURCHGEHEND
 62
     7
100
AcDbLine
 10
79.699478
 20
57.909767
 30
0.0
 11
81.186172
 21
57.909767
 31
0.0
  0
LINE
  5
44D
100
AcDbEntity
  8
ARMATUR
390
0
  6
DURCHGEHEND
 62
     7
100
AcDbLine
 10
87.95993
 20
57.534767
 30
0.0
 11
92.074478
 21
57.534767
 31
0.0
  0
LINE
  5
44E
100
AcDbEntity
  8
ARMATUR
390
0
  6
DURCHGEHEND
 62
     7
100
AcDbLine
 10
79.324478
 20
57.534767
 30
0.0
 11
82.642487
 21
57.534767
 31
0.0
  0
LINE
  5
44F
100
AcDbEntity
  8
ARMATUR
390
0
  6
DURCHGEHEND
 62
     7
100
AcDbLine
 10
82.642487
 20
55.784767
 30
0.0
 11
79.324478
 21
55.784767
 31
0.0
  0
LINE
  5
450
100
AcDbEntity
  8
ARMATUR
390
0
  6
DURCHGEHEND
 62
     7
100
AcDbLine
 10
92.074478
 20
55.784767
 30
0.0
 11
87.95993
 21
55.784767
 31
0.0
  0
LINE
  5
451
100
AcDbEntity
  8
ARMATUR
390
0
  6
DURCHGEHEND
 62
     7
100
AcDbLine
 10
79.574478
 20
57.534767
 30
0.0
 11
79.699478
 21
57.534767
 31
0.0
  0
LINE
  5
452
100
AcDbEntity
  8
ARMATUR
390
0
  6
DURCHGEHEND
 62
     7
100
AcDbLine
 10
91.699478
 20
57.534767
 30
0.0
 11
91.824478
 21
57.534767
 31
0.0
  0
ARC
  5
453
100
AcDbEntity
  8
ARMATUR
390
0
  6
DURCHGEHEND
 62
     7
100
AcDbCircle
 10
87.960281
 20
57.41011
 30
0.0
 40
0.124649
100
AcDbArc
 50
90.161003
 51
180.160004
  0
LINE
  5
454
100
AcDbEntity
  8
ARMATUR
390
0
  6
DURCHGEHEND
 62
     7
100
AcDbLine
 10
87.835617
 20
55.909767
 30
0.0
 11
87.835617
 21
57.409767
 31
0.0
  0
ARC
  5
455
100
AcDbEntity
  8
ARMATUR
390
0
  6
DURCHGEHEND
 62
     7
100
AcDbCircle
 10
87.960281
 20
55.909424
 30
0.0
 40
0.124649
100
AcDbArc
 50
179.839005
 51
269.838013
  0
LINE
  5
456
100
AcDbEntity
  8
ARMATUR
390
0
  6
DURCHGEHEND
 62
     7
100
AcDbLine
 10
87.808563
 20
57.409767
 30
0.0
 11
87.808563
 21
57.034767
 31
0.0
  0
ARC
  5
457
100
AcDbEntity
  8
ARMATUR
390
0
  6
DURCHGEHEND
 62
     7
100
AcDbCircle
 10
87.933212
 20
57.41011
 30
0.0
 40
0.124649
100
AcDbArc
 50
90.161003
 51
180.160004
  0
LINE
  5
458
100
AcDbEntity
  8
ARMATUR
390
0
  6
DURCHGEHEND
 62
     7
100
AcDbLine
 10
87.932877
 20
57.534767
 30
0.0
 11
87.95993
 21
57.534767
 31
0.0
  0
LINE
  5
459
100
AcDbEntity
  8
ARMATUR
390
0
  6
DURCHGEHEND
 62
     7
100
AcDbLine
 10
87.95993
 20
55.784767
 30
0.0
 11
87.796021
 21
55.784767
 31
0.0
  0
LINE
  5
45A
100
AcDbEntity
  8
ARMATUR
390
0
  6
DURCHGEHEND
 62
     7
100
AcDbLine
 10
82.766815
 20
55.909767
 30
0.0
 11
82.767487
 21
55.909767
 31
0.0
  0
ARC
  5
45B
100
AcDbEntity
  8
ARMATUR
390
0
  6
DURCHGEHEND
 62
     7
100
AcDbCircle
 10
82.642151
 20
55.909424
 30
0.0
 40
0.124649
100
AcDbArc
 50
270.161011
 51
360.0
  0
ARC
  5
45C
100
AcDbEntity
  8
ARMATUR
390
0
  6
DURCHGEHEND
 62
     7
100
AcDbCircle
 10
87.920364
 20
57.059952
 30
0.0
 40
0.114609
100
AcDbArc
 50
168.972
 51
192.688004
  0
ARC
  5
45D
100
AcDbEntity
  8
ARMATUR
390
0
  6
DURCHGEHEND
 62
     7
100
AcDbCircle
 10
87.769348
 20
57.063896
 30
0.0
 40
0.147232
100
AcDbArc
 50
139.365997
 51
191.410004
  0
ARC
  5
45E
100
AcDbEntity
  8
ARMATUR
390
0
  6
DURCHGEHEND
 62
     7
100
AcDbCircle
 10
87.769348
 20
55.880646
 30
0.0
 40
0.147232
100
AcDbArc
 50
168.591003
 51
220.634995
  0
LINE
  5
45F
100
AcDbEntity
  8
ARMATUR
390
0
  6
DURCHGEHEND
 62
     7
100
AcDbLine
 10
89.228653
 20
55.784767
 30
0.0
 11
87.657623
 21
55.784767
 31
0.0
  0
LINE
  5
460
100
AcDbEntity
  8
ARMATUR
390
0
  6
DURCHGEHEND
 62
     7
100
AcDbLine
 10
87.625046
 20
55.909767
 30
0.0
 11
87.625046
 21
57.034767
 31
0.0
  0
LINE
  5
461
100
AcDbEntity
  8
ARMATUR
390
0
  6
DURCHGEHEND
 62
     7
100
AcDbLine
 10
82.081253
 20
55.784767
 30
0.0
 11
80.824478
 21
55.784767
 31
0.0
  0
LINE
  5
462
100
AcDbEntity
  8
ARMATUR
390
0
  6
DURCHGEHEND
 62
     7
100
AcDbLine
 10
87.657623
 20
55.784767
 30
0.0
 11
86.706253
 21
55.784767
 31
0.0
  0
LINE
  5
463
100
AcDbEntity
  8
ARMATUR
390
0
  6
DURCHGEHEND
 62
     7
100
AcDbLine
 10
88.083786
 20
45.979912
 30
0.0
 11
87.27066
 21
45.83477
 31
0.0
  0
POLYLINE
  5
464
100
AcDbEntity
  8
ARMATUR
390
0
  6
DURCHGEHEND
 62
     7
100
AcDb3dPolyline
 66
     1
 10
0.0
 20
0.0
 30
0.0
 70
    12
 75
     5
  0
VERTEX
  5
465
100
AcDbEntity
  8
0
390
0
100
AcDbVertex
100
AcDb3dPolylineVertex
 10
87.27066
 20
45.83477
 30
0.0
 70
    48
  0
VERTEX
  5
466
100
AcDbEntity
  8
0
390
0
100
AcDbVertex
100
AcDb3dPolylineVertex
 10
87.27066
 20
45.83477
 30
0.0
 70
    40
  0
VERTEX
  5
467
100
AcDbEntity
  8
0
390
0
100
AcDbVertex
100
AcDb3dPolylineVertex
 10
87.212845
 20
45.835556
 30
0.0
 70
    40
  0
VERTEX
  5
468
100
AcDbEntity
  8
0
390
0
100
AcDbVertex
100
AcDb3dPolylineVertex
 10
87.27066
 20
45.83477
 30
0.0
 70
    48
  0
VERTEX
  5
469
100
AcDbEntity
  8
0
390
0
100
AcDbVertex
100
AcDb3dPolylineVertex
 10
87.212845
 20
45.835556
 30
0.0
 70
    48
  0
VERTEX
  5
46A
100
AcDbEntity
  8
0
390
0
100
AcDbVertex
100
AcDb3dPolylineVertex
 10
87.212845
 20
45.835556
 30
0.0
 70
    48
  0
VERTEX
  5
46B
100
AcDbEntity
  8
0
390
0
100
AcDbVertex
100
AcDb3dPolylineVertex
 10
86.706253
 20
45.932373
 30
0.0
 70
    40
  0
VERTEX
  5
46C
100
AcDbEntity
  8
0
390
0
100
AcDbVertex
100
AcDb3dPolylineVertex
 10
87.212845
 20
45.835556
 30
0.0
 70
    48
  0
VERTEX
  5
46D
100
AcDbEntity
  8
0
390
0
100
AcDbVertex
100
AcDb3dPolylineVertex
 10
86.706253
 20
45.932373
 30
0.0
 70
    48
  0
VERTEX
  5
46E
100
AcDbEntity
  8
0
390
0
100
AcDbVertex
100
AcDb3dPolylineVertex
 10
86.706253
 20
45.932373
 30
0.0
 70
    48
  0
SEQEND
  5
46F
100
AcDbEntity
  8
0
390
0
  0
POLYLINE
  5
470
100
AcDbEntity
  8
ARMATUR
390
0
  6
DURCHGEHEND
 62
     7
100
AcDb3dPolyline
 66
     1
 10
0.0
 20
0.0
 30
0.0
 70
    12
 75
     5
  0
VERTEX
  5
471
100
AcDbEntity
  8
0
390
0
100
AcDbVertex
100
AcDb3dPolylineVertex
 10
87.27066
 20
48.83477
 30
0.0
 70
    48
  0
VERTEX
  5
472
100
AcDbEntity
  8
0
390
0
100
AcDbVertex
100
AcDb3dPolylineVertex
 10
87.27066
 20
48.83477
 30
0.0
 70
    40
  0
VERTEX
  5
473
100
AcDbEntity
  8
0
390
0
100
AcDbVertex
100
AcDb3dPolylineVertex
 10
87.212845
 20
48.833977
 30
0.0
 70
    40
  0
VERTEX
  5
474
100
AcDbEntity
  8
0
390
0
100
AcDbVertex
100
AcDb3dPolylineVertex
 10
87.27066
 20
48.83477
 30
0.0
 70
    48
  0
VERTEX
  5
475
100
AcDbEntity
  8
0
390
0
100
AcDbVertex
100
AcDb3dPolylineVertex
 10
87.212845
 20
48.833977
 30
0.0
 70
    48
  0
VERTEX
  5
476
100
AcDbEntity
  8
0
390
0
100
AcDbVertex
100
AcDb3dPolylineVertex
 10
87.212845
 20
48.833977
 30
0.0
 70
    48
  0
VERTEX
  5
477
100
AcDbEntity
  8
0
390
0
100
AcDbVertex
100
AcDb3dPolylineVertex
 10
86.706253
 20
48.737167
 30
0.0
 70
    40
  0
VERTEX
  5
478
100
AcDbEntity
  8
0
390
0
100
AcDbVertex
100
AcDb3dPolylineVertex
 10
87.212845
 20
48.833977
 30
0.0
 70
    48
  0
VERTEX
  5
479
100
AcDbEntity
  8
0
390
0
100
AcDbVertex
100
AcDb3dPolylineVertex
 10
86.706253
 20
48.737167
 30
0.0
 70
    48
  0
VERTEX
  5
47A
100
AcDbEntity
  8
0
390
0
100
AcDbVertex
100
AcDb3dPolylineVertex
 10
86.706253
 20
48.737167
 30
0.0
 70
    48
  0
SEQEND
  5
47B
100
AcDbEntity
  8
0
390
0
  0
LINE
  5
47C
100
AcDbEntity
  8
ARMATUR
390
0
  6
DURCHGEHEND
 62
     7
100
AcDbLine
 10
88.083786
 20
48.689629
 30
0.0
 11
87.27066
 21
48.83477
 31
0.0
  0
LINE
  5
47D
100
AcDbEntity
  8
ARMATUR
390
0
  6
DURCHGEHEND
 62
     7
100
AcDbLine
 10
88.083786
 20
45.979912
 30
0.0
 11
88.083786
 21
48.689629
 31
0.0
  0
LINE
  5
47E
100
AcDbEntity
  8
ARMATUR
390
0
  6
DURCHGEHEND
 62
     7
100
AcDbLine
 10
88.895645
 20
55.700317
 30
0.0
 11
86.706253
 21
55.700317
 31
0.0
  0
LINE
  5
47F
100
AcDbEntity
  8
ARMATUR
390
0
  6
DURCHGEHEND
 62
     7
100
AcDbLine
 10
89.706253
 20
55.700317
 30
0.0
 11
88.895645
 21
55.700317
 31
0.0
  0
LINE
  5
480
100
AcDbEntity
  8
ARMATUR
390
0
  6
DURCHGEHEND
 62
     7
100
AcDbLine
 10
88.895645
 20
55.33477
 30
0.0
 11
86.706253
 21
55.33477
 31
0.0
  0
LINE
  5
481
100
AcDbEntity
  8
ARMATUR
390
0
  6
DURCHGEHEND
 62
     7
100
AcDbLine
 10
89.706253
 20
55.33477
 30
0.0
 11
88.895645
 21
55.33477
 31
0.0
  0
LINE
  5
482
100
AcDbEntity
  8
ARMATUR
390
0
  6
DURCHGEHEND
 62
     7
100
AcDbLine
 10
88.707718
 20
54.685249
 30
0.0
 11
86.831253
 21
54.685249
 31
0.0
  0
LINE
  5
483
100
AcDbEntity
  8
ARMATUR
390
0
  6
DURCHGEHEND
 62
     7
100
AcDbLine
 10
89.331253
 20
54.685249
 30
0.0
 11
88.707718
 21
54.685249
 31
0.0
  0
POLYLINE
  5
484
100
AcDbEntity
  8
ARMATUR
390
0
  6
DURCHGEHEND
 62
     7
100
AcDb3dPolyline
 66
     1
 10
0.0
 20
0.0
 30
0.0
 70
    12
 75
     5
  0
VERTEX
  5
485
100
AcDbEntity
  8
0
390
0
100
AcDbVertex
100
AcDb3dPolylineVertex
 10
88.895645
 20
48.83477
 30
0.0
 70
    48
  0
VERTEX
  5
486
100
AcDbEntity
  8
0
390
0
100
AcDbVertex
100
AcDb3dPolylineVertex
 10
88.895645
 20
48.83477
 30
0.0
 70
    40
  0
VERTEX
  5
487
100
AcDbEntity
  8
0
390
0
100
AcDbVertex
100
AcDb3dPolylineVertex
 10
88.674713
 20
48.823257
 30
0.0
 70
    40
  0
VERTEX
  5
488
100
AcDbEntity
  8
0
390
0
100
AcDbVertex
100
AcDb3dPolylineVertex
 10
88.895645
 20
48.83477
 30
0.0
 70
    48
  0
VERTEX
  5
489
100
AcDbEntity
  8
0
390
0
100
AcDbVertex
100
AcDb3dPolylineVertex
 10
88.674713
 20
48.823257
 30
0.0
 70
    48
  0
VERTEX
  5
48A
100
AcDbEntity
  8
0
390
0
100
AcDbVertex
100
AcDb3dPolylineVertex
 10
88.674713
 20
48.823257
 30
0.0
 70
    48
  0
VERTEX
  5
48B
100
AcDbEntity
  8
0
390
0
100
AcDbVertex
100
AcDb3dPolylineVertex
 10
88.083786
 20
48.689629
 30
0.0
 70
    40
  0
VERTEX
  5
48C
100
AcDbEntity
  8
0
390
0
100
AcDbVertex
100
AcDb3dPolylineVertex
 10
88.674713
 20
48.823257
 30
0.0
 70
    48
  0
VERTEX
  5
48D
100
AcDbEntity
  8
0
390
0
100
AcDbVertex
100
AcDb3dPolylineVertex
 10
88.083786
 20
48.689629
 30
0.0
 70
    48
  0
VERTEX
  5
48E
100
AcDbEntity
  8
0
390
0
100
AcDbVertex
100
AcDb3dPolylineVertex
 10
88.083786
 20
48.689629
 30
0.0
 70
    48
  0
SEQEND
  5
48F
100
AcDbEntity
  8
0
390
0
  0
LINE
  5
490
100
AcDbEntity
  8
ARMATUR
390
0
  6
DURCHGEHEND
 62
     7
100
AcDbLine
 10
88.895645
 20
48.83477
 30
0.0
 11
87.27066
 21
48.83477
 31
0.0
  0
POLYLINE
  5
491
100
AcDbEntity
  8
ARMATUR
390
0
  6
DURCHGEHEND
 62
     7
100
AcDb3dPolyline
 66
     1
 10
0.0
 20
0.0
 30
0.0
 70
    12
 75
     5
  0
VERTEX
  5
492
100
AcDbEntity
  8
0
390
0
100
AcDbVertex
100
AcDb3dPolylineVertex
 10
88.895645
 20
45.83477
 30
0.0
 70
    48
  0
VERTEX
  5
493
100
AcDbEntity
  8
0
390
0
100
AcDbVertex
100
AcDb3dPolylineVertex
 10
88.895645
 20
45.83477
 30
0.0
 70
    40
  0
VERTEX
  5
494
100
AcDbEntity
  8
0
390
0
100
AcDbVertex
100
AcDb3dPolylineVertex
 10
88.674713
 20
45.846275
 30
0.0
 70
    40
  0
VERTEX
  5
495
100
AcDbEntity
  8
0
390
0
100
AcDbVertex
100
AcDb3dPolylineVertex
 10
88.895645
 20
45.83477
 30
0.0
 70
    48
  0
VERTEX
  5
496
100
AcDbEntity
  8
0
390
0
100
AcDbVertex
100
AcDb3dPolylineVertex
 10
88.674713
 20
45.846275
 30
0.0
 70
    48
  0
VERTEX
  5
497
100
AcDbEntity
  8
0
390
0
100
AcDbVertex
100
AcDb3dPolylineVertex
 10
88.674713
 20
45.846275
 30
0.0
 70
    48
  0
VERTEX
  5
498
100
AcDbEntity
  8
0
390
0
100
AcDbVertex
100
AcDb3dPolylineVertex
 10
88.083786
 20
45.979912
 30
0.0
 70
    40
  0
VERTEX
  5
499
100
AcDbEntity
  8
0
390
0
100
AcDbVertex
100
AcDb3dPolylineVertex
 10
88.674713
 20
45.846275
 30
0.0
 70
    48
  0
VERTEX
  5
49A
100
AcDbEntity
  8
0
390
0
100
AcDbVertex
100
AcDb3dPolylineVertex
 10
88.083786
 20
45.979912
 30
0.0
 70
    48
  0
VERTEX
  5
49B
100
AcDbEntity
  8
0
390
0
100
AcDbVertex
100
AcDb3dPolylineVertex
 10
88.083786
 20
45.979912
 30
0.0
 70
    48
  0
SEQEND
  5
49C
100
AcDbEntity
  8
0
390
0
  0
LINE
  5
49D
100
AcDbEntity
  8
ARMATUR
390
0
  6
DURCHGEHEND
 62
     7
100
AcDbLine
 10
88.895645
 20
45.83477
 30
0.0
 11
87.27066
 21
45.83477
 31
0.0
  0
POLYLINE
  5
49E
100
AcDbEntity
  8
ARMATUR
390
0
  6
DURCHGEHEND
 62
     7
100
AcDb3dPolyline
 66
     1
 10
0.0
 20
0.0
 30
0.0
 70
    12
 75
     5
  0
VERTEX
  5
49F
100
AcDbEntity
  8
0
390
0
100
AcDbVertex
100
AcDb3dPolylineVertex
 10
89.70752
 20
45.979912
 30
0.0
 70
    48
  0
VERTEX
  5
4A0
100
AcDbEntity
  8
0
390
0
100
AcDbVertex
100
AcDb3dPolylineVertex
 10
89.70752
 20
45.979912
 30
0.0
 70
    40
  0
VERTEX
  5
4A1
100
AcDbEntity
  8
0
390
0
100
AcDbVertex
100
AcDb3dPolylineVertex
 10
89.502365
 20
45.918365
 30
0.0
 70
    40
  0
VERTEX
  5
4A2
100
AcDbEntity
  8
0
390
0
100
AcDbVertex
100
AcDb3dPolylineVertex
 10
89.70752
 20
45.979912
 30
0.0
 70
    48
  0
VERTEX
  5
4A3
100
AcDbEntity
  8
0
390
0
100
AcDbVertex
100
AcDb3dPolylineVertex
 10
89.502365
 20
45.918365
 30
0.0
 70
    48
  0
VERTEX
  5
4A4
100
AcDbEntity
  8
0
390
0
100
AcDbVertex
100
AcDb3dPolylineVertex
 10
89.502365
 20
45.918365
 30
0.0
 70
    48
  0
VERTEX
  5
4A5
100
AcDbEntity
  8
0
390
0
100
AcDbVertex
100
AcDb3dPolylineVertex
 10
88.895645
 20
45.83477
 30
0.0
 70
    40
  0
VERTEX
  5
4A6
100
AcDbEntity
  8
0
390
0
100
AcDbVertex
100
AcDb3dPolylineVertex
 10
89.502365
 20
45.918365
 30
0.0
 70
    48
  0
VERTEX
  5
4A7
100
AcDbEntity
  8
0
390
0
100
AcDbVertex
100
AcDb3dPolylineVertex
 10
88.895645
 20
45.83477
 30
0.0
 70
    48
  0
VERTEX
  5
4A8
100
AcDbEntity
  8
0
390
0
100
AcDbVertex
100
AcDb3dPolylineVertex
 10
88.895645
 20
45.83477
 30
0.0
 70
    48
  0
SEQEND
  5
4A9
100
AcDbEntity
  8
0
390
0
  0
POLYLINE
  5
4AA
100
AcDbEntity
  8
ARMATUR
390
0
  6
DURCHGEHEND
 62
     7
100
AcDb3dPolyline
 66
     1
 10
0.0
 20
0.0
 30
0.0
 70
    12
 75
     5
  0
VERTEX
  5
4AB
100
AcDbEntity
  8
0
390
0
100
AcDbVertex
100
AcDb3dPolylineVertex
 10
89.70752
 20
48.689629
 30
0.0
 70
    48
  0
VERTEX
  5
4AC
100
AcDbEntity
  8
0
390
0
100
AcDbVertex
100
AcDb3dPolylineVertex
 10
89.70752
 20
48.689629
 30
0.0
 70
    40
  0
VERTEX
  5
4AD
100
AcDbEntity
  8
0
390
0
100
AcDbVertex
100
AcDb3dPolylineVertex
 10
89.502365
 20
48.751167
 30
0.0
 70
    40
  0
VERTEX
  5
4AE
100
AcDbEntity
  8
0
390
0
100
AcDbVertex
100
AcDb3dPolylineVertex
 10
89.70752
 20
48.689629
 30
0.0
 70
    48
  0
VERTEX
  5
4AF
100
AcDbEntity
  8
0
390
0
100
AcDbVertex
100
AcDb3dPolylineVertex
 10
89.502365
 20
48.751167
 30
0.0
 70
    48
  0
VERTEX
  5
4B0
100
AcDbEntity
  8
0
390
0
100
AcDbVertex
100
AcDb3dPolylineVertex
 10
89.502365
 20
48.751167
 30
0.0
 70
    48
  0
VERTEX
  5
4B1
100
AcDbEntity
  8
0
390
0
100
AcDbVertex
100
AcDb3dPolylineVertex
 10
88.895645
 20
48.83477
 30
0.0
 70
    40
  0
VERTEX
  5
4B2
100
AcDbEntity
  8
0
390
0
100
AcDbVertex
100
AcDb3dPolylineVertex
 10
89.502365
 20
48.751167
 30
0.0
 70
    48
  0
VERTEX
  5
4B3
100
AcDbEntity
  8
0
390
0
100
AcDbVertex
100
AcDb3dPolylineVertex
 10
88.895645
 20
48.83477
 30
0.0
 70
    48
  0
VERTEX
  5
4B4
100
AcDbEntity
  8
0
390
0
100
AcDbVertex
100
AcDb3dPolylineVertex
 10
88.895645
 20
48.83477
 30
0.0
 70
    48
  0
SEQEND
  5
4B5
100
AcDbEntity
  8
0
390
0
  0
LINE
  5
4B6
100
AcDbEntity
  8
ARMATUR
390
0
  6
DURCHGEHEND
 62
     7
100
AcDbLine
 10
89.70752
 20
45.979912
 30
0.0
 11
89.70752
 21
48.689629
 31
0.0
  0
LINE
  5
4B7
100
AcDbEntity
  8
ARMATUR
390
0
  6
DURCHGEHEND
 62
     7
100
AcDbLine
 10
87.27066
 20
48.83477
 30
0.0
 11
86.706253
 21
48.83477
 31
0.0
  0
LINE
  5
4B8
100
AcDbEntity
  8
ARMATUR
390
0
  6
DURCHGEHEND
 62
     7
100
AcDbLine
 10
87.27066
 20
45.83477
 30
0.0
 11
86.706253
 21
45.83477
 31
0.0
  0
POLYLINE
  5
4B9
100
AcDbEntity
  8
ARMATUR
390
0
  6
DURCHGEHEND
 62
     7
100
AcDb3dPolyline
 66
     1
 10
0.0
 20
0.0
 30
0.0
 70
    12
 75
     5
  0
VERTEX
  5
4BA
100
AcDbEntity
  8
0
390
0
100
AcDbVertex
100
AcDb3dPolylineVertex
 10
89.706253
 20
48.83477
 30
0.0
 70
    48
  0
VERTEX
  5
4BB
100
AcDbEntity
  8
0
390
0
100
AcDbVertex
100
AcDb3dPolylineVertex
 10
89.706253
 20
48.83477
 30
0.0
 70
    40
  0
VERTEX
  5
4BC
100
AcDbEntity
  8
0
390
0
100
AcDbVertex
100
AcDb3dPolylineVertex
 10
89.706345
 20
48.833977
 30
0.0
 70
    40
  0
VERTEX
  5
4BD
100
AcDbEntity
  8
0
390
0
100
AcDbVertex
100
AcDb3dPolylineVertex
 10
89.706253
 20
48.83477
 30
0.0
 70
    48
  0
VERTEX
  5
4BE
100
AcDbEntity
  8
0
390
0
100
AcDbVertex
100
AcDb3dPolylineVertex
 10
89.706345
 20
48.833977
 30
0.0
 70
    48
  0
VERTEX
  5
4BF
100
AcDbEntity
  8
0
390
0
100
AcDbVertex
100
AcDb3dPolylineVertex
 10
89.706345
 20
48.833977
 30
0.0
 70
    48
  0
VERTEX
  5
4C0
100
AcDbEntity
  8
0
390
0
100
AcDbVertex
100
AcDb3dPolylineVertex
 10
89.70752
 20
48.689629
 30
0.0
 70
    40
  0
VERTEX
  5
4C1
100
AcDbEntity
  8
0
390
0
100
AcDbVertex
100
AcDb3dPolylineVertex
 10
89.706345
 20
48.833977
 30
0.0
 70
    48
  0
VERTEX
  5
4C2
100
AcDbEntity
  8
0
390
0
100
AcDbVertex
100
AcDb3dPolylineVertex
 10
89.70752
 20
48.689629
 30
0.0
 70
    48
  0
VERTEX
  5
4C3
100
AcDbEntity
  8
0
390
0
100
AcDbVertex
100
AcDb3dPolylineVertex
 10
89.70752
 20
48.689629
 30
0.0
 70
    48
  0
SEQEND
  5
4C4
100
AcDbEntity
  8
0
390
0
  0
LINE
  5
4C5
100
AcDbEntity
  8
ARMATUR
390
0
  6
DURCHGEHEND
 62
     7
100
AcDbLine
 10
89.706253
 20
48.83477
 30
0.0
 11
88.895645
 21
48.83477
 31
0.0
  0
POLYLINE
  5
4C6
100
AcDbEntity
  8
ARMATUR
390
0
  6
DURCHGEHEND
 62
     7
100
AcDb3dPolyline
 66
     1
 10
0.0
 20
0.0
 30
0.0
 70
    12
 75
     5
  0
VERTEX
  5
4C7
100
AcDbEntity
  8
0
390
0
100
AcDbVertex
100
AcDb3dPolylineVertex
 10
89.706253
 20
45.83477
 30
0.0
 70
    48
  0
VERTEX
  5
4C8
100
AcDbEntity
  8
0
390
0
100
AcDbVertex
100
AcDb3dPolylineVertex
 10
89.706253
 20
45.83477
 30
0.0
 70
    40
  0
VERTEX
  5
4C9
100
AcDbEntity
  8
0
390
0
100
AcDbVertex
100
AcDb3dPolylineVertex
 10
89.706345
 20
45.835556
 30
0.0
 70
    40
  0
VERTEX
  5
4CA
100
AcDbEntity
  8
0
390
0
100
AcDbVertex
100
AcDb3dPolylineVertex
 10
89.706253
 20
45.83477
 30
0.0
 70
    48
  0
VERTEX
  5
4CB
100
AcDbEntity
  8
0
390
0
100
AcDbVertex
100
AcDb3dPolylineVertex
 10
89.706345
 20
45.835556
 30
0.0
 70
    48
  0
VERTEX
  5
4CC
100
AcDbEntity
  8
0
390
0
100
AcDbVertex
100
AcDb3dPolylineVertex
 10
89.706345
 20
45.835556
 30
0.0
 70
    48
  0
VERTEX
  5
4CD
100
AcDbEntity
  8
0
390
0
100
AcDbVertex
100
AcDb3dPolylineVertex
 10
89.70752
 20
45.979912
 30
0.0
 70
    40
  0
VERTEX
  5
4CE
100
AcDbEntity
  8
0
390
0
100
AcDbVertex
100
AcDb3dPolylineVertex
 10
89.706345
 20
45.835556
 30
0.0
 70
    48
  0
VERTEX
  5
4CF
100
AcDbEntity
  8
0
390
0
100
AcDbVertex
100
AcDb3dPolylineVertex
 10
89.70752
 20
45.979912
 30
0.0
 70
    48
  0
VERTEX
  5
4D0
100
AcDbEntity
  8
0
390
0
100
AcDbVertex
100
AcDb3dPolylineVertex
 10
89.70752
 20
45.979912
 30
0.0
 70
    48
  0
SEQEND
  5
4D1
100
AcDbEntity
  8
0
390
0
  0
LINE
  5
4D2
100
AcDbEntity
  8
ARMATUR
390
0
  6
DURCHGEHEND
 62
     7
100
AcDbLine
 10
89.706253
 20
45.83477
 30
0.0
 11
88.895645
 21
45.83477
 31
0.0
  0
POLYLINE
  5
4D3
100
AcDbEntity
  8
ARMATUR
390
0
  6
DURCHGEHEND
 62
     7
100
AcDb3dPolyline
 66
     1
 10
0.0
 20
0.0
 30
0.0
 70
    12
 75
     5
  0
VERTEX
  5
4D4
100
AcDbEntity
  8
0
390
0
100
AcDbVertex
100
AcDb3dPolylineVertex
 10
99.716064
 20
146.788345
 30
0.0
 70
    48
  0
VERTEX
  5
4D5
100
AcDbEntity
  8
0
390
0
100
AcDbVertex
100
AcDb3dPolylineVertex
 10
99.716064
 20
146.788345
 30
0.0
 70
    40
  0
VERTEX
  5
4D6
100
AcDbEntity
  8
0
390
0
100
AcDbVertex
100
AcDb3dPolylineVertex
 10
99.716064
 20
146.784134
 30
0.0
 70
    40
  0
VERTEX
  5
4D7
100
AcDbEntity
  8
0
390
0
100
AcDbVertex
100
AcDb3dPolylineVertex
 10
99.716064
 20
146.788345
 30
0.0
 70
    48
  0
VERTEX
  5
4D8
100
AcDbEntity
  8
0
390
0
100
AcDbVertex
100
AcDb3dPolylineVertex
 10
99.716064
 20
146.784134
 30
0.0
 70
    48
  0
VERTEX
  5
4D9
100
AcDbEntity
  8
0
390
0
100
AcDbVertex
100
AcDb3dPolylineVertex
 10
99.716064
 20
146.784134
 30
0.0
 70
    48
  0
VERTEX
  5
4DA
100
AcDbEntity
  8
0
390
0
100
AcDbVertex
100
AcDb3dPolylineVertex
 10
99.715988
 20
146.737808
 30
0.0
 70
    40
  0
VERTEX
  5
4DB
100
AcDbEntity
  8
0
390
0
100
AcDbVertex
100
AcDb3dPolylineVertex
 10
99.716064
 20
146.784134
 30
0.0
 70
    48
  0
VERTEX
  5
4DC
100
AcDbEntity
  8
0
390
0
100
AcDbVertex
100
AcDb3dPolylineVertex
 10
99.715988
 20
146.737808
 30
0.0
 70
    48
  0
VERTEX
  5
4DD
100
AcDbEntity
  8
0
390
0
100
AcDbVertex
100
AcDb3dPolylineVertex
 10
99.715988
 20
146.737808
 30
0.0
 70
    48
  0
VERTEX
  5
4DE
100
AcDbEntity
  8
0
390
0
100
AcDbVertex
100
AcDb3dPolylineVertex
 10
99.715866
 20
146.656754
 30
0.0
 70
    40
  0
VERTEX
  5
4DF
100
AcDbEntity
  8
0
390
0
100
AcDbVertex
100
AcDb3dPolylineVertex
 10
99.715988
 20
146.737808
 30
0.0
 70
    48
  0
VERTEX
  5
4E0
100
AcDbEntity
  8
0
390
0
100
AcDbVertex
100
AcDb3dPolylineVertex
 10
99.715866
 20
146.656754
 30
0.0
 70
    48
  0
VERTEX
  5
4E1
100
AcDbEntity
  8
0
390
0
100
AcDbVertex
100
AcDb3dPolylineVertex
 10
99.715866
 20
146.656754
 30
0.0
 70
    48
  0
VERTEX
  5
4E2
100
AcDbEntity
  8
0
390
0
100
AcDbVertex
100
AcDb3dPolylineVertex
 10
99.715775
 20
146.550156
 30
0.0
 70
    40
  0
VERTEX
  5
4E3
100
AcDbEntity
  8
0
390
0
100
AcDbVertex
100
AcDb3dPolylineVertex
 10
99.715866
 20
146.656754
 30
0.0
 70
    48
  0
VERTEX
  5
4E4
100
AcDbEntity
  8
0
390
0
100
AcDbVertex
100
AcDb3dPolylineVertex
 10
99.715775
 20
146.550156
 30
0.0
 70
    48
  0
VERTEX
  5
4E5
100
AcDbEntity
  8
0
390
0
100
AcDbVertex
100
AcDb3dPolylineVertex
 10
99.715775
 20
146.550156
 30
0.0
 70
    48
  0
VERTEX
  5
4E6
100
AcDbEntity
  8
0
390
0
100
AcDbVertex
100
AcDb3dPolylineVertex
 10
99.715744
 20
146.429977
 30
0.0
 70
    40
  0
VERTEX
  5
4E7
100
AcDbEntity
  8
0
390
0
100
AcDbVertex
100
AcDb3dPolylineVertex
 10
99.715775
 20
146.550156
 30
0.0
 70
    48
  0
VERTEX
  5
4E8
100
AcDbEntity
  8
0
390
0
100
AcDbVertex
100
AcDb3dPolylineVertex
 10
99.715744
 20
146.429977
 30
0.0
 70
    48
  0
VERTEX
  5
4E9
100
AcDbEntity
  8
0
390
0
100
AcDbVertex
100
AcDb3dPolylineVertex
 10
99.715744
 20
146.429977
 30
0.0
 70
    48
  0
SEQEND
  5
4EA
100
AcDbEntity
  8
0
390
0
  0
ARC
  5
4EB
100
AcDbEntity
  8
ARMATUR
390
0
  6
DURCHGEHEND
 62
     7
100
AcDbCircle
 10
85.124191
 20
146.494247
 30
0.0
 40
15.300201
100
AcDbArc
 50
263.789001
 51
272.179993
  0
LINE
  5
4EC
100
AcDbEntity
  8
ARMATUR
390
0
  6
DURCHGEHEND
 62
     7
100
AcDbLine
 10
217.162109
 20
131.507156
 30
0.0
 11
217.108475
 21
133.042984
 31
0.0
  0
LINE
  5
4ED
100
AcDbEntity
  8
ARMATUR
390
0
  6
DURCHGEHEND
 62
     7
100
AcDbLine
 10
211.104813
 20
133.042984
 30
0.0
 11
211.165756
 21
131.297775
 31
0.0
  0
LINE
  5
4EE
100
AcDbEntity
  8
ARMATUR
390
0
  6
DURCHGEHEND
 62
     7
100
AcDbLine
 10
211.165756
 20
131.297775
 30
0.0
 11
211.420654
 21
131.162247
 31
0.0
  0
LINE
  5
4EF
100
AcDbEntity
  8
ARMATUR
390
0
  6
DURCHGEHEND
 62
     7
100
AcDbLine
 10
216.917297
 20
131.354202
 30
0.0
 11
217.162109
 21
131.507156
 31
0.0
  0
LINE
  5
4F0
100
AcDbEntity
  8
ARMATUR
390
0
  6
DURCHGEHEND
 62
     7
100
AcDbLine
 10
163.932022
 20
36.920444
 30
0.0
 11
163.932022
 21
55.784767
 31
0.0
  0
LINE
  5
4F1
100
AcDbEntity
  8
ARMATUR
390
0
  6
DURCHGEHEND
 62
     7
100
AcDbLine
 10
163.932022
 20
57.909767
 30
0.0
 11
163.932022
 21
66.659767
 31
0.0
  0
LINE
  5
4F2
100
AcDbEntity
  8
ARMATUR
390
0
  6
DURCHGEHEND
 62
     7
100
AcDbLine
 10
161.432022
 20
66.659767
 30
0.0
 11
161.432022
 21
57.909767
 31
0.0
  0
LINE
  5
4F3
100
AcDbEntity
  8
ARMATUR
390
0
  6
DURCHGEHEND
 62
     7
100
AcDbLine
 10
161.432022
 20
55.784767
 30
0.0
 11
161.432022
 21
36.672653
 31
0.0
  0
LINE
  5
4F4
100
AcDbEntity
  8
ARMATUR
390
0
  6
DURCHGEHEND
 62
     7
100
AcDbLine
 10
161.157028
 20
37.385487
 30
0.0
 11
161.157028
 21
55.784767
 31
0.0
  0
LINE
  5
4F5
100
AcDbEntity
  8
ARMATUR
390
0
  6
DURCHGEHEND
 62
     7
100
AcDbLine
 10
161.157028
 20
57.909767
 30
0.0
 11
161.157028
 21
66.659767
 31
0.0
  0
LINE
  5
4F6
100
AcDbEntity
  8
ARMATUR
390
0
  6
DURCHGEHEND
 62
     7
100
AcDbLine
 10
158.657028
 20
66.659767
 30
0.0
 11
158.657028
 21
57.909767
 31
0.0
  0
LINE
  5
4F7
100
AcDbEntity
  8
ARMATUR
390
0
  6
DURCHGEHEND
 62
     7
100
AcDbLine
 10
158.657028
 20
55.784767
 30
0.0
 11
158.657028
 21
37.044342
 31
0.0
  0
LINE
  5
4F8
100
AcDbEntity
  8
ARMATUR
390
0
  6
DURCHGEHEND
 62
     7
100
AcDbLine
 10
161.35701
 20
57.909767
 30
0.0
 11
161.35701
 21
66.659767
 31
0.0
  0
ARC
  5
4F9
100
AcDbEntity
  8
ARMATUR
390
0
  6
DURCHGEHEND
 62
     7
100
AcDbCircle
 10
156.60701
 20
67.159767
 30
0.0
 40
0.5
100
AcDbArc
 50
213.367004
 51
270.0
  0
ARC
  5
4FA
100
AcDbEntity
  8
ARMATUR
390
0
  6
DURCHGEHEND
 62
     7
100
AcDbCircle
 10
166.60701
 20
67.159767
 30
0.0
 40
0.5
100
AcDbArc
 50
270.0
 51
326.632996
  0
LINE
  5
4FB
100
AcDbEntity
  8
ARMATUR
390
0
  6
DURCHGEHEND
 62
     7
100
AcDbLine
 10
156.60701
 20
66.659767
 30
0.0
 11
166.60701
 21
66.659767
 31
0.0
  0
LINE
  5
4FC
100
AcDbEntity
  8
ARMATUR
390
0
  6
DURCHGEHEND
 62
     7
100
AcDbLine
 10
167.612869
 20
57.159767
 30
0.0
 11
167.612869
 21
57.909767
 31
0.0
  0
LINE
  5
4FD
100
AcDbEntity
  8
ARMATUR
390
0
  6
DURCHGEHEND
 62
     7
100
AcDbLine
 10
155.612869
 20
57.909767
 30
0.0
 11
155.612869
 21
57.534767
 31
0.0
  0
LINE
  5
4FE
100
AcDbEntity
  8
ARMATUR
390
0
  6
DURCHGEHEND
 62
     7
100
AcDbLine
 10
155.112869
 20
57.409767
 30
0.0
 11
155.112869
 21
55.909767
 31
0.0
  0
ARC
  5
4FF
100
AcDbEntity
  8
ARMATUR
390
0
  6
DURCHGEHEND
 62
     7
100
AcDbCircle
 10
155.237869
 20
57.409767
 30
0.0
 40
0.125
100
AcDbArc
 50
90.0
 51
180.0
  0
ARC
  5
500
100
AcDbEntity
  8
ARMATUR
390
0
  6
DURCHGEHEND
 62
     7
100
AcDbCircle
 10
155.237869
 20
55.909767
 30
0.0
 40
0.125
100
AcDbArc
 50
180.0
 51
270.0
  0
LINE
  5
501
100
AcDbEntity
  8
ARMATUR
390
0
  6
DURCHGEHEND
 62
     7
100
AcDbLine
 10
167.332108
 20
55.909767
 30
0.0
 11
167.332108
 21
57.409767
 31
0.0
  0
ARC
  5
502
100
AcDbEntity
  8
ARMATUR
390
0
  6
DURCHGEHEND
 62
     7
100
AcDbCircle
 10
167.207108
 20
57.409767
 30
0.0
 40
0.125
100
AcDbArc
 50
0.0
 51
90.0
  0
ARC
  5
503
100
AcDbEntity
  8
ARMATUR
390
0
  6
DURCHGEHEND
 62
     7
100
AcDbCircle
 10
167.207108
 20
55.909767
 30
0.0
 40
0.125
100
AcDbArc
 50
270.0
 51
360.0
  0
LINE
  5
504
100
AcDbEntity
  8
ARMATUR
390
0
  6
DURCHGEHEND
 62
     7
100
AcDbLine
 10
167.698654
 20
55.909767
 30
0.0
 11
167.698654
 21
57.409767
 31
0.0
  0
ARC
  5
505
100
AcDbEntity
  8
ARMATUR
390
0
  6
DURCHGEHEND
 62
     7
100
AcDbCircle
 10
167.573654
 20
57.409767
 30
0.0
 40
0.125
100
AcDbArc
 50
0.0
 51
71.717003
  0
ARC
  5
506
100
AcDbEntity
  8
ARMATUR
390
0
  6
DURCHGEHEND
 62
     7
100
AcDbCircle
 10
167.573654
 20
55.909767
 30
0.0
 40
0.125
100
AcDbArc
 50
270.0
 51
360.0
  0
LINE
  5
507
100
AcDbEntity
  8
ARMATUR
390
0
  6
DURCHGEHEND
 62
     7
100
AcDbLine
 10
158.657028
 20
48.791466
 30
0.0
 11
158.479172
 21
48.688789
 31
0.0
  0
LINE
  5
508
100
AcDbEntity
  8
ARMATUR
390
0
  6
DURCHGEHEND
 62
     7
100
AcDbLine
 10
158.479172
 20
45.980751
 30
0.0
 11
158.657028
 21
45.878067
 31
0.0
  0
LINE
  5
509
100
AcDbEntity
  8
ARMATUR
390
0
  6
DURCHGEHEND
 62
     7
100
AcDbLine
 10
155.98201
 20
109.384773
 30
0.0
 11
155.48201
 21
109.384773
 31
0.0
  0
LINE
  5
50A
100
AcDbEntity
  8
ARMATUR
390
0
  6
DURCHGEHEND
 62
     7
100
AcDbLine
 10
155.473282
 20
109.484535
 30
0.0
 11
155.48201
 21
109.384773
 31
0.0
  0
POLYLINE
  5
50B
100
AcDbEntity
  8
ARMATUR
390
0
  6
DURCHGEHEND
 62
     7
100
AcDb3dPolyline
 66
     1
 10
0.0
 20
0.0
 30
0.0
 70
    12
 75
     5
  0
VERTEX
  5
50C
100
AcDbEntity
  8
0
390
0
100
AcDbVertex
100
AcDb3dPolylineVertex
 10
155.473434
 20
109.483635
 30
0.0
 70
    48
  0
VERTEX
  5
50D
100
AcDbEntity
  8
0
390
0
100
AcDbVertex
100
AcDb3dPolylineVertex
 10
155.473434
 20
109.483635
 30
0.0
 70
    40
  0
VERTEX
  5
50E
100
AcDbEntity
  8
0
390
0
100
AcDbVertex
100
AcDb3dPolylineVertex
 10
155.473297
 20
109.48452
 30
0.0
 70
    40
  0
VERTEX
  5
50F
100
AcDbEntity
  8
0
390
0
100
AcDbVertex
100
AcDb3dPolylineVertex
 10
155.473434
 20
109.483635
 30
0.0
 70
    48
  0
VERTEX
  5
510
100
AcDbEntity
  8
0
390
0
100
AcDbVertex
100
AcDb3dPolylineVertex
 10
155.473297
 20
109.48452
 30
0.0
 70
    48
  0
VERTEX
  5
511
100
AcDbEntity
  8
0
390
0
100
AcDbVertex
100
AcDb3dPolylineVertex
 10
155.473297
 20
109.48452
 30
0.0
 70
    48
  0
SEQEND
  5
512
100
AcDbEntity
  8
0
390
0
  0
POLYLINE
  5
513
100
AcDbEntity
  8
ARMATUR
390
0
  6
DURCHGEHEND
 62
     7
100
AcDb3dPolyline
 66
     1
 10
0.0
 20
0.0
 30
0.0
 70
    12
 75
     5
  0
VERTEX
  5
514
100
AcDbEntity
  8
0
390
0
100
AcDbVertex
100
AcDb3dPolylineVertex
 10
155.973373
 20
109.385628
 30
0.0
 70
    48
  0
VERTEX
  5
515
100
AcDbEntity
  8
0
390
0
100
AcDbVertex
100
AcDb3dPolylineVertex
 10
155.973373
 20
109.385628
 30
0.0
 70
    40
  0
VERTEX
  5
516
100
AcDbEntity
  8
0
390
0
100
AcDbVertex
100
AcDb3dPolylineVertex
 10
155.978104
 20
109.384941
 30
0.0
 70
    40
  0
VERTEX
  5
517
100
AcDbEntity
  8
0
390
0
100
AcDbVertex
100
AcDb3dPolylineVertex
 10
155.973373
 20
109.385628
 30
0.0
 70
    48
  0
VERTEX
  5
518
100
AcDbEntity
  8
0
390
0
100
AcDbVertex
100
AcDb3dPolylineVertex
 10
155.978104
 20
109.384941
 30
0.0
 70
    48
  0
VERTEX
  5
519
100
AcDbEntity
  8
0
390
0
100
AcDbVertex
100
AcDb3dPolylineVertex
 10
155.978104
 20
109.384941
 30
0.0
 70
    48
  0
VERTEX
  5
51A
100
AcDbEntity
  8
0
390
0
100
AcDbVertex
100
AcDb3dPolylineVertex
 10
155.98201
 20
109.384773
 30
0.0
 70
    40
  0
VERTEX
  5
51B
100
AcDbEntity
  8
0
390
0
100
AcDbVertex
100
AcDb3dPolylineVertex
 10
155.978104
 20
109.384941
 30
0.0
 70
    48
  0
VERTEX
  5
51C
100
AcDbEntity
  8
0
390
0
100
AcDbVertex
100
AcDb3dPolylineVertex
 10
155.98201
 20
109.384773
 30
0.0
 70
    48
  0
VERTEX
  5
51D
100
AcDbEntity
  8
0
390
0
100
AcDbVertex
100
AcDb3dPolylineVertex
 10
155.98201
 20
109.384773
 30
0.0
 70
    48
  0
SEQEND
  5
51E
100
AcDbEntity
  8
0
390
0
  0
LINE
  5
51F
100
AcDbEntity
  8
ARMATUR
390
0
  6
DURCHGEHEND
 62
     7
100
AcDbLine
 10
164.73201
 20
109.384773
 30
0.0
 11
164.740677
 21
109.385628
 31
0.0
  0
LINE
  5
520
100
AcDbEntity
  8
ARMATUR
390
0
  6
DURCHGEHEND
 62
     7
100
AcDbLine
 10
164.73201
 20
109.384773
 30
0.0
 11
155.98201
 21
109.384773
 31
0.0
  0
LINE
  5
521
100
AcDbEntity
  8
ARMATUR
390
0
  6
DURCHGEHEND
 62
     7
100
AcDbLine
 10
165.240738
 20
109.484535
 30
0.0
 11
165.240585
 21
109.483635
 31
0.0
  0
LINE
  5
522
100
AcDbEntity
  8
ARMATUR
390
0
  6
DURCHGEHEND
 62
     7
100
AcDbLine
 10
165.240738
 20
109.484535
 30
0.0
 11
165.23201
 21
109.384773
 31
0.0
  0
LINE
  5
523
100
AcDbEntity
  8
ARMATUR
390
0
  6
DURCHGEHEND
 62
     7
100
AcDbLine
 10
165.23201
 20
109.384773
 30
0.0
 11
164.73201
 21
109.384773
 31
0.0
  0
LINE
  5
524
100
AcDbEntity
  8
ARMATUR
390
0
  6
DURCHGEHEND
 62
     7
100
AcDbLine
 10
155.473282
 20
109.484535
 30
0.0
 11
155.379471
 21
110.556908
 31
0.0
  0
LINE
  5
525
100
AcDbEntity
  8
ARMATUR
390
0
  6
DURCHGEHEND
 62
     7
100
AcDbLine
 10
155.379471
 20
110.556908
 30
0.0
 11
155.379471
 21
134.384781
 31
0.0
  0
ARC
  5
526
100
AcDbEntity
  8
ARMATUR
390
0
  6
DURCHGEHEND
 62
     7
100
AcDbCircle
 10
157.98201
 20
134.384781
 30
0.0
 40
2.602554
100
AcDbArc
 50
90.0
 51
180.0
  0
LINE
  5
527
100
AcDbEntity
  8
ARMATUR
390
0
  6
DURCHGEHEND
 62
     7
100
AcDbLine
 10
157.98201
 20
136.98732
 30
0.0
 11
219.334641
 21
136.98732
 31
0.0
  0
LINE
  5
528
100
AcDbEntity
  8
ARMATUR
390
0
  6
DURCHGEHEND
 62
     7
100
AcDbLine
 10
165.334579
 20
130.634781
 30
0.0
 11
165.334579
 21
110.556908
 31
0.0
  0
LINE
  5
529
100
AcDbEntity
  8
ARMATUR
390
0
  6
DURCHGEHEND
 62
     7
100
AcDbLine
 10
165.334579
 20
110.556908
 30
0.0
 11
165.240738
 21
109.484535
 31
0.0
  0
ARC
  5
52A
100
AcDbEntity
  8
ARMATUR
390
0
  6
DURCHGEHEND
 62
     7
100
AcDbCircle
 10
167.73201
 20
130.634781
 30
0.0
 40
2.397461
100
AcDbArc
 50
90.0
 51
180.0
  0
LINE
  5
52B
100
AcDbEntity
  8
ARMATUR
390
0
  6
DURCHGEHEND
 62
     7
100
AcDbLine
 10
219.334641
 20
133.032242
 30
0.0
 11
217.171387
 21
133.032242
 31
0.0
  0
ARC
  5
52C
100
AcDbEntity
  8
ARMATUR
390
0
  6
DURCHGEHEND
 62
     7
100
AcDbCircle
 10
214.107025
 20
45.226753
 30
0.0
 40
87.858948
100
AcDbArc
 50
88.000999
 51
91.999001
  0
LINE
  5
52D
100
AcDbEntity
  8
ARMATUR
390
0
  6
DURCHGEHEND
 62
     7
100
AcDbLine
 10
211.042648
 20
133.032242
 30
0.0
 11
167.73201
 21
133.032242
 31
0.0
  0
ARC
  5
52E
100
AcDbEntity
  8
ARMATUR
390
0
  6
DURCHGEHEND
 62
     7
100
AcDbCircle
 10
219.334671
 20
136.487442
 30
0.0
 40
0.499893
100
AcDbArc
 50
0.0
 51
90.003998
  0
ARC
  5
52F
100
AcDbEntity
  8
ARMATUR
390
0
  6
DURCHGEHEND
 62
     7
100
AcDbCircle
 10
219.334671
 20
133.53212
 30
0.0
 40
0.499893
100
AcDbArc
 50
269.997009
 51
360.0
  0
LINE
  5
530
100
AcDbEntity
  8
ARMATUR
390
0
  6
DURCHGEHEND
 62
     7
100
AcDbLine
 10
219.834564
 20
136.487411
 30
0.0
 11
219.834564
 21
133.53215
 31
0.0
  0
ARC
  5
531
100
AcDbEntity
  8
ARMATUR
390
0
  6
DURCHGEHEND
 62
     7
100
AcDbCircle
 10
160.35701
 20
146.429977
 30
0.0
 40
0.62146
100
AcDbArc
 50
0.0
 51
180.0
  0
LINE
  5
532
100
AcDbEntity
  8
ARMATUR
390
0
  6
DURCHGEHEND
 62
     7
100
AcDbLine
 10
159.73558
 20
136.98732
 30
0.0
 11
159.73558
 21
146.429977
 31
0.0
  0
LINE
  5
533
100
AcDbEntity
  8
ARMATUR
390
0
  6
DURCHGEHEND
 62
     7
100
AcDbLine
 10
160.97847
 20
146.429977
 30
0.0
 11
160.97847
 21
136.98732
 31
0.0
  0
LINE
  5
534
100
AcDbEntity
  8
ARMATUR
390
0
  6
DURCHGEHEND
 62
     7
100
AcDbLine
 10
217.162109
 20
131.507156
 30
0.0
 11
215.362152
 21
131.444321
 31
0.0
  0
LINE
  5
535
100
AcDbEntity
  8
ARMATUR
390
0
  6
DURCHGEHEND
 62
     7
100
AcDbLine
 10
215.362152
 20
131.444321
 30
0.0
 11
215.332306
 21
132.299454
 31
0.0
  0
LINE
  5
536
100
AcDbEntity
  8
ARMATUR
390
0
  6
DURCHGEHEND
 62
     7
100
AcDbLine
 10
212.935852
 20
132.215775
 30
0.0
 11
215.332306
 21
132.299454
 31
0.0
  0
LINE
  5
537
100
AcDbEntity
  8
ARMATUR
390
0
  6
DURCHGEHEND
 62
     7
100
AcDbLine
 10
212.935852
 20
132.215775
 30
0.0
 11
212.965698
 21
131.360611
 31
0.0
  0
LINE
  5
538
100
AcDbEntity
  8
ARMATUR
390
0
  6
DURCHGEHEND
 62
     7
100
AcDbLine
 10
212.965698
 20
131.360611
 30
0.0
 11
211.165756
 21
131.297775
 31
0.0
  0
LINE
  5
539
100
AcDbEntity
  8
ARMATUR
390
0
  6
DURCHGEHEND
 62
     7
100
AcDbLine
 10
214.168976
 20
131.258224
 30
0.0
 11
211.420654
 21
131.162247
 31
0.0
  0
LINE
  5
53A
100
AcDbEntity
  8
ARMATUR
390
0
  6
DURCHGEHEND
 62
     7
100
AcDbLine
 10
212.965698
 20
131.360611
 30
0.0
 11
214.168976
 21
131.258224
 31
0.0
  0
POLYLINE
  5
53B
100
AcDbEntity
  8
ARMATUR
390
0
  6
DURCHGEHEND
 62
     7
100
AcDb3dPolyline
 66
     1
 10
0.0
 20
0.0
 30
0.0
 70
    12
 75
     5
  0
VERTEX
  5
53C
100
AcDbEntity
  8
0
390
0
100
AcDbVertex
100
AcDb3dPolylineVertex
 10
214.168976
 20
131.258224
 30
0.0
 70
    48
  0
VERTEX
  5
53D
100
AcDbEntity
  8
0
390
0
100
AcDbVertex
100
AcDb3dPolylineVertex
 10
214.168976
 20
131.258224
 30
0.0
 70
    40
  0
VERTEX
  5
53E
100
AcDbEntity
  8
0
390
0
100
AcDbVertex
100
AcDb3dPolylineVertex
 10
214.471146
 20
131.278366
 30
0.0
 70
    40
  0
VERTEX
  5
53F
100
AcDbEntity
  8
0
390
0
100
AcDbVertex
100
AcDb3dPolylineVertex
 10
214.168976
 20
131.258224
 30
0.0
 70
    48
  0
VERTEX
  5
540
100
AcDbEntity
  8
0
390
0
100
AcDbVertex
100
AcDb3dPolylineVertex
 10
214.471146
 20
131.278366
 30
0.0
 70
    48
  0
VERTEX
  5
541
100
AcDbEntity
  8
0
390
0
100
AcDbVertex
100
AcDb3dPolylineVertex
 10
214.471146
 20
131.278366
 30
0.0
 70
    48
  0
VERTEX
  5
542
100
AcDbEntity
  8
0
390
0
100
AcDbVertex
100
AcDb3dPolylineVertex
 10
215.362152
 20
131.444321
 30
0.0
 70
    40
  0
VERTEX
  5
543
100
AcDbEntity
  8
0
390
0
100
AcDbVertex
100
AcDb3dPolylineVertex
 10
214.471146
 20
131.278366
 30
0.0
 70
    48
  0
VERTEX
  5
544
100
AcDbEntity
  8
0
390
0
100
AcDbVertex
100
AcDb3dPolylineVertex
 10
215.362152
 20
131.444321
 30
0.0
 70
    48
  0
VERTEX
  5
545
100
AcDbEntity
  8
0
390
0
100
AcDbVertex
100
AcDb3dPolylineVertex
 10
215.362152
 20
131.444321
 30
0.0
 70
    48
  0
SEQEND
  5
546
100
AcDbEntity
  8
0
390
0
  0
LINE
  5
547
100
AcDbEntity
  8
ARMATUR
390
0
  6
DURCHGEHEND
 62
     7
100
AcDbLine
 10
216.917297
 20
131.354202
 30
0.0
 11
214.168976
 21
131.258224
 31
0.0
  0
LINE
  5
548
100
AcDbEntity
  8
ARMATUR
390
0
  6
DURCHGEHEND
 62
     7
100
AcDbLine
 10
155.973373
 20
66.884766
 30
0.0
 11
155.473434
 21
66.884766
 31
0.0
  0
POLYLINE
  5
549
100
AcDbEntity
  8
ARMATUR
390
0
  6
DURCHGEHEND
 62
     7
100
AcDb3dPolyline
 66
     1
 10
0.0
 20
0.0
 30
0.0
 70
    12
 75
     5
  0
VERTEX
  5
54A
100
AcDbEntity
  8
0
390
0
100
AcDbVertex
100
AcDb3dPolylineVertex
 10
155.973373
 20
108.883919
 30
0.0
 70
    48
  0
VERTEX
  5
54B
100
AcDbEntity
  8
0
390
0
100
AcDbVertex
100
AcDb3dPolylineVertex
 10
155.973373
 20
108.883919
 30
0.0
 70
    40
  0
VERTEX
  5
54C
100
AcDbEntity
  8
0
390
0
100
AcDbVertex
100
AcDb3dPolylineVertex
 10
155.975922
 20
108.884346
 30
0.0
 70
    40
  0
VERTEX
  5
54D
100
AcDbEntity
  8
0
390
0
100
AcDbVertex
100
AcDb3dPolylineVertex
 10
155.973373
 20
108.883919
 30
0.0
 70
    48
  0
VERTEX
  5
54E
100
AcDbEntity
  8
0
390
0
100
AcDbVertex
100
AcDb3dPolylineVertex
 10
155.975922
 20
108.884346
 30
0.0
 70
    48
  0
VERTEX
  5
54F
100
AcDbEntity
  8
0
390
0
100
AcDbVertex
100
AcDb3dPolylineVertex
 10
155.975922
 20
108.884346
 30
0.0
 70
    48
  0
VERTEX
  5
550
100
AcDbEntity
  8
0
390
0
100
AcDbVertex
100
AcDb3dPolylineVertex
 10
155.98201
 20
108.884773
 30
0.0
 70
    40
  0
VERTEX
  5
551
100
AcDbEntity
  8
0
390
0
100
AcDbVertex
100
AcDb3dPolylineVertex
 10
155.975922
 20
108.884346
 30
0.0
 70
    48
  0
VERTEX
  5
552
100
AcDbEntity
  8
0
390
0
100
AcDbVertex
100
AcDb3dPolylineVertex
 10
155.98201
 20
108.884773
 30
0.0
 70
    48
  0
VERTEX
  5
553
100
AcDbEntity
  8
0
390
0
100
AcDbVertex
100
AcDb3dPolylineVertex
 10
155.98201
 20
108.884773
 30
0.0
 70
    48
  0
SEQEND
  5
554
100
AcDbEntity
  8
0
390
0
  0
LINE
  5
555
100
AcDbEntity
  8
ARMATUR
390
0
  6
DURCHGEHEND
 62
     7
100
AcDbLine
 10
155.98201
 20
108.884773
 30
0.0
 11
164.73201
 21
108.884773
 31
0.0
  0
POLYLINE
  5
556
100
AcDbEntity
  8
ARMATUR
390
0
  6
DURCHGEHEND
 62
     7
100
AcDb3dPolyline
 66
     1
 10
0.0
 20
0.0
 30
0.0
 70
    12
 75
     5
  0
VERTEX
  5
557
100
AcDbEntity
  8
0
390
0
100
AcDbVertex
100
AcDb3dPolylineVertex
 10
164.73201
 20
108.884773
 30
0.0
 70
    48
  0
VERTEX
  5
558
100
AcDbEntity
  8
0
390
0
100
AcDbVertex
100
AcDb3dPolylineVertex
 10
164.73201
 20
108.884773
 30
0.0
 70
    40
  0
VERTEX
  5
559
100
AcDbEntity
  8
0
390
0
100
AcDbVertex
100
AcDb3dPolylineVertex
 10
164.736496
 20
108.884544
 30
0.0
 70
    40
  0
VERTEX
  5
55A
100
AcDbEntity
  8
0
390
0
100
AcDbVertex
100
AcDb3dPolylineVertex
 10
164.73201
 20
108.884773
 30
0.0
 70
    48
  0
VERTEX
  5
55B
100
AcDbEntity
  8
0
390
0
100
AcDbVertex
100
AcDb3dPolylineVertex
 10
164.736496
 20
108.884544
 30
0.0
 70
    48
  0
VERTEX
  5
55C
100
AcDbEntity
  8
0
390
0
100
AcDbVertex
100
AcDb3dPolylineVertex
 10
164.736496
 20
108.884544
 30
0.0
 70
    48
  0
VERTEX
  5
55D
100
AcDbEntity
  8
0
390
0
100
AcDbVertex
100
AcDb3dPolylineVertex
 10
164.740662
 20
108.883919
 30
0.0
 70
    40
  0
VERTEX
  5
55E
100
AcDbEntity
  8
0
390
0
100
AcDbVertex
100
AcDb3dPolylineVertex
 10
164.736496
 20
108.884544
 30
0.0
 70
    48
  0
VERTEX
  5
55F
100
AcDbEntity
  8
0
390
0
100
AcDbVertex
100
AcDb3dPolylineVertex
 10
164.740662
 20
108.883919
 30
0.0
 70
    48
  0
VERTEX
  5
560
100
AcDbEntity
  8
0
390
0
100
AcDbVertex
100
AcDb3dPolylineVertex
 10
164.740662
 20
108.883919
 30
0.0
 70
    48
  0
SEQEND
  5
561
100
AcDbEntity
  8
0
390
0
  0
LINE
  5
562
100
AcDbEntity
  8
ARMATUR
390
0
  6
DURCHGEHEND
 62
     7
100
AcDbLine
 10
169.266617
 20
66.884766
 30
0.0
 11
155.973358
 21
66.884766
 31
0.0
  0
LINE
  5
563
100
AcDbEntity
  8
ARMATUR
390
0
  6
DURCHGEHEND
 62
     7
100
AcDbLine
 10
155.473282
 20
108.785011
 30
0.0
 11
155.473434
 21
108.785896
 31
0.0
  0
LINE
  5
564
100
AcDbEntity
  8
ARMATUR
390
0
  6
DURCHGEHEND
 62
     7
100
AcDbLine
 10
155.473282
 20
108.785011
 30
0.0
 11
155.48201
 21
108.884773
 31
0.0
  0
LINE
  5
565
100
AcDbEntity
  8
ARMATUR
390
0
  6
DURCHGEHEND
 62
     7
100
AcDbLine
 10
155.48201
 20
108.884773
 30
0.0
 11
155.98201
 21
108.884773
 31
0.0
  0
LINE
  5
566
100
AcDbEntity
  8
ARMATUR
390
0
  6
DURCHGEHEND
 62
     7
100
AcDbLine
 10
165.240738
 20
108.785011
 30
0.0
 11
165.23201
 21
108.884773
 31
0.0
  0
POLYLINE
  5
567
100
AcDbEntity
  8
ARMATUR
390
0
  6
DURCHGEHEND
 62
     7
100
AcDb3dPolyline
 66
     1
 10
0.0
 20
0.0
 30
0.0
 70
    12
 75
     5
  0
VERTEX
  5
568
100
AcDbEntity
  8
0
390
0
100
AcDbVertex
100
AcDb3dPolylineVertex
 10
165.240585
 20
108.785896
 30
0.0
 70
    48
  0
VERTEX
  5
569
100
AcDbEntity
  8
0
390
0
100
AcDbVertex
100
AcDb3dPolylineVertex
 10
165.240585
 20
108.785896
 30
0.0
 70
    40
  0
VERTEX
  5
56A
100
AcDbEntity
  8
0
390
0
100
AcDbVertex
100
AcDb3dPolylineVertex
 10
165.240738
 20
108.785057
 30
0.0
 70
    40
  0
VERTEX
  5
56B
100
AcDbEntity
  8
0
390
0
100
AcDbVertex
100
AcDb3dPolylineVertex
 10
165.240585
 20
108.785896
 30
0.0
 70
    48
  0
VERTEX
  5
56C
100
AcDbEntity
  8
0
390
0
100
AcDbVertex
100
AcDb3dPolylineVertex
 10
165.240738
 20
108.785057
 30
0.0
 70
    48
  0
VERTEX
  5
56D
100
AcDbEntity
  8
0
390
0
100
AcDbVertex
100
AcDb3dPolylineVertex
 10
165.240738
 20
108.785057
 30
0.0
 70
    48
  0
VERTEX
  5
56E
100
AcDbEntity
  8
0
390
0
100
AcDbVertex
100
AcDb3dPolylineVertex
 10
165.240738
 20
108.785011
 30
0.0
 70
    40
  0
VERTEX
  5
56F
100
AcDbEntity
  8
0
390
0
100
AcDbVertex
100
AcDb3dPolylineVertex
 10
165.240738
 20
108.785057
 30
0.0
 70
    48
  0
VERTEX
  5
570
100
AcDbEntity
  8
0
390
0
100
AcDbVertex
100
AcDb3dPolylineVertex
 10
165.240738
 20
108.785011
 30
0.0
 70
    48
  0
VERTEX
  5
571
100
AcDbEntity
  8
0
390
0
100
AcDbVertex
100
AcDb3dPolylineVertex
 10
165.240738
 20
108.785011
 30
0.0
 70
    48
  0
SEQEND
  5
572
100
AcDbEntity
  8
0
390
0
  0
LINE
  5
573
100
AcDbEntity
  8
ARMATUR
390
0
  6
DURCHGEHEND
 62
     7
100
AcDbLine
 10
164.73201
 20
108.884773
 30
0.0
 11
165.23201
 21
108.884773
 31
0.0
  0
LINE
  5
574
100
AcDbEntity
  8
ARMATUR
390
0
  6
DURCHGEHEND
 62
     7
100
AcDbLine
 10
171.266312
 20
66.884766
 30
0.0
 11
169.266617
 21
66.884766
 31
0.0
  0
LINE
  5
575
100
AcDbEntity
  8
ARMATUR
390
0
  6
DURCHGEHEND
 62
     7
100
AcDbLine
 10
155.85701
 20
108.884773
 30
0.0
 11
155.85701
 21
109.384773
 31
0.0
  0
LINE
  5
576
100
AcDbEntity
  8
ARMATUR
390
0
  6
DURCHGEHEND
 62
     7
100
AcDbLine
 10
164.85701
 20
108.884773
 30
0.0
 11
164.85701
 21
109.384773
 31
0.0
  0
LINE
  5
577
100
AcDbEntity
  8
ARMATUR
390
0
  6
DURCHGEHEND
 62
     7
100
AcDbLine
 10
155.379471
 20
66.884766
 30
0.0
 11
155.379471
 21
107.712639
 31
0.0
  0
LINE
  5
578
100
AcDbEntity
  8
ARMATUR
390
0
  6
DURCHGEHEND
 62
     7
100
AcDbLine
 10
155.379471
 20
107.712639
 30
0.0
 11
155.473282
 21
108.785011
 31
0.0
  0
LINE
  5
579
100
AcDbEntity
  8
ARMATUR
390
0
  6
DURCHGEHEND
 62
     7
100
AcDbLine
 10
155.473434
 20
66.884766
 30
0.0
 11
155.379471
 21
66.884766
 31
0.0
  0
ARC
  5
57A
100
AcDbEntity
  8
ARMATUR
390
0
  6
DURCHGEHEND
 62
     7
100
AcDbCircle
 10
167.73201
 20
72.384766
 30
0.0
 40
2.397461
100
AcDbArc
 50
180.0
 51
270.0
  0
LINE
  5
57B
100
AcDbEntity
  8
ARMATUR
390
0
  6
DURCHGEHEND
 62
     7
100
AcDbLine
 10
165.334579
 20
107.712639
 30
0.0
 11
165.334579
 21
72.384766
 31
0.0
  0
LINE
  5
57C
100
AcDbEntity
  8
ARMATUR
390
0
  6
DURCHGEHEND
 62
     7
100
AcDbLine
 10
165.240738
 20
108.785011
 30
0.0
 11
165.334579
 21
107.712639
 31
0.0
  0
LINE
  5
57D
100
AcDbEntity
  8
ARMATUR
390
0
  6
DURCHGEHEND
 62
     7
100
AcDbLine
 10
167.73201
 20
69.98732
 30
0.0
 11
170.834641
 21
69.98732
 31
0.0
  0
ARC
  5
57E
100
AcDbEntity
  8
ARMATUR
390
0
  6
DURCHGEHEND
 62
     7
100
AcDbCircle
 10
170.834671
 20
69.487427
 30
0.0
 40
0.499893
100
AcDbArc
 50
0.0
 51
90.003998
  0
LINE
  5
57F
100
AcDbEntity
  8
ARMATUR
390
0
  6
DURCHGEHEND
 62
     7
100
AcDbLine
 10
171.334579
 20
69.487396
 30
0.0
 11
171.334579
 21
66.884766
 31
0.0
  0
LINE
  5
580
100
AcDbEntity
  8
ARMATUR
390
0
  6
DURCHGEHEND
 62
     7
100
AcDbLine
 10
171.334579
 20
66.884766
 30
0.0
 11
171.266312
 21
66.884766
 31
0.0
  0
LINE
  5
581
100
AcDbEntity
  8
ARMATUR
390
0
  6
DURCHGEHEND
 62
     7
100
AcDbLine
 10
167.329239
 20
57.159767
 30
0.0
 11
167.612869
 21
57.159767
 31
0.0
  0
LINE
  5
582
100
AcDbEntity
  8
ARMATUR
390
0
  6
DURCHGEHEND
 62
     7
100
AcDbLine
 10
165.56636
 20
57.909767
 30
0.0
 11
167.612869
 21
57.909767
 31
0.0
  0
LINE
  5
583
100
AcDbEntity
  8
ARMATUR
390
0
  6
DURCHGEHEND
 62
     7
100
AcDbLine
 10
155.612869
 20
57.909767
 30
0.0
 11
165.56636
 21
57.909767
 31
0.0
  0
LINE
  5
584
100
AcDbEntity
  8
ARMATUR
390
0
  6
DURCHGEHEND
 62
     7
100
AcDbLine
 10
167.316788
 20
55.909767
 30
0.0
 11
167.316788
 21
57.409767
 31
0.0
  0
LINE
  5
585
100
AcDbEntity
  8
ARMATUR
390
0
  6
DURCHGEHEND
 62
     7
100
AcDbLine
 10
155.237869
 20
57.534767
 30
0.0
 11
167.207108
 21
57.534767
 31
0.0
  0
ARC
  5
586
100
AcDbEntity
  8
ARMATUR
390
0
  6
DURCHGEHEND
 62
     7
100
AcDbCircle
 10
167.198898
 20
57.416954
 30
0.0
 40
0.118103
100
AcDbArc
 50
0.0
 51
86.028999
  0
ARC
  5
587
100
AcDbEntity
  8
ARMATUR
390
0
  6
DURCHGEHEND
 62
     7
100
AcDbCircle
 10
167.198898
 20
57.416954
 30
0.0
 40
0.118103
100
AcDbArc
 50
356.516998
 51
360.0
  0
ARC
  5
588
100
AcDbEntity
  8
ARMATUR
390
0
  6
DURCHGEHEND
 62
     7
100
AcDbCircle
 10
167.198898
 20
55.90258
 30
0.0
 40
0.118103
100
AcDbArc
 50
0.0
 51
3.481
  0
ARC
  5
589
100
AcDbEntity
  8
ARMATUR
390
0
  6
DURCHGEHEND
 62
     7
100
AcDbCircle
 10
167.198898
 20
55.90258
 30
0.0
 40
0.118103
100
AcDbArc
 50
273.968994
 51
360.0
  0
LINE
  5
58A
100
AcDbEntity
  8
ARMATUR
390
0
  6
DURCHGEHEND
 62
     7
100
AcDbLine
 10
167.207108
 20
55.784767
 30
0.0
 11
155.237869
 21
55.784767
 31
0.0
  0
LINE
  5
58B
100
AcDbEntity
  8
ARMATUR
390
0
  6
DURCHGEHEND
 62
     7
100
AcDbLine
 10
155.487869
 20
57.534767
 30
0.0
 11
155.612869
 21
57.534767
 31
0.0
  0
LINE
  5
58C
100
AcDbEntity
  8
ARMATUR
390
0
  6
DURCHGEHEND
 62
     7
100
AcDbLine
 10
158.657028
 20
55.784767
 30
0.0
 11
156.993454
 21
55.784767
 31
0.0
  0
LINE
  5
58D
100
AcDbEntity
  8
ARMATUR
390
0
  6
DURCHGEHEND
 62
     7
100
AcDbLine
 10
161.432022
 20
55.784767
 30
0.0
 11
161.157028
 21
55.784767
 31
0.0
  0
LINE
  5
58E
100
AcDbEntity
  8
ARMATUR
390
0
  6
DURCHGEHEND
 62
     7
100
AcDbLine
 10
165.804459
 20
55.784767
 30
0.0
 11
163.932022
 21
55.784767
 31
0.0
  0
ARC
  5
58F
100
AcDbEntity
  8
ARMATUR
390
0
  6
DURCHGEHEND
 62
     7
100
AcDbCircle
 10
167.277969
 20
55.87886
 30
0.0
 40
0.310303
100
AcDbArc
 50
0.0
 51
5.715
  0
ARC
  5
590
100
AcDbEntity
  8
ARMATUR
390
0
  6
DURCHGEHEND
 62
     7
100
AcDbCircle
 10
167.277969
 20
55.87886
 30
0.0
 40
0.310303
100
AcDbArc
 50
342.346985
 51
360.0
  0
LINE
  5
591
100
AcDbEntity
  8
ARMATUR
390
0
  6
DURCHGEHEND
 62
     7
100
AcDbLine
 10
167.573654
 20
55.784767
 30
0.0
 11
166.014023
 21
55.784767
 31
0.0
  0
LINE
  5
592
100
AcDbEntity
  8
ARMATUR
390
0
  6
DURCHGEHEND
 62
     7
100
AcDbLine
 10
166.014023
 20
55.784767
 30
0.0
 11
165.804459
 21
55.784767
 31
0.0
  0
LINE
  5
593
100
AcDbEntity
  8
ARMATUR
390
0
  6
DURCHGEHEND
 62
     7
100
AcDbLine
 10
161.297409
 20
45.979912
 30
0.0
 11
161.157028
 21
45.958191
 31
0.0
  0
LINE
  5
594
100
AcDbEntity
  8
ARMATUR
390
0
  6
DURCHGEHEND
 62
     7
100
AcDbLine
 10
161.297409
 20
48.689629
 30
0.0
 11
161.157028
 21
48.711349
 31
0.0
  0
LINE
  5
595
100
AcDbEntity
  8
ARMATUR
390
0
  6
DURCHGEHEND
 62
     7
100
AcDbLine
 10
161.297409
 20
45.979912
 30
0.0
 11
161.297409
 21
48.689629
 31
0.0
  0
LINE
  5
596
100
AcDbEntity
  8
ARMATUR
390
0
  6
DURCHGEHEND
 62
     7
100
AcDbLine
 10
161.432022
 20
55.700317
 30
0.0
 11
161.157028
 21
55.700317
 31
0.0
  0
LINE
  5
597
100
AcDbEntity
  8
ARMATUR
390
0
  6
DURCHGEHEND
 62
     7
100
AcDbLine
 10
161.432022
 20
55.33477
 30
0.0
 11
161.157028
 21
55.33477
 31
0.0
  0
LINE
  5
598
100
AcDbEntity
  8
ARMATUR
390
0
  6
DURCHGEHEND
 62
     7
100
AcDbLine
 10
161.432022
 20
54.685249
 30
0.0
 11
161.157028
 21
54.685249
 31
0.0
  0
LINE
  5
599
100
AcDbEntity
  8
ARMATUR
390
0
  6
DURCHGEHEND
 62
     7
100
AcDbLine
 10
161.432022
 20
48.734329
 30
0.0
 11
161.297409
 21
48.689629
 31
0.0
  0
LINE
  5
59A
100
AcDbEntity
  8
ARMATUR
390
0
  6
DURCHGEHEND
 62
     7
100
AcDbLine
 10
161.432022
 20
48.83477
 30
0.0
 11
161.157028
 21
48.83477
 31
0.0
  0
LINE
  5
59B
100
AcDbEntity
  8
ARMATUR
390
0
  6
DURCHGEHEND
 62
     7
100
AcDbLine
 10
161.432022
 20
45.935211
 30
0.0
 11
161.297409
 21
45.979912
 31
0.0
  0
LINE
  5
59C
100
AcDbEntity
  8
ARMATUR
390
0
  6
DURCHGEHEND
 62
     7
100
AcDbLine
 10
161.432022
 20
45.83477
 30
0.0
 11
161.157028
 21
45.83477
 31
0.0
  0
POLYLINE
  5
59D
100
AcDbEntity
  8
ARMATUR
390
0
  6
DURCHGEHEND
 62
     7
100
AcDb3dPolyline
 66
     1
 10
0.0
 20
0.0
 30
0.0
 70
    12
 75
     5
  0
VERTEX
  5
59E
100
AcDbEntity
  8
0
390
0
100
AcDbVertex
100
AcDb3dPolylineVertex
 10
158.657028
 20
45.904671
 30
0.0
 70
    48
  0
VERTEX
  5
59F
100
AcDbEntity
  8
0
390
0
100
AcDbVertex
100
AcDb3dPolylineVertex
 10
158.657028
 20
45.904671
 30
0.0
 70
    40
  0
VERTEX
  5
5A0
100
AcDbEntity
  8
0
390
0
100
AcDbVertex
100
AcDb3dPolylineVertex
 10
158.599442
 20
45.918365
 30
0.0
 70
    40
  0
VERTEX
  5
5A1
100
AcDbEntity
  8
0
390
0
100
AcDbVertex
100
AcDb3dPolylineVertex
 10
158.657028
 20
45.904671
 30
0.0
 70
    48
  0
VERTEX
  5
5A2
100
AcDbEntity
  8
0
390
0
100
AcDbVertex
100
AcDb3dPolylineVertex
 10
158.599442
 20
45.918365
 30
0.0
 70
    48
  0
VERTEX
  5
5A3
100
AcDbEntity
  8
0
390
0
100
AcDbVertex
100
AcDb3dPolylineVertex
 10
158.599442
 20
45.918365
 30
0.0
 70
    48
  0
VERTEX
  5
5A4
100
AcDbEntity
  8
0
390
0
100
AcDbVertex
100
AcDb3dPolylineVertex
 10
158.480637
 20
45.979912
 30
0.0
 70
    40
  0
VERTEX
  5
5A5
100
AcDbEntity
  8
0
390
0
100
AcDbVertex
100
AcDb3dPolylineVertex
 10
158.599442
 20
45.918365
 30
0.0
 70
    48
  0
VERTEX
  5
5A6
100
AcDbEntity
  8
0
390
0
100
AcDbVertex
100
AcDb3dPolylineVertex
 10
158.480637
 20
45.979912
 30
0.0
 70
    48
  0
VERTEX
  5
5A7
100
AcDbEntity
  8
0
390
0
100
AcDbVertex
100
AcDb3dPolylineVertex
 10
158.480637
 20
45.979912
 30
0.0
 70
    48
  0
SEQEND
  5
5A8
100
AcDbEntity
  8
0
390
0
  0
LINE
  5
5A9
100
AcDbEntity
  8
ARMATUR
390
0
  6
DURCHGEHEND
 62
     7
100
AcDbLine
 10
158.480637
 20
45.979912
 30
0.0
 11
158.480637
 21
48.689629
 31
0.0
  0
POLYLINE
  5
5AA
100
AcDbEntity
  8
ARMATUR
390
0
  6
DURCHGEHEND
 62
     7
100
AcDb3dPolyline
 66
     1
 10
0.0
 20
0.0
 30
0.0
 70
    12
 75
     5
  0
VERTEX
  5
5AB
100
AcDbEntity
  8
0
390
0
100
AcDbVertex
100
AcDb3dPolylineVertex
 10
158.657028
 20
48.76487
 30
0.0
 70
    48
  0
VERTEX
  5
5AC
100
AcDbEntity
  8
0
390
0
100
AcDbVertex
100
AcDb3dPolylineVertex
 10
158.657028
 20
48.76487
 30
0.0
 70
    40
  0
VERTEX
  5
5AD
100
AcDbEntity
  8
0
390
0
100
AcDbVertex
100
AcDb3dPolylineVertex
 10
158.599442
 20
48.751167
 30
0.0
 70
    40
  0
VERTEX
  5
5AE
100
AcDbEntity
  8
0
390
0
100
AcDbVertex
100
AcDb3dPolylineVertex
 10
158.657028
 20
48.76487
 30
0.0
 70
    48
  0
VERTEX
  5
5AF
100
AcDbEntity
  8
0
390
0
100
AcDbVertex
100
AcDb3dPolylineVertex
 10
158.599442
 20
48.751167
 30
0.0
 70
    48
  0
VERTEX
  5
5B0
100
AcDbEntity
  8
0
390
0
100
AcDbVertex
100
AcDb3dPolylineVertex
 10
158.599442
 20
48.751167
 30
0.0
 70
    48
  0
VERTEX
  5
5B1
100
AcDbEntity
  8
0
390
0
100
AcDbVertex
100
AcDb3dPolylineVertex
 10
158.480637
 20
48.689629
 30
0.0
 70
    40
  0
VERTEX
  5
5B2
100
AcDbEntity
  8
0
390
0
100
AcDbVertex
100
AcDb3dPolylineVertex
 10
158.599442
 20
48.751167
 30
0.0
 70
    48
  0
VERTEX
  5
5B3
100
AcDbEntity
  8
0
390
0
100
AcDbVertex
100
AcDb3dPolylineVertex
 10
158.480637
 20
48.689629
 30
0.0
 70
    48
  0
VERTEX
  5
5B4
100
AcDbEntity
  8
0
390
0
100
AcDbVertex
100
AcDb3dPolylineVertex
 10
158.480637
 20
48.689629
 30
0.0
 70
    48
  0
SEQEND
  5
5B5
100
AcDbEntity
  8
0
390
0
  0
LINE
  5
5B6
100
AcDbEntity
  8
ARMATUR
390
0
  6
DURCHGEHEND
 62
     7
100
AcDbLine
 10
155.112869
 20
55.909767
 30
0.0
 11
167.316788
 21
55.909767
 31
0.0
  0
LINE
  5
5B7
100
AcDbEntity
  8
ARMATUR
390
0
  6
DURCHGEHEND
 62
     7
100
AcDbLine
 10
167.316788
 20
57.409767
 30
0.0
 11
155.112869
 21
57.409767
 31
0.0
  0
LINE
  5
5B8
100
AcDbEntity
  8
ARMATUR
390
0
  6
DURCHGEHEND
 62
     7
100
AcDbLine
 10
167.332108
 20
55.909767
 30
0.0
 11
167.316788
 21
55.909767
 31
0.0
  0
LINE
  5
5B9
100
AcDbEntity
  8
ARMATUR
390
0
  6
DURCHGEHEND
 62
     7
100
AcDbLine
 10
167.332108
 20
57.409767
 30
0.0
 11
167.316788
 21
57.409767
 31
0.0
  0
LINE
  5
5BA
100
AcDbEntity
  8
ARMATUR
390
0
  6
DURCHGEHEND
 62
     7
100
AcDbLine
 10
167.586716
 20
55.909767
 30
0.0
 11
167.586716
 21
57.159767
 31
0.0
  0
LINE
  5
5BB
100
AcDbEntity
  8
ARMATUR
390
0
  6
DURCHGEHEND
 62
     7
100
AcDbLine
 10
167.332108
 20
55.909767
 30
0.0
 11
167.586716
 21
55.909767
 31
0.0
  0
LINE
  5
5BC
100
AcDbEntity
  8
ARMATUR
390
0
  6
DURCHGEHEND
 62
     7
100
AcDbLine
 10
167.586716
 20
55.909767
 30
0.0
 11
167.698654
 21
55.909767
 31
0.0
  0
LINE
  5
5BD
100
AcDbEntity
  8
ARMATUR
390
0
  6
DURCHGEHEND
 62
     7
100
AcDbLine
 10
167.698654
 20
57.409767
 30
0.0
 11
167.612869
 21
57.409767
 31
0.0
  0
POLYLINE
  5
5BE
100
AcDbEntity
  8
ARMATUR
390
0
  6
DURCHGEHEND
 62
     3
100
AcDb3dPolyline
 66
     1
 10
0.0
 20
0.0
 30
0.0
 70
    12
 75
     5
  0
VERTEX
  5
5BF
100
AcDbEntity
  8
0
390
0
100
AcDbVertex
100
AcDb3dPolylineVertex
 10
82.081253
 20
36.902027
 30
0.0
 70
    48
  0
VERTEX
  5
5C0
100
AcDbEntity
  8
0
390
0
100
AcDbVertex
100
AcDb3dPolylineVertex
 10
82.081253
 20
36.902027
 30
0.0
 70
    40
  0
VERTEX
  5
5C1
100
AcDbEntity
  8
0
390
0
100
AcDbVertex
100
AcDb3dPolylineVertex
 10
82.18502
 20
36.79583
 30
0.0
 70
    40
  0
VERTEX
  5
5C2
100
AcDbEntity
  8
0
390
0
100
AcDbVertex
100
AcDb3dPolylineVertex
 10
82.516075
 20
36.554771
 30
0.0
 70
    40
  0
VERTEX
  5
5C3
100
AcDbEntity
  8
0
390
0
100
AcDbVertex
100
AcDb3dPolylineVertex
 10
83.10408
 20
36.295162
 30
0.0
 70
    40
  0
VERTEX
  5
5C4
100
AcDbEntity
  8
0
390
0
100
AcDbVertex
100
AcDb3dPolylineVertex
 10
83.978676
 20
36.133305
 30
0.0
 70
    40
  0
VERTEX
  5
5C5
100
AcDbEntity
  8
0
390
0
100
AcDbVertex
100
AcDb3dPolylineVertex
 10
85.169518
 20
36.185505
 30
0.0
 70
    40
  0
VERTEX
  5
5C6
100
AcDbEntity
  8
0
390
0
100
AcDbVertex
100
AcDb3dPolylineVertex
 10
86.706253
 20
36.568069
 30
0.0
 70
    40
  0
VERTEX
  5
5C7
100
AcDbEntity
  8
0
390
0
100
AcDbVertex
100
AcDb3dPolylineVertex
 10
82.081253
 20
36.902027
 30
0.0
 70
    48
  0
VERTEX
  5
5C8
100
AcDbEntity
  8
0
390
0
100
AcDbVertex
100
AcDb3dPolylineVertex
 10
83.26712
 20
35.395042
 30
0.0
 70
    48
  0
VERTEX
  5
5C9
100
AcDbEntity
  8
0
390
0
100
AcDbVertex
100
AcDb3dPolylineVertex
 10
86.706253
 20
36.568069
 30
0.0
 70
    48
  0
SEQEND
  5
5CA
100
AcDbEntity
  8
0
390
0
  0
POLYLINE
  5
5CB
100
AcDbEntity
  8
ARMATUR
390
0
  6
DURCHGEHEND
 62
     3
100
AcDb3dPolyline
 66
     1
 10
0.0
 20
0.0
 30
0.0
 70
    12
 75
     5
  0
VERTEX
  5
5CC
100
AcDbEntity
  8
0
390
0
100
AcDbVertex
100
AcDb3dPolylineVertex
 10
158.657028
 20
37.044342
 30
0.0
 70
    48
  0
VERTEX
  5
5CD
100
AcDbEntity
  8
0
390
0
100
AcDbVertex
100
AcDb3dPolylineVertex
 10
158.657028
 20
37.044342
 30
0.0
 70
    40
  0
VERTEX
  5
5CE
100
AcDbEntity
  8
0
390
0
100
AcDbVertex
100
AcDb3dPolylineVertex
 10
158.797379
 20
37.098667
 30
0.0
 70
    40
  0
VERTEX
  5
5CF
100
AcDbEntity
  8
0
390
0
100
AcDbVertex
100
AcDb3dPolylineVertex
 10
159.161728
 20
37.225765
 30
0.0
 70
    40
  0
VERTEX
  5
5D0
100
AcDbEntity
  8
0
390
0
100
AcDbVertex
100
AcDb3dPolylineVertex
 10
159.664963
 20
37.371815
 30
0.0
 70
    40
  0
VERTEX
  5
5D1
100
AcDbEntity
  8
0
390
0
100
AcDbVertex
100
AcDb3dPolylineVertex
 10
160.221985
 20
37.482998
 30
0.0
 70
    40
  0
VERTEX
  5
5D2
100
AcDbEntity
  8
0
390
0
100
AcDbVertex
100
AcDb3dPolylineVertex
 10
160.747696
 20
37.505493
 30
0.0
 70
    40
  0
VERTEX
  5
5D3
100
AcDbEntity
  8
0
390
0
100
AcDbVertex
100
AcDb3dPolylineVertex
 10
161.157028
 20
37.385487
 30
0.0
 70
    40
  0
VERTEX
  5
5D4
100
AcDbEntity
  8
0
390
0
100
AcDbVertex
100
AcDb3dPolylineVertex
 10
158.657028
 20
37.044342
 30
0.0
 70
    48
  0
VERTEX
  5
5D5
100
AcDbEntity
  8
0
390
0
100
AcDbVertex
100
AcDb3dPolylineVertex
 10
160.511505
 20
37.803886
 30
0.0
 70
    48
  0
VERTEX
  5
5D6
100
AcDbEntity
  8
0
390
0
100
AcDbVertex
100
AcDb3dPolylineVertex
 10
161.157028
 20
37.385487
 30
0.0
 70
    48
  0
SEQEND
  5
5D7
100
AcDbEntity
  8
0
390
0
  0
POLYLINE
  5
5D8
100
AcDbEntity
  8
ARMATUR
390
0
  6
DURCHGEHEND
 62
     3
100
AcDb3dPolyline
 66
     1
 10
0.0
 20
0.0
 30
0.0
 70
    12
 75
     5
  0
VERTEX
  5
5D9
100
AcDbEntity
  8
0
390
0
100
AcDbVertex
100
AcDb3dPolylineVertex
 10
161.432022
 20
36.672653
 30
0.0
 70
    48
  0
VERTEX
  5
5DA
100
AcDbEntity
  8
0
390
0
100
AcDbVertex
100
AcDb3dPolylineVertex
 10
161.432022
 20
36.672653
 30
0.0
 70
    40
  0
VERTEX
  5
5DB
100
AcDbEntity
  8
0
390
0
100
AcDbVertex
100
AcDb3dPolylineVertex
 10
161.672394
 20
36.648602
 30
0.0
 70
    40
  0
VERTEX
  5
5DC
100
AcDbEntity
  8
0
390
0
100
AcDbVertex
100
AcDb3dPolylineVertex
 10
162.00975
 20
36.601189
 30
0.0
 70
    40
  0
VERTEX
  5
5DD
100
AcDbEntity
  8
0
390
0
100
AcDbVertex
100
AcDb3dPolylineVertex
 10
162.42424
 20
36.567547
 30
0.0
 70
    40
  0
VERTEX
  5
5DE
100
AcDbEntity
  8
0
390
0
100
AcDbVertex
100
AcDb3dPolylineVertex
 10
162.896027
 20
36.584793
 30
0.0
 70
    40
  0
VERTEX
  5
5DF
100
AcDbEntity
  8
0
390
0
100
AcDbVertex
100
AcDb3dPolylineVertex
 10
163.405228
 20
36.690052
 30
0.0
 70
    40
  0
VERTEX
  5
5E0
100
AcDbEntity
  8
0
390
0
100
AcDbVertex
100
AcDb3dPolylineVertex
 10
163.932022
 20
36.920444
 30
0.0
 70
    40
  0
VERTEX
  5
5E1
100
AcDbEntity
  8
0
390
0
100
AcDbVertex
100
AcDb3dPolylineVertex
 10
161.802551
 20
36.672653
 30
0.0
 70
    48
  0
VERTEX
  5
5E2
100
AcDbEntity
  8
0
390
0
100
AcDbVertex
100
AcDb3dPolylineVertex
 10
162.874084
 20
36.309772
 30
0.0
 70
    48
  0
VERTEX
  5
5E3
100
AcDbEntity
  8
0
390
0
100
AcDbVertex
100
AcDb3dPolylineVertex
 10
163.932022
 20
36.920444
 30
0.0
 70
    48
  0
SEQEND
  5
5E4
100
AcDbEntity
  8
0
390
0
  0
CIRCLE
  5
5E5
100
AcDbEntity
  8
ARMATUR
390
0
  6
DURCHGEHEND
 62
     1
100
AcDbCircle
 10
85.746033
 20
22.220743
 30
0.0
 40
4.375
  0
LINE
  5
5E6
100
AcDbEntity
  8
ACHSEN
390
0
  6
STRICHPUNKTIERT-1
 62
     4
100
AcDbLine
 10
85.746033
 20
15.647888
 30
0.0
 11
85.746033
 21
138.286697
 31
0.0
  0
LINE
  5
5E7
100
AcDbEntity
  8
ACHSEN
390
0
  6
STRICHPUNKTIERT-1
 62
     4
100
AcDbLine
 10
214.015198
 20
134.507797
 30
0.0
 11
214.173904
 21
129.963104
 31
0.0
  0
LINE
  5
5E8
100
AcDbEntity
  8
ACHSEN
390
0
  6
STRICHPUNKTIERT-1
 62
     4
100
AcDbLine
 10
161.802551
 20
33.783455
 30
0.0
 11
161.802551
 21
81.664299
 31
0.0
  0
LINE
  5
5E9
100
AcDbEntity
  8
ACHSEN
390
0
  6
STRICHPUNKTIERT-1
 62
     4
100
AcDbLine
 10
80.221832
 20
22.220743
 30
0.0
 11
91.849396
 21
22.220747
 31
0.0
  0
LINE
  5
5EA
100
AcDbEntity
  8
BEMASSUNG
390
0
  6
DURCHGEHEND
 62
     3
100
AcDbLine
 10
242.469193
 20
136.98732
 30
0.0
 11
221.037704
 21
136.98732
 31
0.0
  0
LINE
  5
5EB
100
AcDbEntity
  8
BEMASSUNG
390
0
  6
DURCHGEHEND
 62
     3
100
AcDbLine
 10
241.682419
 20
138.49028
 30
0.0
 11
241.682419
 21
65.803703
 31
0.0
  0
LINE
  5
5EC
100
AcDbEntity
  8
BEMASSUNG
390
0
  6
DURCHGEHEND
 62
     3
100
AcDbLine
 10
214.131958
 20
137.837448
 30
0.0
 11
214.131958
 21
171.845444
 31
0.0
  0
LINE
  5
5ED
100
AcDbEntity
  8
BEMASSUNG
390
0
  6
DURCHGEHEND
 62
     3
100
AcDbLine
 10
161.802551
 20
83.280968
 30
0.0
 11
161.802551
 21
171.908798
 31
0.0
  0
LINE
  5
5EE
100
AcDbEntity
  8
BEMASSUNG
390
0
  6
DURCHGEHEND
 62
     3
100
AcDbLine
 10
142.736618
 20
170.816635
 30
0.0
 11
215.192108
 21
170.816635
 31
0.0
  0
LINE
  5
5EF
100
AcDbEntity
  8
BEMASSUNG
390
0
  6
DURCHGEHEND
 62
     3
100
AcDbLine
 10
154.771637
 20
77.75367
 30
0.0
 11
182.889481
 21
77.75367
 31
0.0
  0
LINE
  5
5F0
100
AcDbEntity
  8
BEMASSUNG
390
0
  6
DURCHGEHEND
 62
     3
100
AcDbLine
 10
85.721054
 20
138.95192
 30
0.0
 11
85.721054
 21
157.533646
 31
0.0
  0
LINE
  5
5F1
100
AcDbEntity
  8
BEMASSUNG
390
0
  6
DURCHGEHEND
 62
     3
100
AcDbLine
 10
85.721054
 20
166.930893
 30
0.0
 11
85.721054
 21
171.878769
 31
0.0
  0
LINE
  5
5F2
100
AcDbEntity
  8
BEMASSUNG
390
0
  6
DURCHGEHEND
 62
     3
100
AcDbLine
 10
100.728928
 20
170.67482
 30
0.0
 11
84.876816
 21
170.67482
 31
0.0
  0
LINE
  5
5F3
100
AcDbEntity
  8
BEMASSUNG
390
0
  6
DURCHGEHEND
 62
     3
100
AcDbLine
 10
58.107788
 20
68.100807
 30
0.0
 11
58.107788
 21
27.611031
 31
0.0
  0
LINE
  5
5F4
100
AcDbEntity
  8
BEMASSUNG
390
0
  6
DURCHGEHEND
 62
     3
100
AcDbLine
 10
71.814102
 20
66.884766
 30
0.0
 11
56.85778
 21
66.884766
 31
0.0
  0
LINE
  5
5F5
100
AcDbEntity
  8
BEMASSUNG
390
0
  6
DURCHGEHEND
 62
     3
100
AcDbLine
 10
78.522888
 20
58.046638
 30
0.0
 11
56.857864
 21
58.046638
 31
0.0
  0
LINE
  5
5F6
100
AcDbEntity
  8
BEMASSUNG
390
0
  6
DURCHGEHEND
 62
     3
100
AcDbLine
 10
58.991745
 20
57.162758
 30
0.0
 11
57.223984
 21
58.930519
 31
0.0
  0
LINE
  5
5F7
100
AcDbEntity
  8
BEMASSUNG
390
0
  6
DURCHGEHEND
 62
     3
100
AcDbLine
 10
58.991745
 20
66.14695
 30
0.0
 11
57.223984
 21
67.914711
 31
0.0
  0
LINE
  5
5F8
100
AcDbEntity
  8
BEMASSUNG
390
0
  6
DURCHGEHEND
 62
     3
100
AcDbLine
 10
123.99173
 20
146.19838
 30
0.0
 11
122.223984
 21
147.96608
 31
0.0
  0
LINE
  5
5F9
100
AcDbEntity
  8
BEMASSUNG
390
0
  6
DURCHGEHEND
 62
     3
100
AcDbLine
 10
84.869492
 20
169.822922
 30
0.0
 11
86.572617
 21
171.526047
 31
0.0
  0
LINE
  5
5FA
100
AcDbEntity
  8
BEMASSUNG
390
0
  6
DURCHGEHEND
 62
     3
100
AcDbLine
 10
98.888153
 20
169.822922
 30
0.0
 11
100.591278
 21
171.526047
 31
0.0
  0
LINE
  5
5FB
100
AcDbEntity
  8
BEMASSUNG
390
0
  6
DURCHGEHEND
 62
     3
100
AcDbLine
 10
162.686722
 20
171.667984
 30
0.0
 11
160.983597
 21
169.964859
 31
0.0
  0
LINE
  5
5FC
100
AcDbEntity
  8
BEMASSUNG
390
0
  6
DURCHGEHEND
 62
     3
100
AcDbLine
 10
214.906998
 20
171.652573
 30
0.0
 11
213.203873
 21
169.949448
 31
0.0
  0
LINE
  5
5FD
100
AcDbEntity
  8
BEMASSUNG
390
0
  6
DURCHGEHEND
 62
     3
100
AcDbLine
 10
156.398224
 20
78.612923
 30
0.0
 11
154.695099
 21
76.909798
 31
0.0
  0
LINE
  5
5FE
100
AcDbEntity
  8
BEMASSUNG
390
0
  6
DURCHGEHEND
 62
     3
100
AcDbLine
 10
172.18396
 20
78.590248
 30
0.0
 11
170.480835
 21
76.887123
 31
0.0
  0
LINE
  5
5FF
100
AcDbEntity
  8
BEMASSUNG
390
0
  6
DURCHGEHEND
 62
     3
100
AcDbLine
 10
242.547211
 20
136.198532
 30
0.0
 11
240.779449
 21
137.966293
 31
0.0
  0
LINE
  5
600
100
AcDbEntity
  8
BEMASSUNG
390
0
  6
DURCHGEHEND
 62
     3
100
AcDbLine
 10
242.524673
 20
66.034119
 30
0.0
 11
240.756912
 21
67.80188
 31
0.0
  0
LINE
  5
601
100
AcDbEntity
  8
BEMASSUNG
390
0
  6
DURCHGEHEND
 62
     3
100
AcDbLine
 10
178.222977
 20
66.884766
 30
0.0
 11
242.623001
 21
66.884766
 31
0.0
  0
LINE
  5
602
100
AcDbEntity
  8
BEMASSUNG
390
0
  6
DURCHGEHEND
 62
     3
100
AcDbLine
 10
229.270447
 20
131.402115
 30
0.0
 11
218.06311
 21
131.402115
 31
0.0
  0
LINE
  5
603
100
AcDbEntity
  8
BEMASSUNG
390
0
  6
DURCHGEHEND
 62
     3
100
AcDbLine
 10
228.287552
 20
132.494476
 30
0.0
 11
228.287552
 21
66.884766
 31
0.0
  0
LINE
  5
604
100
AcDbEntity
  8
BEMASSUNG
390
0
  6
DURCHGEHEND
 62
     3
100
AcDbLine
 10
229.129807
 20
67.115181
 30
0.0
 11
227.362045
 21
68.882942
 31
0.0
  0
LINE
  5
605
100
AcDbEntity
  8
BEMASSUNG
390
0
  6
DURCHGEHEND
 62
     3
100
AcDbLine
 10
229.099838
 20
130.546738
 30
0.0
 11
227.332077
 21
132.314499
 31
0.0
  0
LINE
  5
606
100
AcDbEntity
  8
BEMASSUNG
390
0
  6
DURCHGEHEND
 62
     3
100
AcDbLine
 10
171.334579
 20
70.302155
 30
0.0
 11
171.334579
 21
78.675812
 31
0.0
  0
LINE
  5
607
100
AcDbEntity
  8
BEMASSUNG
390
0
  6
DURCHGEHEND
 62
     3
100
AcDbLine
 10
79.815399
 20
137.591385
 30
0.0
 11
79.815399
 21
159.907608
 31
0.0
  0
LINE
  5
608
100
AcDbEntity
  8
BEMASSUNG
390
0
  6
DURCHGEHEND
 62
     3
100
AcDbLine
 10
91.66777
 20
137.51976
 30
0.0
 11
91.66777
 21
159.907608
 31
0.0
  0
LINE
  5
609
100
AcDbEntity
  8
BEMASSUNG
390
0
  6
DURCHGEHEND
 62
     3
100
AcDbLine
 10
92.693604
 20
158.830856
 30
0.0
 11
79.001495
 21
158.830856
 31
0.0
  0
LINE
  5
60A
100
AcDbEntity
  8
BEMASSUNG
390
0
  6
DURCHGEHEND
 62
     3
100
AcDbLine
 10
79.045242
 20
158.017258
 30
0.0
 11
80.748367
 21
159.720383
 31
0.0
  0
LINE
  5
60B
100
AcDbEntity
  8
BEMASSUNG
390
0
  6
DURCHGEHEND
 62
     3
100
AcDbLine
 10
90.898102
 20
158.017258
 30
0.0
 11
92.601227
 21
159.720383
 31
0.0
  0
LINE
  5
60C
100
AcDbEntity
  8
BEMASSUNG
390
0
  6
DURCHGEHEND
 62
     3
100
AcDbLine
 10
155.379471
 20
136.390411
 30
0.0
 11
155.379471
 21
171.771271
 31
0.0
  0
LINE
  5
60D
100
AcDbEntity
  8
BEMASSUNG
390
0
  6
DURCHGEHEND
 62
     3
100
AcDbLine
 10
156.139542
 20
171.73494
 30
0.0
 11
154.436417
 21
170.031815
 31
0.0
  0
LINE
  5
60E
100
AcDbEntity
  8
BEMASSUNG
390
0
  6
DURCHGEHEND
 62
     3
100
AcDbLine
 10
99.702911
 20
148.526291
 30
0.0
 11
99.702911
 21
171.614456
 31
0.0
  0
LINE
  5
60F
100
AcDbEntity
  8
BEMASSUNG
390
0
  6
DURCHGEHEND
 62
     3
100
AcDbLine
 10
111.409637
 20
122.078171
 30
0.0
 11
100.615341
 21
122.078171
 31
0.0
  0
TEXT
  5
610
100
AcDbEntity
  8
BEMASSUNG
390
0
100
AcDbText
 10
172.83316
 20
78.978065
 30
0.0
 40
7.055555
  1
63
100
AcDbText
  0
TEXT
  5
611
100
AcDbEntity
  8
BEMASSUNG
390
0
100
AcDbText
 10
240.622238
 20
95.935776
 30
0.0
 40
7.055555
  1
280
 50
90.0
100
AcDbText
  0
TEXT
  5
612
100
AcDbEntity
  8
BEMASSUNG
390
0
100
AcDbText
 10
180.07486
 20
172.087234
 30
0.0
 40
7.055555
  1
210
100
AcDbText
  0
TEXT
  5
613
100
AcDbEntity
  8
BEMASSUNG
390
0
100
AcDbText
 10
88.793579
 20
171.687515
 30
0.0
 40
7.055555
  1
56
100
AcDbText
  0
TEXT
  5
614
100
AcDbEntity
  8
BEMASSUNG
390
0
100
AcDbText
 10
122.075943
 20
101.529594
 30
0.0
 40
7.055555
  1
320
 50
90.0
100
AcDbText
  0
TEXT
  5
615
100
AcDbEntity
  8
BEMASSUNG
390
0
100
AcDbText
 10
56.86467
 20
27.800926
 30
0.0
 40
7.055555
  1
max. 60
 50
90.0
100
AcDbText
  0
TEXT
  5
616
100
AcDbEntity
  8
BEMASSUNG
390
0
100
AcDbText
 10
226.941284
 20
94.282875
 30
0.0
 40
7.055555
  1
257
 50
90.0
100
AcDbText
  0
TEXT
  5
617
100
AcDbEntity
  8
BEMASSUNG
390
0
100
AcDbText
 10
81.891022
 20
159.813736
 30
0.0
 40
7.055555
  1
47
100
AcDbText
  0
TEXT
  5
618
100
AcDbEntity
  8
BEMASSUNG
390
0
100
AcDbText
 10
144.152344
 20
171.949173
 30
0.0
 40
7.055555
  1
25
100
AcDbText
  0
LINE
  5
619
100
AcDbEntity
  8
BEMASSUNG
390
0
  6
DURCHGEHEND
 62
     3
100
AcDbLine
 10
123.107788
 20
148.00383
 30
0.0
 11
123.107788
 21
65.78141
 31
0.0
  0
LINE
  5
61A
100
AcDbEntity
  8
BEMASSUNG
390
0
  6
DURCHGEHEND
 62
     3
100
AcDbLine
 10
123.991745
 20
66.14695
 30
0.0
 11
122.223984
 21
67.914711
 31
0.0
  0
LINE
  5
61B
100
AcDbEntity
  8
BEMASSUNG
390
0
  6
DURCHGEHEND
 62
     3
100
AcDbLine
 10
124.235336
 20
66.884766
 30
0.0
 11
101.857773
 21
66.884766
 31
0.0
  0
LINE
  5
61C
100
AcDbEntity
  8
BEMASSUNG
390
0
  6
DURCHGEHEND
 62
     3
100
AcDbLine
 10
124.424133
 20
147.074356
 30
0.0
 11
102.18132
 21
147.074356
 31
0.0
  0
LINE
  5
61D
100
AcDbEntity
  8
BEMASSUNG
390
0
  6
DURCHGEHEND
 62
     3
100
AcDbLine
 10
111.095871
 20
121.18335
 30
0.0
 11
109.328125
 21
122.95105
 31
0.0
  0
LINE
  5
61E
100
AcDbEntity
  8
BEMASSUNG
390
0
  6
DURCHGEHEND
 62
     3
100
AcDbLine
 10
110.266907
 20
123.007935
 30
0.0
 11
110.266907
 21
65.914841
 31
0.0
  0
LINE
  5
61F
100
AcDbEntity
  8
BEMASSUNG
390
0
  6
DURCHGEHEND
 62
     3
100
AcDbLine
 10
111.159851
 20
66.013939
 30
0.0
 11
109.39209
 21
67.7817
 31
0.0
  0
TEXT
  5
620
100
AcDbEntity
  8
BEMASSUNG
390
0
100
AcDbText
 10
109.066467
 20
89.092941
 30
0.0
 40
7.055555
  1
220
 50
90.0
100
AcDbText
  0
LINE
  5
621
100
AcDbEntity
  8
BEMASSUNG
390
0
  6
DURCHGEHEND
 62
     3
100
AcDbLine
 10
61.80542
 20
14.346216
 30
0.0
 11
78.141907
 21
14.34622
 31
0.0
  0
LINE
  5
622
100
AcDbEntity
  8
BEMASSUNG
390
0
  6
DURCHGEHEND
 62
     3
100
AcDbLine
 10
78.141907
 20
14.346216
 30
0.0
 11
90.373413
 21
26.577757
 31
0.0
  0
LINE
  5
623
100
AcDbEntity
  8
BEMASSUNG
390
0
  6
DURCHGEHEND
 62
     3
100
AcDbLine
 10
90.696167
 20
25.254328
 30
0.0
 11
87.423706
 21
25.254347
 31
0.0
  0
LINE
  5
624
100
AcDbEntity
  8
BEMASSUNG
390
0
  6
DURCHGEHEND
 62
     3
100
AcDbLine
 10
84.610748
 20
19.080729
 30
0.0
 11
81.338287
 21
19.080732
 31
0.0
  0
LINE
  5
625
100
AcDbEntity
  8
BEMASSUNG
390
0
  6
DURCHGEHEND
 62
     9
100
AcDbLine
 10
67.628372
 20
20.658579
 30
0.0
 11
63.628372
 21
16.658552
 31
0.0
  0
CIRCLE
  5
626
100
AcDbEntity
  8
BEMASSUNG
390
0
  6
DURCHGEHEND
 62
     9
100
AcDbCircle
 10
65.646835
 20
18.677042
 30
0.0
 40
1.875
  0
TEXT
  5
627
100
AcDbEntity
  8
BEMASSUNG
390
0
100
AcDbText
 10
68.589615
 20
15.709772
 30
0.0
 40
7.055555
  1
35
100
AcDbText
  0
LINE
  5
628
100
AcDbEntity
  8
WAND
390
0
  6
DURCHGEHEND
 62
     6
100
AcDbLine
 10
73.454224
 20
66.884766
 30
0.0
 11
98.157806
 21
66.884766
 31
0.0
  0
LINE
  5
629
100
AcDbEntity
  8
WAND
390
0
  6
DURCHGEHEND
 62
     6
100
AcDbLine
 10
147.680038
 20
66.884766
 30
0.0
 11
176.582886
 21
66.884766
 31
0.0
  0
LINE
  5
62A
100
AcDbEntity
  8
ANSICHT
390
0
  6
DURCHGEHEND
 62
     1
100
AcDbLine
 10
99.911163
 20
-32.882423
 30
0.0
 11
99.911163
 21
-15.606726
 31
0.0
  0
ARC
  5
62B
100
AcDbEntity
  8
ANSICHT
390
0
  6
DURCHGEHEND
 62
     1
100
AcDbCircle
 10
96.361176
 20
-33.050514
 30
0.0
 40
0.200012
100
AcDbArc
 50
180.0
 51
271.0
  0
LINE
  5
62C
100
AcDbEntity
  8
ANSICHT
390
0
  6
DURCHGEHEND
 62
     1
100
AcDbLine
 10
96.364655
 20
-33.250465
 30
0.0
 11
99.71463
 21
-33.191994
 31
0.0
  0
POLYLINE
  5
62D
100
AcDbEntity
  8
ANSICHT
390
0
  6
DURCHGEHEND
 62
     1
100
AcDb3dPolyline
 66
     1
 10
0.0
 20
0.0
 30
0.0
 70
    12
 75
     5
  0
VERTEX
  5
62E
100
AcDbEntity
  8
0
390
0
100
AcDbVertex
100
AcDb3dPolylineVertex
 10
99.714417
 20
-33.18882
 30
0.0
 70
    48
  0
VERTEX
  5
62F
100
AcDbEntity
  8
0
390
0
100
AcDbVertex
100
AcDb3dPolylineVertex
 10
99.714417
 20
-33.18882
 30
0.0
 70
    40
  0
VERTEX
  5
630
100
AcDbEntity
  8
0
390
0
100
AcDbVertex
100
AcDb3dPolylineVertex
 10
99.719238
 20
-33.189125
 30
0.0
 70
    40
  0
VERTEX
  5
631
100
AcDbEntity
  8
0
390
0
100
AcDbVertex
100
AcDb3dPolylineVertex
 10
99.724045
 20
-33.189396
 30
0.0
 70
    40
  0
VERTEX
  5
632
100
AcDbEntity
  8
0
390
0
100
AcDbVertex
100
AcDb3dPolylineVertex
 10
99.728851
 20
-33.189598
 30
0.0
 70
    40
  0
VERTEX
  5
633
100
AcDbEntity
  8
0
390
0
100
AcDbVertex
100
AcDb3dPolylineVertex
 10
99.733635
 20
-33.18969
 30
0.0
 70
    40
  0
VERTEX
  5
634
100
AcDbEntity
  8
0
390
0
100
AcDbVertex
100
AcDb3dPolylineVertex
 10
99.738411
 20
-33.189625
 30
0.0
 70
    40
  0
VERTEX
  5
635
100
AcDbEntity
  8
0
390
0
100
AcDbVertex
100
AcDb3dPolylineVertex
 10
99.743164
 20
-33.189369
 30
0.0
 70
    40
  0
VERTEX
  5
636
100
AcDbEntity
  8
0
390
0
100
AcDbVertex
100
AcDb3dPolylineVertex
 10
99.72406
 20
-33.18943
 30
0.0
 70
    48
  0
VERTEX
  5
637
100
AcDbEntity
  8
0
390
0
100
AcDbVertex
100
AcDb3dPolylineVertex
 10
99.733673
 20
-33.190102
 30
0.0
 70
    48
  0
VERTEX
  5
638
100
AcDbEntity
  8
0
390
0
100
AcDbVertex
100
AcDb3dPolylineVertex
 10
99.743164
 20
-33.189369
 30
0.0
 70
    48
  0
VERTEX
  5
639
100
AcDbEntity
  8
0
390
0
100
AcDbVertex
100
AcDb3dPolylineVertex
 10
99.754234
 20
-33.187973
 30
0.0
 70
    40
  0
VERTEX
  5
63A
100
AcDbEntity
  8
0
390
0
100
AcDbVertex
100
AcDb3dPolylineVertex
 10
99.76516
 20
-33.185497
 30
0.0
 70
    40
  0
VERTEX
  5
63B
100
AcDbEntity
  8
0
390
0
100
AcDbVertex
100
AcDb3dPolylineVertex
 10
99.775917
 20
-33.182079
 30
0.0
 70
    40
  0
VERTEX
  5
63C
100
AcDbEntity
  8
0
390
0
100
AcDbVertex
100
AcDb3dPolylineVertex
 10
99.786469
 20
-33.17786
 30
0.0
 70
    40
  0
VERTEX
  5
63D
100
AcDbEntity
  8
0
390
0
100
AcDbVertex
100
AcDb3dPolylineVertex
 10
99.796768
 20
-33.172981
 30
0.0
 70
    40
  0
VERTEX
  5
63E
100
AcDbEntity
  8
0
390
0
100
AcDbVertex
100
AcDb3dPolylineVertex
 10
99.806793
 20
-33.16758
 30
0.0
 70
    40
  0
VERTEX
  5
63F
100
AcDbEntity
  8
0
390
0
100
AcDbVertex
100
AcDb3dPolylineVertex
 10
99.765411
 20
-33.187752
 30
0.0
 70
    48
  0
VERTEX
  5
640
100
AcDbEntity
  8
0
390
0
100
AcDbVertex
100
AcDb3dPolylineVertex
 10
99.787048
 20
-33.17881
 30
0.0
 70
    48
  0
VERTEX
  5
641
100
AcDbEntity
  8
0
390
0
100
AcDbVertex
100
AcDb3dPolylineVertex
 10
99.806793
 20
-33.16758
 30
0.0
 70
    48
  0
VERTEX
  5
642
100
AcDbEntity
  8
0
390
0
100
AcDbVertex
100
AcDb3dPolylineVertex
 10
99.814659
 20
-33.162907
 30
0.0
 70
    40
  0
VERTEX
  5
643
100
AcDbEntity
  8
0
390
0
100
AcDbVertex
100
AcDb3dPolylineVertex
 10
99.822304
 20
-33.157978
 30
0.0
 70
    40
  0
VERTEX
  5
644
100
AcDbEntity
  8
0
390
0
100
AcDbVertex
100
AcDb3dPolylineVertex
 10
99.829727
 20
-33.152775
 30
0.0
 70
    40
  0
VERTEX
  5
645
100
AcDbEntity
  8
0
390
0
100
AcDbVertex
100
AcDb3dPolylineVertex
 10
99.836891
 20
-33.147285
 30
0.0
 70
    40
  0
VERTEX
  5
646
100
AcDbEntity
  8
0
390
0
100
AcDbVertex
100
AcDb3dPolylineVertex
 10
99.843803
 20
-33.141491
 30
0.0
 70
    40
  0
VERTEX
  5
647
100
AcDbEntity
  8
0
390
0
100
AcDbVertex
100
AcDb3dPolylineVertex
 10
99.850433
 20
-33.135384
 30
0.0
 70
    40
  0
VERTEX
  5
648
100
AcDbEntity
  8
0
390
0
100
AcDbVertex
100
AcDb3dPolylineVertex
 10
99.822723
 20
-33.158485
 30
0.0
 70
    48
  0
VERTEX
  5
649
100
AcDbEntity
  8
0
390
0
100
AcDbVertex
100
AcDb3dPolylineVertex
 10
99.837463
 20
-33.147926
 30
0.0
 70
    48
  0
VERTEX
  5
64A
100
AcDbEntity
  8
0
390
0
100
AcDbVertex
100
AcDb3dPolylineVertex
 10
99.850433
 20
-33.135384
 30
0.0
 70
    48
  0
VERTEX
  5
64B
100
AcDbEntity
  8
0
390
0
100
AcDbVertex
100
AcDb3dPolylineVertex
 10
99.855812
 20
-33.129974
 30
0.0
 70
    40
  0
VERTEX
  5
64C
100
AcDbEntity
  8
0
390
0
100
AcDbVertex
100
AcDb3dPolylineVertex
 10
99.860977
 20
-33.124344
 30
0.0
 70
    40
  0
VERTEX
  5
64D
100
AcDbEntity
  8
0
390
0
100
AcDbVertex
100
AcDb3dPolylineVertex
 10
99.865936
 20
-33.118511
 30
0.0
 70
    40
  0
VERTEX
  5
64E
100
AcDbEntity
  8
0
390
0
100
AcDbVertex
100
AcDb3dPolylineVertex
 10
99.870659
 20
-33.112488
 30
0.0
 70
    40
  0
VERTEX
  5
64F
100
AcDbEntity
  8
0
390
0
100
AcDbVertex
100
AcDb3dPolylineVertex
 10
99.875153
 20
-33.106285
 30
0.0
 70
    40
  0
VERTEX
  5
650
100
AcDbEntity
  8
0
390
0
100
AcDbVertex
100
AcDb3dPolylineVertex
 10
99.879395
 20
-33.099922
 30
0.0
 70
    40
  0
VERTEX
  5
651
100
AcDbEntity
  8
0
390
0
100
AcDbVertex
100
AcDb3dPolylineVertex
 10
99.861389
 20
-33.124794
 30
0.0
 70
    48
  0
VERTEX
  5
652
100
AcDbEntity
  8
0
390
0
100
AcDbVertex
100
AcDb3dPolylineVertex
 10
99.871155
 20
-33.112801
 30
0.0
 70
    48
  0
VERTEX
  5
653
100
AcDbEntity
  8
0
390
0
100
AcDbVertex
100
AcDb3dPolylineVertex
 10
99.879395
 20
-33.099922
 30
0.0
 70
    48
  0
VERTEX
  5
654
100
AcDbEntity
  8
0
390
0
100
AcDbVertex
100
AcDb3dPolylineVertex
 10
99.882759
 20
-33.094482
 30
0.0
 70
    40
  0
VERTEX
  5
655
100
AcDbEntity
  8
0
390
0
100
AcDbVertex
100
AcDb3dPolylineVertex
 10
99.885941
 20
-33.08894
 30
0.0
 70
    40
  0
VERTEX
  5
656
100
AcDbEntity
  8
0
390
0
100
AcDbVertex
100
AcDb3dPolylineVertex
 10
99.888954
 20
-33.083302
 30
0.0
 70
    40
  0
VERTEX
  5
657
100
AcDbEntity
  8
0
390
0
100
AcDbVertex
100
AcDb3dPolylineVertex
 10
99.891777
 20
-33.077568
 30
0.0
 70
    40
  0
VERTEX
  5
658
100
AcDbEntity
  8
0
390
0
100
AcDbVertex
100
AcDb3dPolylineVertex
 10
99.894424
 20
-33.071743
 30
0.0
 70
    40
  0
VERTEX
  5
659
100
AcDbEntity
  8
0
390
0
100
AcDbVertex
100
AcDb3dPolylineVertex
 10
99.896881
 20
-33.065834
 30
0.0
 70
    40
  0
VERTEX
  5
65A
100
AcDbEntity
  8
0
390
0
100
AcDbVertex
100
AcDb3dPolylineVertex
 10
99.886292
 20
-33.089149
 30
0.0
 70
    48
  0
VERTEX
  5
65B
100
AcDbEntity
  8
0
390
0
100
AcDbVertex
100
AcDb3dPolylineVertex
 10
99.892151
 20
-33.077736
 30
0.0
 70
    48
  0
VERTEX
  5
65C
100
AcDbEntity
  8
0
390
0
100
AcDbVertex
100
AcDb3dPolylineVertex
 10
99.896881
 20
-33.065834
 30
0.0
 70
    48
  0
VERTEX
  5
65D
100
AcDbEntity
  8
0
390
0
100
AcDbVertex
100
AcDb3dPolylineVertex
 10
99.898697
 20
-33.06105
 30
0.0
 70
    40
  0
VERTEX
  5
65E
100
AcDbEntity
  8
0
390
0
100
AcDbVertex
100
AcDb3dPolylineVertex
 10
99.900398
 20
-33.056225
 30
0.0
 70
    40
  0
VERTEX
  5
65F
100
AcDbEntity
  8
0
390
0
100
AcDbVertex
100
AcDb3dPolylineVertex
 10
99.901978
 20
-33.051365
 30
0.0
 70
    40
  0
VERTEX
  5
660
100
AcDbEntity
  8
0
390
0
100
AcDbVertex
100
AcDb3dPolylineVertex
 10
99.903435
 20
-33.046471
 30
0.0
 70
    40
  0
VERTEX
  5
661
100
AcDbEntity
  8
0
390
0
100
AcDbVertex
100
AcDb3dPolylineVertex
 10
99.90477
 20
-33.041546
 30
0.0
 70
    40
  0
VERTEX
  5
662
100
AcDbEntity
  8
0
390
0
100
AcDbVertex
100
AcDb3dPolylineVertex
 10
99.905975
 20
-33.036598
 30
0.0
 70
    40
  0
VERTEX
  5
663
100
AcDbEntity
  8
0
390
0
100
AcDbVertex
100
AcDb3dPolylineVertex
 10
99.900635
 20
-33.056313
 30
0.0
 70
    48
  0
VERTEX
  5
664
100
AcDbEntity
  8
0
390
0
100
AcDbVertex
100
AcDb3dPolylineVertex
 10
99.903687
 20
-33.046516
 30
0.0
 70
    48
  0
VERTEX
  5
665
100
AcDbEntity
  8
0
390
0
100
AcDbVertex
100
AcDb3dPolylineVertex
 10
99.905975
 20
-33.036598
 30
0.0
 70
    48
  0
VERTEX
  5
666
100
AcDbEntity
  8
0
390
0
100
AcDbVertex
100
AcDb3dPolylineVertex
 10
99.906776
 20
-33.032963
 30
0.0
 70
    40
  0
VERTEX
  5
667
100
AcDbEntity
  8
0
390
0
100
AcDbVertex
100
AcDb3dPolylineVertex
 10
99.907509
 20
-33.029308
 30
0.0
 70
    40
  0
VERTEX
  5
668
100
AcDbEntity
  8
0
390
0
100
AcDbVertex
100
AcDb3dPolylineVertex
 10
99.908173
 20
-33.025642
 30
0.0
 70
    40
  0
VERTEX
  5
669
100
AcDbEntity
  8
0
390
0
100
AcDbVertex
100
AcDb3dPolylineVertex
 10
99.90876
 20
-33.021954
 30
0.0
 70
    40
  0
VERTEX
  5
66A
100
AcDbEntity
  8
0
390
0
100
AcDbVertex
100
AcDb3dPolylineVertex
 10
99.909279
 20
-33.018242
 30
0.0
 70
    40
  0
VERTEX
  5
66B
100
AcDbEntity
  8
0
390
0
100
AcDbVertex
100
AcDb3dPolylineVertex
 10
99.909729
 20
-33.014503
 30
0.0
 70
    40
  0
VERTEX
  5
66C
100
AcDbEntity
  8
0
390
0
100
AcDbVertex
100
AcDb3dPolylineVertex
 10
99.907654
 20
-33.029335
 30
0.0
 70
    48
  0
VERTEX
  5
66D
100
AcDbEntity
  8
0
390
0
100
AcDbVertex
100
AcDb3dPolylineVertex
 10
99.908905
 20
-33.022011
 30
0.0
 70
    48
  0
VERTEX
  5
66E
100
AcDbEntity
  8
0
390
0
100
AcDbVertex
100
AcDb3dPolylineVertex
 10
99.909729
 20
-33.014503
 30
0.0
 70
    48
  0
VERTEX
  5
66F
100
AcDbEntity
  8
0
390
0
100
AcDbVertex
100
AcDb3dPolylineVertex
 10
99.909935
 20
-33.01255
 30
0.0
 70
    40
  0
VERTEX
  5
670
100
AcDbEntity
  8
0
390
0
100
AcDbVertex
100
AcDb3dPolylineVertex
 10
99.910126
 20
-33.010605
 30
0.0
 70
    40
  0
VERTEX
  5
671
100
AcDbEntity
  8
0
390
0
100
AcDbVertex
100
AcDb3dPolylineVertex
 10
99.910294
 20
-33.008686
 30
0.0
 70
    40
  0
VERTEX
  5
672
100
AcDbEntity
  8
0
390
0
100
AcDbVertex
100
AcDb3dPolylineVertex
 10
99.910454
 20
-33.006805
 30
0.0
 70
    40
  0
VERTEX
  5
673
100
AcDbEntity
  8
0
390
0
100
AcDbVertex
100
AcDb3dPolylineVertex
 10
99.910591
 20
-33.004974
 30
0.0
 70
    40
  0
VERTEX
  5
674
100
AcDbEntity
  8
0
390
0
100
AcDbVertex
100
AcDb3dPolylineVertex
 10
99.910706
 20
-33.003212
 30
0.0
 70
    40
  0
VERTEX
  5
675
100
AcDbEntity
  8
0
390
0
100
AcDbVertex
100
AcDb3dPolylineVertex
 10
99.910156
 20
-33.010597
 30
0.0
 70
    48
  0
VERTEX
  5
676
100
AcDbEntity
  8
0
390
0
100
AcDbVertex
100
AcDb3dPolylineVertex
 10
99.910492
 20
-33.00666
 30
0.0
 70
    48
  0
VERTEX
  5
677
100
AcDbEntity
  8
0
390
0
100
AcDbVertex
100
AcDb3dPolylineVertex
 10
99.910706
 20
-33.003212
 30
0.0
 70
    48
  0
VERTEX
  5
678
100
AcDbEntity
  8
0
390
0
100
AcDbVertex
100
AcDb3dPolylineVertex
 10
99.910736
 20
-33.002487
 30
0.0
 70
    40
  0
VERTEX
  5
679
100
AcDbEntity
  8
0
390
0
100
AcDbVertex
100
AcDb3dPolylineVertex
 10
99.910767
 20
-33.001778
 30
0.0
 70
    40
  0
VERTEX
  5
67A
100
AcDbEntity
  8
0
390
0
100
AcDbVertex
100
AcDb3dPolylineVertex
 10
99.910797
 20
-33.001091
 30
0.0
 70
    40
  0
VERTEX
  5
67B
100
AcDbEntity
  8
0
390
0
100
AcDbVertex
100
AcDb3dPolylineVertex
 10
99.910828
 20
-33.000435
 30
0.0
 70
    40
  0
VERTEX
  5
67C
100
AcDbEntity
  8
0
390
0
100
AcDbVertex
100
AcDb3dPolylineVertex
 10
99.910858
 20
-32.999817
 30
0.0
 70
    40
  0
VERTEX
  5
67D
100
AcDbEntity
  8
0
390
0
100
AcDbVertex
100
AcDb3dPolylineVertex
 10
99.910889
 20
-32.999245
 30
0.0
 70
    40
  0
VERTEX
  5
67E
100
AcDbEntity
  8
0
390
0
100
AcDbVertex
100
AcDb3dPolylineVertex
 10
99.910767
 20
-33.001747
 30
0.0
 70
    48
  0
VERTEX
  5
67F
100
AcDbEntity
  8
0
390
0
100
AcDbVertex
100
AcDb3dPolylineVertex
 10
99.910828
 20
-33.000343
 30
0.0
 70
    48
  0
VERTEX
  5
680
100
AcDbEntity
  8
0
390
0
100
AcDbVertex
100
AcDb3dPolylineVertex
 10
99.910889
 20
-32.999245
 30
0.0
 70
    48
  0
VERTEX
  5
681
100
AcDbEntity
  8
0
390
0
100
AcDbVertex
100
AcDb3dPolylineVertex
 10
99.910889
 20
-32.998863
 30
0.0
 70
    40
  0
VERTEX
  5
682
100
AcDbEntity
  8
0
390
0
100
AcDbVertex
100
AcDb3dPolylineVertex
 10
99.910896
 20
-32.998508
 30
0.0
 70
    40
  0
VERTEX
  5
683
100
AcDbEntity
  8
0
390
0
100
AcDbVertex
100
AcDb3dPolylineVertex
 10
99.910912
 20
-32.998177
 30
0.0
 70
    40
  0
VERTEX
  5
684
100
AcDbEntity
  8
0
390
0
100
AcDbVertex
100
AcDb3dPolylineVertex
 10
99.910919
 20
-32.997868
 30
0.0
 70
    40
  0
VERTEX
  5
685
100
AcDbEntity
  8
0
390
0
100
AcDbVertex
100
AcDb3dPolylineVertex
 10
99.910934
 20
-32.99757
 30
0.0
 70
    40
  0
VERTEX
  5
686
100
AcDbEntity
  8
0
390
0
100
AcDbVertex
100
AcDb3dPolylineVertex
 10
99.91095
 20
-32.997292
 30
0.0
 70
    40
  0
VERTEX
  5
687
100
AcDbEntity
  8
0
390
0
100
AcDbVertex
100
AcDb3dPolylineVertex
 10
99.910889
 20
-32.998451
 30
0.0
 70
    48
  0
VERTEX
  5
688
100
AcDbEntity
  8
0
390
0
100
AcDbVertex
100
AcDb3dPolylineVertex
 10
99.910919
 20
-32.997841
 30
0.0
 70
    48
  0
VERTEX
  5
689
100
AcDbEntity
  8
0
390
0
100
AcDbVertex
100
AcDb3dPolylineVertex
 10
99.91095
 20
-32.997292
 30
0.0
 70
    48
  0
VERTEX
  5
68A
100
AcDbEntity
  8
0
390
0
100
AcDbVertex
100
AcDb3dPolylineVertex
 10
99.91095
 20
-32.996941
 30
0.0
 70
    40
  0
VERTEX
  5
68B
100
AcDbEntity
  8
0
390
0
100
AcDbVertex
100
AcDb3dPolylineVertex
 10
99.910957
 20
-32.996616
 30
0.0
 70
    40
  0
VERTEX
  5
68C
100
AcDbEntity
  8
0
390
0
100
AcDbVertex
100
AcDb3dPolylineVertex
 10
99.910965
 20
-32.996323
 30
0.0
 70
    40
  0
VERTEX
  5
68D
100
AcDbEntity
  8
0
390
0
100
AcDbVertex
100
AcDb3dPolylineVertex
 10
99.910973
 20
-32.996052
 30
0.0
 70
    40
  0
VERTEX
  5
68E
100
AcDbEntity
  8
0
390
0
100
AcDbVertex
100
AcDb3dPolylineVertex
 10
99.91098
 20
-32.995808
 30
0.0
 70
    40
  0
VERTEX
  5
68F
100
AcDbEntity
  8
0
390
0
100
AcDbVertex
100
AcDb3dPolylineVertex
 10
99.91098
 20
-32.995583
 30
0.0
 70
    40
  0
VERTEX
  5
690
100
AcDbEntity
  8
0
390
0
100
AcDbVertex
100
AcDb3dPolylineVertex
 10
99.91095
 20
-32.996559
 30
0.0
 70
    48
  0
VERTEX
  5
691
100
AcDbEntity
  8
0
390
0
100
AcDbVertex
100
AcDb3dPolylineVertex
 10
99.91098
 20
-32.99601
 30
0.0
 70
    48
  0
VERTEX
  5
692
100
AcDbEntity
  8
0
390
0
100
AcDbVertex
100
AcDb3dPolylineVertex
 10
99.91098
 20
-32.995583
 30
0.0
 70
    48
  0
VERTEX
  5
693
100
AcDbEntity
  8
0
390
0
100
AcDbVertex
100
AcDb3dPolylineVertex
 10
99.910995
 20
-32.995148
 30
0.0
 70
    40
  0
VERTEX
  5
694
100
AcDbEntity
  8
0
390
0
100
AcDbVertex
100
AcDb3dPolylineVertex
 10
99.911003
 20
-32.994755
 30
0.0
 70
    40
  0
VERTEX
  5
695
100
AcDbEntity
  8
0
390
0
100
AcDbVertex
100
AcDb3dPolylineVertex
 10
99.911003
 20
-32.994396
 30
0.0
 70
    40
  0
VERTEX
  5
696
100
AcDbEntity
  8
0
390
0
100
AcDbVertex
100
AcDb3dPolylineVertex
 10
99.911011
 20
-32.994072
 30
0.0
 70
    40
  0
VERTEX
  5
697
100
AcDbEntity
  8
0
390
0
100
AcDbVertex
100
AcDb3dPolylineVertex
 10
99.911011
 20
-32.993778
 30
0.0
 70
    40
  0
VERTEX
  5
698
100
AcDbEntity
  8
0
390
0
100
AcDbVertex
100
AcDb3dPolylineVertex
 10
99.911011
 20
-32.993507
 30
0.0
 70
    40
  0
VERTEX
  5
699
100
AcDbEntity
  8
0
390
0
100
AcDbVertex
100
AcDb3dPolylineVertex
 10
99.911011
 20
-32.994667
 30
0.0
 70
    48
  0
VERTEX
  5
69A
100
AcDbEntity
  8
0
390
0
100
AcDbVertex
100
AcDb3dPolylineVertex
 10
99.911011
 20
-32.994026
 30
0.0
 70
    48
  0
VERTEX
  5
69B
100
AcDbEntity
  8
0
390
0
100
AcDbVertex
100
AcDb3dPolylineVertex
 10
99.911011
 20
-32.993507
 30
0.0
 70
    48
  0
VERTEX
  5
69C
100
AcDbEntity
  8
0
390
0
100
AcDbVertex
100
AcDb3dPolylineVertex
 10
99.911026
 20
-32.992767
 30
0.0
 70
    40
  0
VERTEX
  5
69D
100
AcDbEntity
  8
0
390
0
100
AcDbVertex
100
AcDb3dPolylineVertex
 10
99.911034
 20
-32.992119
 30
0.0
 70
    40
  0
VERTEX
  5
69E
100
AcDbEntity
  8
0
390
0
100
AcDbVertex
100
AcDb3dPolylineVertex
 10
99.911041
 20
-32.991455
 30
0.0
 70
    40
  0
VERTEX
  5
69F
100
AcDbEntity
  8
0
390
0
100
AcDbVertex
100
AcDb3dPolylineVertex
 10
99.911049
 20
-32.990665
 30
0.0
 70
    40
  0
VERTEX
  5
6A0
100
AcDbEntity
  8
0
390
0
100
AcDbVertex
100
AcDb3dPolylineVertex
 10
99.911057
 20
-32.989635
 30
0.0
 70
    40
  0
VERTEX
  5
6A1
100
AcDbEntity
  8
0
390
0
100
AcDbVertex
100
AcDb3dPolylineVertex
 10
99.911072
 20
-32.988258
 30
0.0
 70
    40
  0
VERTEX
  5
6A2
100
AcDbEntity
  8
0
390
0
100
AcDbVertex
100
AcDb3dPolylineVertex
 10
99.911041
 20
-32.991859
 30
0.0
 70
    48
  0
VERTEX
  5
6A3
100
AcDbEntity
  8
0
390
0
100
AcDbVertex
100
AcDb3dPolylineVertex
 10
99.911041
 20
-32.991432
 30
0.0
 70
    48
  0
VERTEX
  5
6A4
100
AcDbEntity
  8
0
390
0
100
AcDbVertex
100
AcDb3dPolylineVertex
 10
99.911072
 20
-32.988258
 30
0.0
 70
    48
  0
VERTEX
  5
6A5
100
AcDbEntity
  8
0
390
0
100
AcDbVertex
100
AcDb3dPolylineVertex
 10
99.911072
 20
-32.987568
 30
0.0
 70
    40
  0
VERTEX
  5
6A6
100
AcDbEntity
  8
0
390
0
100
AcDbVertex
100
AcDb3dPolylineVertex
 10
99.911072
 20
-32.98682
 30
0.0
 70
    40
  0
VERTEX
  5
6A7
100
AcDbEntity
  8
0
390
0
100
AcDbVertex
100
AcDb3dPolylineVertex
 10
99.911072
 20
-32.986019
 30
0.0
 70
    40
  0
VERTEX
  5
6A8
100
AcDbEntity
  8
0
390
0
100
AcDbVertex
100
AcDb3dPolylineVertex
 10
99.911072
 20
-32.98518
 30
0.0
 70
    40
  0
VERTEX
  5
6A9
100
AcDbEntity
  8
0
390
0
100
AcDbVertex
100
AcDb3dPolylineVertex
 10
99.911072
 20
-32.984318
 30
0.0
 70
    40
  0
VERTEX
  5
6AA
100
AcDbEntity
  8
0
390
0
100
AcDbVertex
100
AcDb3dPolylineVertex
 10
99.911072
 20
-32.983437
 30
0.0
 70
    40
  0
VERTEX
  5
6AB
100
AcDbEntity
  8
0
390
0
100
AcDbVertex
100
AcDb3dPolylineVertex
 10
99.911072
 20
-32.986946
 30
0.0
 70
    48
  0
VERTEX
  5
6AC
100
AcDbEntity
  8
0
390
0
100
AcDbVertex
100
AcDb3dPolylineVertex
 10
99.911072
 20
-32.985207
 30
0.0
 70
    48
  0
VERTEX
  5
6AD
100
AcDbEntity
  8
0
390
0
100
AcDbVertex
100
AcDb3dPolylineVertex
 10
99.911072
 20
-32.983437
 30
0.0
 70
    48
  0
SEQEND
  5
6AE
100
AcDbEntity
  8
0
390
0
  0
LINE
  5
6AF
100
AcDbEntity
  8
ANSICHT
390
0
  6
DURCHGEHEND
 62
     1
100
AcDbLine
 10
92.987213
 20
-22.860815
 30
0.0
 11
96.161163
 21
-22.816504
 31
0.0
  0
LINE
  5
6B0
100
AcDbEntity
  8
ANSICHT
390
0
  6
DURCHGEHEND
 62
     1
100
AcDbLine
 10
99.693359
 20
-14.206579
 30
0.0
 11
94.405884
 21
-14.132757
 31
0.0
  0
ARC
  5
6B1
100
AcDbEntity
  8
ANSICHT
390
0
  6
DURCHGEHEND
 62
     1
100
AcDbCircle
 10
92.986176
 20
-22.785833
 30
0.0
 40
0.075012
100
AcDbArc
 50
180.0
 51
270.799988
  0
POLYLINE
  5
6B2
100
AcDbEntity
  8
ANSICHT
390
0
  6
DURCHGEHEND
 62
     1
100
AcDb3dPolyline
 66
     1
 10
0.0
 20
0.0
 30
0.0
 70
    12
 75
     5
  0
VERTEX
  5
6B3
100
AcDbEntity
  8
0
390
0
100
AcDbVertex
100
AcDb3dPolylineVertex
 10
99.876221
 20
-14.333014
 30
0.0
 70
    48
  0
VERTEX
  5
6B4
100
AcDbEntity
  8
0
390
0
100
AcDbVertex
100
AcDb3dPolylineVertex
 10
99.876221
 20
-14.333014
 30
0.0
 70
    40
  0
VERTEX
  5
6B5
100
AcDbEntity
  8
0
390
0
100
AcDbVertex
100
AcDb3dPolylineVertex
 10
99.875519
 20
-14.331073
 30
0.0
 70
    40
  0
VERTEX
  5
6B6
100
AcDbEntity
  8
0
390
0
100
AcDbVertex
100
AcDb3dPolylineVertex
 10
99.874794
 20
-14.329113
 30
0.0
 70
    40
  0
VERTEX
  5
6B7
100
AcDbEntity
  8
0
390
0
100
AcDbVertex
100
AcDb3dPolylineVertex
 10
99.874031
 20
-14.327116
 30
0.0
 70
    40
  0
VERTEX
  5
6B8
100
AcDbEntity
  8
0
390
0
100
AcDbVertex
100
AcDb3dPolylineVertex
 10
99.873215
 20
-14.325063
 30
0.0
 70
    40
  0
VERTEX
  5
6B9
100
AcDbEntity
  8
0
390
0
100
AcDbVertex
100
AcDb3dPolylineVertex
 10
99.872322
 20
-14.322936
 30
0.0
 70
    40
  0
VERTEX
  5
6BA
100
AcDbEntity
  8
0
390
0
100
AcDbVertex
100
AcDb3dPolylineVertex
 10
99.871338
 20
-14.320715
 30
0.0
 70
    40
  0
VERTEX
  5
6BB
100
AcDbEntity
  8
0
390
0
100
AcDbVertex
100
AcDb3dPolylineVertex
 10
99.874817
 20
-14.329138
 30
0.0
 70
    48
  0
VERTEX
  5
6BC
100
AcDbEntity
  8
0
390
0
100
AcDbVertex
100
AcDb3dPolylineVertex
 10
99.873413
 20
-14.325262
 30
0.0
 70
    48
  0
VERTEX
  5
6BD
100
AcDbEntity
  8
0
390
0
100
AcDbVertex
100
AcDb3dPolylineVertex
 10
99.871338
 20
-14.320715
 30
0.0
 70
    48
  0
VERTEX
  5
6BE
100
AcDbEntity
  8
0
390
0
100
AcDbVertex
100
AcDb3dPolylineVertex
 10
99.86882
 20
-14.315525
 30
0.0
 70
    40
  0
VERTEX
  5
6BF
100
AcDbEntity
  8
0
390
0
100
AcDbVertex
100
AcDb3dPolylineVertex
 10
99.865814
 20
-14.309916
 30
0.0
 70
    40
  0
VERTEX
  5
6C0
100
AcDbEntity
  8
0
390
0
100
AcDbVertex
100
AcDb3dPolylineVertex
 10
99.862358
 20
-14.303999
 30
0.0
 70
    40
  0
VERTEX
  5
6C1
100
AcDbEntity
  8
0
390
0
100
AcDbVertex
100
AcDb3dPolylineVertex
 10
99.85849
 20
-14.297883
 30
0.0
 70
    40
  0
VERTEX
  5
6C2
100
AcDbEntity
  8
0
390
0
100
AcDbVertex
100
AcDb3dPolylineVertex
 10
99.854248
 20
-14.291679
 30
0.0
 70
    40
  0
VERTEX
  5
6C3
100
AcDbEntity
  8
0
390
0
100
AcDbVertex
100
AcDb3dPolylineVertex
 10
99.84967
 20
-14.285498
 30
0.0
 70
    40
  0
VERTEX
  5
6C4
100
AcDbEntity
  8
0
390
0
100
AcDbVertex
100
AcDb3dPolylineVertex
 10
99.866821
 20
-14.310827
 30
0.0
 70
    48
  0
VERTEX
  5
6C5
100
AcDbEntity
  8
0
390
0
100
AcDbVertex
100
AcDb3dPolylineVertex
 10
99.859131
 20
-14.297766
 30
0.0
 70
    48
  0
VERTEX
  5
6C6
100
AcDbEntity
  8
0
390
0
100
AcDbVertex
100
AcDb3dPolylineVertex
 10
99.84967
 20
-14.285498
 30
0.0
 70
    48
  0
VERTEX
  5
6C7
100
AcDbEntity
  8
0
390
0
100
AcDbVertex
100
AcDb3dPolylineVertex
 10
99.843567
 20
-14.277996
 30
0.0
 70
    40
  0
VERTEX
  5
6C8
100
AcDbEntity
  8
0
390
0
100
AcDbVertex
100
AcDb3dPolylineVertex
 10
99.837021
 20
-14.270702
 30
0.0
 70
    40
  0
VERTEX
  5
6C9
100
AcDbEntity
  8
0
390
0
100
AcDbVertex
100
AcDb3dPolylineVertex
 10
99.830048
 20
-14.263636
 30
0.0
 70
    40
  0
VERTEX
  5
6CA
100
AcDbEntity
  8
0
390
0
100
AcDbVertex
100
AcDb3dPolylineVertex
 10
99.822655
 20
-14.256816
 30
0.0
 70
    40
  0
VERTEX
  5
6CB
100
AcDbEntity
  8
0
390
0
100
AcDbVertex
100
AcDb3dPolylineVertex
 10
99.814857
 20
-14.250262
 30
0.0
 70
    40
  0
VERTEX
  5
6CC
100
AcDbEntity
  8
0
390
0
100
AcDbVertex
100
AcDb3dPolylineVertex
 10
99.806671
 20
-14.243994
 30
0.0
 70
    40
  0
VERTEX
  5
6CD
100
AcDbEntity
  8
0
390
0
100
AcDbVertex
100
AcDb3dPolylineVertex
 10
99.837921
 20
-14.2703
 30
0.0
 70
    48
  0
VERTEX
  5
6CE
100
AcDbEntity
  8
0
390
0
100
AcDbVertex
100
AcDb3dPolylineVertex
 10
99.823425
 20
-14.256231
 30
0.0
 70
    48
  0
VERTEX
  5
6CF
100
AcDbEntity
  8
0
390
0
100
AcDbVertex
100
AcDb3dPolylineVertex
 10
99.806671
 20
-14.243994
 30
0.0
 70
    48
  0
VERTEX
  5
6D0
100
AcDbEntity
  8
0
390
0
100
AcDbVertex
100
AcDb3dPolylineVertex
 10
99.797089
 20
-14.237368
 30
0.0
 70
    40
  0
VERTEX
  5
6D1
100
AcDbEntity
  8
0
390
0
100
AcDbVertex
100
AcDb3dPolylineVertex
 10
99.787071
 20
-14.231238
 30
0.0
 70
    40
  0
VERTEX
  5
6D2
100
AcDbEntity
  8
0
390
0
100
AcDbVertex
100
AcDb3dPolylineVertex
 10
99.776672
 20
-14.225721
 30
0.0
 70
    40
  0
VERTEX
  5
6D3
100
AcDbEntity
  8
0
390
0
100
AcDbVertex
100
AcDb3dPolylineVertex
 10
99.765915
 20
-14.220931
 30
0.0
 70
    40
  0
VERTEX
  5
6D4
100
AcDbEntity
  8
0
390
0
100
AcDbVertex
100
AcDb3dPolylineVertex
 10
99.754852
 20
-14.216985
 30
0.0
 70
    40
  0
VERTEX
  5
6D5
100
AcDbEntity
  8
0
390
0
100
AcDbVertex
100
AcDb3dPolylineVertex
 10
99.74353
 20
-14.213995
 30
0.0
 70
    40
  0
VERTEX
  5
6D6
100
AcDbEntity
  8
0
390
0
100
AcDbVertex
100
AcDb3dPolylineVertex
 10
99.787964
 20
-14.230322
 30
0.0
 70
    48
  0
VERTEX
  5
6D7
100
AcDbEntity
  8
0
390
0
100
AcDbVertex
100
AcDb3dPolylineVertex
 10
99.766418
 20
-14.218939
 30
0.0
 70
    48
  0
VERTEX
  5
6D8
100
AcDbEntity
  8
0
390
0
100
AcDbVertex
100
AcDb3dPolylineVertex
 10
99.74353
 20
-14.213995
 30
0.0
 70
    48
  0
VERTEX
  5
6D9
100
AcDbEntity
  8
0
390
0
100
AcDbVertex
100
AcDb3dPolylineVertex
 10
99.735481
 20
-14.212516
 30
0.0
 70
    40
  0
VERTEX
  5
6DA
100
AcDbEntity
  8
0
390
0
100
AcDbVertex
100
AcDb3dPolylineVertex
 10
99.727333
 20
-14.211469
 30
0.0
 70
    40
  0
VERTEX
  5
6DB
100
AcDbEntity
  8
0
390
0
100
AcDbVertex
100
AcDb3dPolylineVertex
 10
99.719109
 20
-14.210768
 30
0.0
 70
    40
  0
VERTEX
  5
6DC
100
AcDbEntity
  8
0
390
0
100
AcDbVertex
100
AcDb3dPolylineVertex
 10
99.710831
 20
-14.210326
 30
0.0
 70
    40
  0
VERTEX
  5
6DD
100
AcDbEntity
  8
0
390
0
100
AcDbVertex
100
AcDb3dPolylineVertex
 10
99.702515
 20
-14.210057
 30
0.0
 70
    40
  0
VERTEX
  5
6DE
100
AcDbEntity
  8
0
390
0
100
AcDbVertex
100
AcDb3dPolylineVertex
 10
99.694183
 20
-14.209875
 30
0.0
 70
    40
  0
VERTEX
  5
6DF
100
AcDbEntity
  8
0
390
0
100
AcDbVertex
100
AcDb3dPolylineVertex
 10
99.727539
 20
-14.210546
 30
0.0
 70
    48
  0
VERTEX
  5
6E0
100
AcDbEntity
  8
0
390
0
100
AcDbVertex
100
AcDb3dPolylineVertex
 10
99.710846
 20
-14.210211
 30
0.0
 70
    48
  0
VERTEX
  5
6E1
100
AcDbEntity
  8
0
390
0
100
AcDbVertex
100
AcDb3dPolylineVertex
 10
99.694183
 20
-14.209875
 30
0.0
 70
    48
  0
SEQEND
  5
6E2
100
AcDbEntity
  8
0
390
0
  0
LINE
  5
6E3
100
AcDbEntity
  8
ANSICHT
390
0
  6
DURCHGEHEND
 62
     1
100
AcDbLine
 10
92.223267
 20
-14.122168
 30
0.0
 11
91.621033
 21
-14.122168
 31
0.0
  0
LINE
  5
6E4
100
AcDbEntity
  8
ANSICHT
390
0
  6
DURCHGEHEND
 62
     1
100
AcDbLine
 10
91.621033
 20
-22.872168
 30
0.0
 11
92.223267
 21
-22.872168
 31
0.0
  0
ARC
  5
6E5
100
AcDbEntity
  8
ANSICHT
390
0
  6
DURCHGEHEND
 62
     1
100
AcDbCircle
 10
92.223267
 20
-14.247168
 30
0.0
 40
0.125
100
AcDbArc
 50
0.0
 51
90.0
  0
ARC
  5
6E6
100
AcDbEntity
  8
ANSICHT
390
0
  6
DURCHGEHEND
 62
     1
100
AcDbCircle
 10
92.223267
 20
-22.747168
 30
0.0
 40
0.125
100
AcDbArc
 50
270.0
 51
360.0
  0
ARC
  5
6E7
100
AcDbEntity
  8
ANSICHT
390
0
  6
DURCHGEHEND
 62
     1
100
AcDbCircle
 10
92.598267
 20
-14.39414
 30
0.0
 40
0.25
100
AcDbArc
 50
180.0
 51
258.463013
  0
ARC
  5
6E8
100
AcDbEntity
  8
ANSICHT
390
0
  6
DURCHGEHEND
 62
     1
100
AcDbCircle
 10
92.598267
 20
-22.600256
 30
0.0
 40
0.25
100
AcDbArc
 50
101.535004
 51
179.998001
  0
ARC
  5
6E9
100
AcDbEntity
  8
ANSICHT
390
0
  6
DURCHGEHEND
 62
     1
100
AcDbCircle
 10
85.739258
 20
-19.753027
 30
0.0
 40
6.5
100
AcDbArc
 50
154.529007
 51
205.470993
  0
ARC
  5
6EA
100
AcDbEntity
  8
ANSICHT
390
0
  6
DURCHGEHEND
 62
     1
100
AcDbCircle
 10
85.739258
 20
-19.753027
 30
0.0
 40
6.5
100
AcDbArc
 50
72.507004
 51
107.5
  0
ARC
  5
6EB
100
AcDbEntity
  8
ANSICHT
390
0
  6
DURCHGEHEND
 62
     1
100
AcDbCircle
 10
85.739258
 20
-19.753027
 30
0.0
 40
6.0
100
AcDbArc
 50
167.968994
 51
192.029999
  0
POLYLINE
  5
6EC
100
AcDbEntity
  8
ANSICHT
390
0
  6
DURCHGEHEND
 62
     1
100
AcDb3dPolyline
 66
     1
 10
0.0
 20
0.0
 30
0.0
 70
    12
 75
     5
  0
VERTEX
  5
6ED
100
AcDbEntity
  8
0
390
0
100
AcDbVertex
100
AcDb3dPolylineVertex
 10
99.911163
 20
-32.882423
 30
0.0
 70
    48
  0
VERTEX
  5
6EE
100
AcDbEntity
  8
0
390
0
100
AcDbVertex
100
AcDb3dPolylineVertex
 10
99.911163
 20
-32.882423
 30
0.0
 70
    40
  0
VERTEX
  5
6EF
100
AcDbEntity
  8
0
390
0
100
AcDbVertex
100
AcDb3dPolylineVertex
 10
99.911163
 20
-32.89172
 30
0.0
 70
    40
  0
VERTEX
  5
6F0
100
AcDbEntity
  8
0
390
0
100
AcDbVertex
100
AcDb3dPolylineVertex
 10
99.911163
 20
-32.900948
 30
0.0
 70
    40
  0
VERTEX
  5
6F1
100
AcDbEntity
  8
0
390
0
100
AcDbVertex
100
AcDb3dPolylineVertex
 10
99.911163
 20
-32.910042
 30
0.0
 70
    40
  0
VERTEX
  5
6F2
100
AcDbEntity
  8
0
390
0
100
AcDbVertex
100
AcDb3dPolylineVertex
 10
99.911163
 20
-32.91893
 30
0.0
 70
    40
  0
VERTEX
  5
6F3
100
AcDbEntity
  8
0
390
0
100
AcDbVertex
100
AcDb3dPolylineVertex
 10
99.911163
 20
-32.927551
 30
0.0
 70
    40
  0
VERTEX
  5
6F4
100
AcDbEntity
  8
0
390
0
100
AcDbVertex
100
AcDb3dPolylineVertex
 10
99.911163
 20
-32.935829
 30
0.0
 70
    40
  0
VERTEX
  5
6F5
100
AcDbEntity
  8
0
390
0
100
AcDbVertex
100
AcDb3dPolylineVertex
 10
99.911163
 20
-32.901039
 30
0.0
 70
    48
  0
VERTEX
  5
6F6
100
AcDbEntity
  8
0
390
0
100
AcDbVertex
100
AcDb3dPolylineVertex
 10
99.911163
 20
-32.919655
 30
0.0
 70
    48
  0
VERTEX
  5
6F7
100
AcDbEntity
  8
0
390
0
100
AcDbVertex
100
AcDb3dPolylineVertex
 10
99.911163
 20
-32.935829
 30
0.0
 70
    48
  0
VERTEX
  5
6F8
100
AcDbEntity
  8
0
390
0
100
AcDbVertex
100
AcDb3dPolylineVertex
 10
99.911148
 20
-32.947685
 30
0.0
 70
    40
  0
VERTEX
  5
6F9
100
AcDbEntity
  8
0
390
0
100
AcDbVertex
100
AcDb3dPolylineVertex
 10
99.911133
 20
-32.958309
 30
0.0
 70
    40
  0
VERTEX
  5
6FA
100
AcDbEntity
  8
0
390
0
100
AcDbVertex
100
AcDb3dPolylineVertex
 10
99.911118
 20
-32.967426
 30
0.0
 70
    40
  0
VERTEX
  5
6FB
100
AcDbEntity
  8
0
390
0
100
AcDbVertex
100
AcDb3dPolylineVertex
 10
99.911102
 20
-32.974751
 30
0.0
 70
    40
  0
VERTEX
  5
6FC
100
AcDbEntity
  8
0
390
0
100
AcDbVertex
100
AcDb3dPolylineVertex
 10
99.911087
 20
-32.979996
 30
0.0
 70
    40
  0
VERTEX
  5
6FD
100
AcDbEntity
  8
0
390
0
100
AcDbVertex
100
AcDb3dPolylineVertex
 10
99.911072
 20
-32.982887
 30
0.0
 70
    40
  0
VERTEX
  5
6FE
100
AcDbEntity
  8
0
390
0
100
AcDbVertex
100
AcDb3dPolylineVertex
 10
99.911133
 20
-32.960579
 30
0.0
 70
    48
  0
VERTEX
  5
6FF
100
AcDbEntity
  8
0
390
0
100
AcDbVertex
100
AcDb3dPolylineVertex
 10
99.911102
 20
-32.979652
 30
0.0
 70
    48
  0
VERTEX
  5
700
100
AcDbEntity
  8
0
390
0
100
AcDbVertex
100
AcDb3dPolylineVertex
 10
99.911072
 20
-32.982887
 30
0.0
 70
    48
  0
VERTEX
  5
701
100
AcDbEntity
  8
0
390
0
100
AcDbVertex
100
AcDb3dPolylineVertex
 10
99.911072
 20
-32.983002
 30
0.0
 70
    40
  0
VERTEX
  5
702
100
AcDbEntity
  8
0
390
0
100
AcDbVertex
100
AcDb3dPolylineVertex
 10
99.911072
 20
-32.983105
 30
0.0
 70
    40
  0
VERTEX
  5
703
100
AcDbEntity
  8
0
390
0
100
AcDbVertex
100
AcDb3dPolylineVertex
 10
99.911072
 20
-32.983196
 30
0.0
 70
    40
  0
VERTEX
  5
704
100
AcDbEntity
  8
0
390
0
100
AcDbVertex
100
AcDb3dPolylineVertex
 10
99.911072
 20
-32.98328
 30
0.0
 70
    40
  0
VERTEX
  5
705
100
AcDbEntity
  8
0
390
0
100
AcDbVertex
100
AcDb3dPolylineVertex
 10
99.911072
 20
-32.98336
 30
0.0
 70
    40
  0
VERTEX
  5
706
100
AcDbEntity
  8
0
390
0
100
AcDbVertex
100
AcDb3dPolylineVertex
 10
99.911072
 20
-32.983437
 30
0.0
 70
    40
  0
VERTEX
  5
707
100
AcDbEntity
  8
0
390
0
100
AcDbVertex
100
AcDb3dPolylineVertex
 10
99.911072
 20
-32.983131
 30
0.0
 70
    48
  0
VERTEX
  5
708
100
AcDbEntity
  8
0
390
0
100
AcDbVertex
100
AcDb3dPolylineVertex
 10
99.911072
 20
-32.983284
 30
0.0
 70
    48
  0
VERTEX
  5
709
100
AcDbEntity
  8
0
390
0
100
AcDbVertex
100
AcDb3dPolylineVertex
 10
99.911072
 20
-32.983437
 30
0.0
 70
    48
  0
SEQEND
  5
70A
100
AcDbEntity
  8
0
390
0
  0
POLYLINE
  5
70B
100
AcDbEntity
  8
ANSICHT
390
0
  6
DURCHGEHEND
 62
     1
100
AcDb3dPolyline
 66
     1
 10
0.0
 20
0.0
 30
0.0
 70
    12
 75
     5
  0
VERTEX
  5
70C
100
AcDbEntity
  8
0
390
0
100
AcDbVertex
100
AcDb3dPolylineVertex
 10
99.904236
 20
-19.942144
 30
0.0
 70
    48
  0
VERTEX
  5
70D
100
AcDbEntity
  8
0
390
0
100
AcDbVertex
100
AcDb3dPolylineVertex
 10
99.904236
 20
-19.942144
 30
0.0
 70
    40
  0
VERTEX
  5
70E
100
AcDbEntity
  8
0
390
0
100
AcDbVertex
100
AcDb3dPolylineVertex
 10
99.904587
 20
-19.990356
 30
0.0
 70
    40
  0
VERTEX
  5
70F
100
AcDbEntity
  8
0
390
0
100
AcDbVertex
100
AcDb3dPolylineVertex
 10
99.904945
 20
-20.038626
 30
0.0
 70
    40
  0
VERTEX
  5
710
100
AcDbEntity
  8
0
390
0
100
AcDbVertex
100
AcDb3dPolylineVertex
 10
99.905289
 20
-20.087011
 30
0.0
 70
    40
  0
VERTEX
  5
711
100
AcDbEntity
  8
0
390
0
100
AcDbVertex
100
AcDb3dPolylineVertex
 10
99.905632
 20
-20.135569
 30
0.0
 70
    40
  0
VERTEX
  5
712
100
AcDbEntity
  8
0
390
0
100
AcDbVertex
100
AcDb3dPolylineVertex
 10
99.905968
 20
-20.184359
 30
0.0
 70
    40
  0
VERTEX
  5
713
100
AcDbEntity
  8
0
390
0
100
AcDbVertex
100
AcDb3dPolylineVertex
 10
99.906281
 20
-20.233435
 30
0.0
 70
    40
  0
VERTEX
  5
714
100
AcDbEntity
  8
0
390
0
100
AcDbVertex
100
AcDb3dPolylineVertex
 10
99.904938
 20
-20.038549
 30
0.0
 70
    48
  0
VERTEX
  5
715
100
AcDbEntity
  8
0
390
0
100
AcDbVertex
100
AcDb3dPolylineVertex
 10
99.90567
 20
-20.134954
 30
0.0
 70
    48
  0
VERTEX
  5
716
100
AcDbEntity
  8
0
390
0
100
AcDbVertex
100
AcDb3dPolylineVertex
 10
99.906281
 20
-20.233435
 30
0.0
 70
    48
  0
VERTEX
  5
717
100
AcDbEntity
  8
0
390
0
100
AcDbVertex
100
AcDb3dPolylineVertex
 10
99.906998
 20
-20.353821
 30
0.0
 70
    40
  0
VERTEX
  5
718
100
AcDbEntity
  8
0
390
0
100
AcDbVertex
100
AcDb3dPolylineVertex
 10
99.907623
 20
-20.475801
 30
0.0
 70
    40
  0
VERTEX
  5
719
100
AcDbEntity
  8
0
390
0
100
AcDbVertex
100
AcDb3dPolylineVertex
 10
99.908173
 20
-20.598944
 30
0.0
 70
    40
  0
VERTEX
  5
71A
100
AcDbEntity
  8
0
390
0
100
AcDbVertex
100
AcDb3dPolylineVertex
 10
99.908638
 20
-20.722818
 30
0.0
 70
    40
  0
VERTEX
  5
71B
100
AcDbEntity
  8
0
390
0
100
AcDbVertex
100
AcDb3dPolylineVertex
 10
99.909042
 20
-20.846996
 30
0.0
 70
    40
  0
VERTEX
  5
71C
100
AcDbEntity
  8
0
390
0
100
AcDbVertex
100
AcDb3dPolylineVertex
 10
99.909393
 20
-20.971045
 30
0.0
 70
    40
  0
VERTEX
  5
71D
100
AcDbEntity
  8
0
390
0
100
AcDbVertex
100
AcDb3dPolylineVertex
 10
99.907806
 20
-20.472326
 30
0.0
 70
    48
  0
VERTEX
  5
71E
100
AcDbEntity
  8
0
390
0
100
AcDbVertex
100
AcDb3dPolylineVertex
 10
99.908752
 20
-20.723364
 30
0.0
 70
    48
  0
VERTEX
  5
71F
100
AcDbEntity
  8
0
390
0
100
AcDbVertex
100
AcDb3dPolylineVertex
 10
99.909393
 20
-20.971045
 30
0.0
 70
    48
  0
VERTEX
  5
720
100
AcDbEntity
  8
0
390
0
100
AcDbVertex
100
AcDb3dPolylineVertex
 10
99.909691
 20
-21.094475
 30
0.0
 70
    40
  0
VERTEX
  5
721
100
AcDbEntity
  8
0
390
0
100
AcDbVertex
100
AcDb3dPolylineVertex
 10
99.909943
 20
-21.216721
 30
0.0
 70
    40
  0
VERTEX
  5
722
100
AcDbEntity
  8
0
390
0
100
AcDbVertex
100
AcDb3dPolylineVertex
 10
99.910156
 20
-21.337152
 30
0.0
 70
    40
  0
VERTEX
  5
723
100
AcDbEntity
  8
0
390
0
100
AcDbVertex
100
AcDb3dPolylineVertex
 10
99.910339
 20
-21.455135
 30
0.0
 70
    40
  0
VERTEX
  5
724
100
AcDbEntity
  8
0
390
0
100
AcDbVertex
100
AcDb3dPolylineVertex
 10
99.910477
 20
-21.570034
 30
0.0
 70
    40
  0
VERTEX
  5
725
100
AcDbEntity
  8
0
390
0
100
AcDbVertex
100
AcDb3dPolylineVertex
 10
99.910583
 20
-21.681219
 30
0.0
 70
    40
  0
VERTEX
  5
726
100
AcDbEntity
  8
0
390
0
100
AcDbVertex
100
AcDb3dPolylineVertex
 10
99.910034
 20
-21.218664
 30
0.0
 70
    48
  0
VERTEX
  5
727
100
AcDbEntity
  8
0
390
0
100
AcDbVertex
100
AcDb3dPolylineVertex
 10
99.9104
 20
-21.462988
 30
0.0
 70
    48
  0
VERTEX
  5
728
100
AcDbEntity
  8
0
390
0
100
AcDbVertex
100
AcDb3dPolylineVertex
 10
99.910583
 20
-21.681219
 30
0.0
 70
    48
  0
VERTEX
  5
729
100
AcDbEntity
  8
0
390
0
100
AcDbVertex
100
AcDb3dPolylineVertex
 10
99.91066
 20
-21.788271
 30
0.0
 70
    40
  0
VERTEX
  5
72A
100
AcDbEntity
  8
0
390
0
100
AcDbVertex
100
AcDb3dPolylineVertex
 10
99.910721
 20
-21.891708
 30
0.0
 70
    40
  0
VERTEX
  5
72B
100
AcDbEntity
  8
0
390
0
100
AcDbVertex
100
AcDb3dPolylineVertex
 10
99.910759
 20
-21.992254
 30
0.0
 70
    40
  0
VERTEX
  5
72C
100
AcDbEntity
  8
0
390
0
100
AcDbVertex
100
AcDb3dPolylineVertex
 10
99.910789
 20
-22.090633
 30
0.0
 70
    40
  0
VERTEX
  5
72D
100
AcDbEntity
  8
0
390
0
100
AcDbVertex
100
AcDb3dPolylineVertex
 10
99.910812
 20
-22.187571
 30
0.0
 70
    40
  0
VERTEX
  5
72E
100
AcDbEntity
  8
0
390
0
100
AcDbVertex
100
AcDb3dPolylineVertex
 10
99.910828
 20
-22.283789
 30
0.0
 70
    40
  0
VERTEX
  5
72F
100
AcDbEntity
  8
0
390
0
100
AcDbVertex
100
AcDb3dPolylineVertex
 10
99.910767
 20
-21.89942
 30
0.0
 70
    48
  0
VERTEX
  5
730
100
AcDbEntity
  8
0
390
0
100
AcDbVertex
100
AcDb3dPolylineVertex
 10
99.910797
 20
-22.091589
 30
0.0
 70
    48
  0
VERTEX
  5
731
100
AcDbEntity
  8
0
390
0
100
AcDbVertex
100
AcDb3dPolylineVertex
 10
99.910828
 20
-22.283789
 30
0.0
 70
    48
  0
SEQEND
  5
732
100
AcDbEntity
  8
0
390
0
  0
POLYLINE
  5
733
100
AcDbEntity
  8
ANSICHT
390
0
  6
DURCHGEHEND
 62
     1
100
AcDb3dPolyline
 66
     1
 10
0.0
 20
0.0
 30
0.0
 70
    12
 75
     5
  0
VERTEX
  5
734
100
AcDbEntity
  8
0
390
0
100
AcDbVertex
100
AcDb3dPolylineVertex
 10
99.891449
 20
-14.419165
 30
0.0
 70
    48
  0
VERTEX
  5
735
100
AcDbEntity
  8
0
390
0
100
AcDbVertex
100
AcDb3dPolylineVertex
 10
99.891449
 20
-14.419165
 30
0.0
 70
    40
  0
VERTEX
  5
736
100
AcDbEntity
  8
0
390
0
100
AcDbVertex
100
AcDb3dPolylineVertex
 10
99.891129
 20
-14.41913
 30
0.0
 70
    40
  0
VERTEX
  5
737
100
AcDbEntity
  8
0
390
0
100
AcDbVertex
100
AcDb3dPolylineVertex
 10
99.890816
 20
-14.419072
 30
0.0
 70
    40
  0
VERTEX
  5
738
100
AcDbEntity
  8
0
390
0
100
AcDbVertex
100
AcDb3dPolylineVertex
 10
99.890503
 20
-14.418966
 30
0.0
 70
    40
  0
VERTEX
  5
739
100
AcDbEntity
  8
0
390
0
100
AcDbVertex
100
AcDb3dPolylineVertex
 10
99.89019
 20
-14.41879
 30
0.0
 70
    40
  0
VERTEX
  5
73A
100
AcDbEntity
  8
0
390
0
100
AcDbVertex
100
AcDb3dPolylineVertex
 10
99.889877
 20
-14.418517
 30
0.0
 70
    40
  0
VERTEX
  5
73B
100
AcDbEntity
  8
0
390
0
100
AcDbVertex
100
AcDb3dPolylineVertex
 10
99.889557
 20
-14.418127
 30
0.0
 70
    40
  0
VERTEX
  5
73C
100
AcDbEntity
  8
0
390
0
100
AcDbVertex
100
AcDb3dPolylineVertex
 10
99.890808
 20
-14.419104
 30
0.0
 70
    48
  0
VERTEX
  5
73D
100
AcDbEntity
  8
0
390
0
100
AcDbVertex
100
AcDb3dPolylineVertex
 10
99.890198
 20
-14.419043
 30
0.0
 70
    48
  0
VERTEX
  5
73E
100
AcDbEntity
  8
0
390
0
100
AcDbVertex
100
AcDb3dPolylineVertex
 10
99.889557
 20
-14.418127
 30
0.0
 70
    48
  0
VERTEX
  5
73F
100
AcDbEntity
  8
0
390
0
100
AcDbVertex
100
AcDb3dPolylineVertex
 10
99.889145
 20
-14.417464
 30
0.0
 70
    40
  0
VERTEX
  5
740
100
AcDbEntity
  8
0
390
0
100
AcDbVertex
100
AcDb3dPolylineVertex
 10
99.888725
 20
-14.416748
 30
0.0
 70
    40
  0
VERTEX
  5
741
100
AcDbEntity
  8
0
390
0
100
AcDbVertex
100
AcDb3dPolylineVertex
 10
99.888306
 20
-14.416151
 30
0.0
 70
    40
  0
VERTEX
  5
742
100
AcDbEntity
  8
0
390
0
100
AcDbVertex
100
AcDb3dPolylineVertex
 10
99.887894
 20
-14.415844
 30
0.0
 70
    40
  0
VERTEX
  5
743
100
AcDbEntity
  8
0
390
0
100
AcDbVertex
100
AcDb3dPolylineVertex
 10
99.887489
 20
-14.415998
 30
0.0
 70
    40
  0
VERTEX
  5
744
100
AcDbEntity
  8
0
390
0
100
AcDbVertex
100
AcDb3dPolylineVertex
 10
99.887085
 20
-14.416784
 30
0.0
 70
    40
  0
VERTEX
  5
745
100
AcDbEntity
  8
0
390
0
100
AcDbVertex
100
AcDb3dPolylineVertex
 10
99.888733
 20
-14.416967
 30
0.0
 70
    48
  0
VERTEX
  5
746
100
AcDbEntity
  8
0
390
0
100
AcDbVertex
100
AcDb3dPolylineVertex
 10
99.887878
 20
-14.414465
 30
0.0
 70
    48
  0
VERTEX
  5
747
100
AcDbEntity
  8
0
390
0
100
AcDbVertex
100
AcDb3dPolylineVertex
 10
99.887085
 20
-14.416784
 30
0.0
 70
    48
  0
VERTEX
  5
748
100
AcDbEntity
  8
0
390
0
100
AcDbVertex
100
AcDb3dPolylineVertex
 10
99.885902
 20
-14.423283
 30
0.0
 70
    40
  0
VERTEX
  5
749
100
AcDbEntity
  8
0
390
0
100
AcDbVertex
100
AcDb3dPolylineVertex
 10
99.884743
 20
-14.43568
 30
0.0
 70
    40
  0
VERTEX
  5
74A
100
AcDbEntity
  8
0
390
0
100
AcDbVertex
100
AcDb3dPolylineVertex
 10
99.883606
 20
-14.453264
 30
0.0
 70
    40
  0
VERTEX
  5
74B
100
AcDbEntity
  8
0
390
0
100
AcDbVertex
100
AcDb3dPolylineVertex
 10
99.8825
 20
-14.475322
 30
0.0
 70
    40
  0
VERTEX
  5
74C
100
AcDbEntity
  8
0
390
0
100
AcDbVertex
100
AcDb3dPolylineVertex
 10
99.881409
 20
-14.50114
 30
0.0
 70
    40
  0
VERTEX
  5
74D
100
AcDbEntity
  8
0
390
0
100
AcDbVertex
100
AcDb3dPolylineVertex
 10
99.880341
 20
-14.530005
 30
0.0
 70
    40
  0
VERTEX
  5
74E
100
AcDbEntity
  8
0
390
0
100
AcDbVertex
100
AcDb3dPolylineVertex
 10
99.884705
 20
-14.423407
 30
0.0
 70
    48
  0
VERTEX
  5
74F
100
AcDbEntity
  8
0
390
0
100
AcDbVertex
100
AcDb3dPolylineVertex
 10
99.882446
 20
-14.469702
 30
0.0
 70
    48
  0
VERTEX
  5
750
100
AcDbEntity
  8
0
390
0
100
AcDbVertex
100
AcDb3dPolylineVertex
 10
99.880341
 20
-14.530005
 30
0.0
 70
    48
  0
VERTEX
  5
751
100
AcDbEntity
  8
0
390
0
100
AcDbVertex
100
AcDb3dPolylineVertex
 10
99.879349
 20
-14.560399
 30
0.0
 70
    40
  0
VERTEX
  5
752
100
AcDbEntity
  8
0
390
0
100
AcDbVertex
100
AcDb3dPolylineVertex
 10
99.87838
 20
-14.593149
 30
0.0
 70
    40
  0
VERTEX
  5
753
100
AcDbEntity
  8
0
390
0
100
AcDbVertex
100
AcDb3dPolylineVertex
 10
99.877457
 20
-14.628401
 30
0.0
 70
    40
  0
VERTEX
  5
754
100
AcDbEntity
  8
0
390
0
100
AcDbVertex
100
AcDb3dPolylineVertex
 10
99.876564
 20
-14.666303
 30
0.0
 70
    40
  0
VERTEX
  5
755
100
AcDbEntity
  8
0
390
0
100
AcDbVertex
100
AcDb3dPolylineVertex
 10
99.87571
 20
-14.707003
 30
0.0
 70
    40
  0
VERTEX
  5
756
100
AcDbEntity
  8
0
390
0
100
AcDbVertex
100
AcDb3dPolylineVertex
 10
99.874908
 20
-14.750647
 30
0.0
 70
    40
  0
VERTEX
  5
757
100
AcDbEntity
  8
0
390
0
100
AcDbVertex
100
AcDb3dPolylineVertex
 10
99.878326
 20
-14.588537
 30
0.0
 70
    48
  0
VERTEX
  5
758
100
AcDbEntity
  8
0
390
0
100
AcDbVertex
100
AcDb3dPolylineVertex
 10
99.876465
 20
-14.660315
 30
0.0
 70
    48
  0
VERTEX
  5
759
100
AcDbEntity
  8
0
390
0
100
AcDbVertex
100
AcDb3dPolylineVertex
 10
99.874908
 20
-14.750647
 30
0.0
 70
    48
  0
VERTEX
  5
75A
100
AcDbEntity
  8
0
390
0
100
AcDbVertex
100
AcDb3dPolylineVertex
 10
99.87413
 20
-14.798752
 30
0.0
 70
    40
  0
VERTEX
  5
75B
100
AcDbEntity
  8
0
390
0
100
AcDbVertex
100
AcDb3dPolylineVertex
 10
99.873405
 20
-14.850046
 30
0.0
 70
    40
  0
VERTEX
  5
75C
100
AcDbEntity
  8
0
390
0
100
AcDbVertex
100
AcDb3dPolylineVertex
 10
99.872734
 20
-14.904432
 30
0.0
 70
    40
  0
VERTEX
  5
75D
100
AcDbEntity
  8
0
390
0
100
AcDbVertex
100
AcDb3dPolylineVertex
 10
99.872131
 20
-14.961815
 30
0.0
 70
    40
  0
VERTEX
  5
75E
100
AcDbEntity
  8
0
390
0
100
AcDbVertex
100
AcDb3dPolylineVertex
 10
99.871582
 20
-15.022097
 30
0.0
 70
    40
  0
VERTEX
  5
75F
100
AcDbEntity
  8
0
390
0
100
AcDbVertex
100
AcDb3dPolylineVertex
 10
99.871094
 20
-15.08518
 30
0.0
 70
    40
  0
VERTEX
  5
760
100
AcDbEntity
  8
0
390
0
100
AcDbVertex
100
AcDb3dPolylineVertex
 10
99.873291
 20
-14.843603
 30
0.0
 70
    48
  0
VERTEX
  5
761
100
AcDbEntity
  8
0
390
0
100
AcDbVertex
100
AcDb3dPolylineVertex
 10
99.872009
 20
-14.956274
 30
0.0
 70
    48
  0
VERTEX
  5
762
100
AcDbEntity
  8
0
390
0
100
AcDbVertex
100
AcDb3dPolylineVertex
 10
99.871094
 20
-15.08518
 30
0.0
 70
    48
  0
VERTEX
  5
763
100
AcDbEntity
  8
0
390
0
100
AcDbVertex
100
AcDb3dPolylineVertex
 10
99.870667
 20
-15.149088
 30
0.0
 70
    40
  0
VERTEX
  5
764
100
AcDbEntity
  8
0
390
0
100
AcDbVertex
100
AcDb3dPolylineVertex
 10
99.870308
 20
-15.215508
 30
0.0
 70
    40
  0
VERTEX
  5
765
100
AcDbEntity
  8
0
390
0
100
AcDbVertex
100
AcDb3dPolylineVertex
 10
99.870018
 20
-15.284403
 30
0.0
 70
    40
  0
VERTEX
  5
766
100
AcDbEntity
  8
0
390
0
100
AcDbVertex
100
AcDb3dPolylineVertex
 10
99.869781
 20
-15.355731
 30
0.0
 70
    40
  0
VERTEX
  5
767
100
AcDbEntity
  8
0
390
0
100
AcDbVertex
100
AcDb3dPolylineVertex
 10
99.869614
 20
-15.429453
 30
0.0
 70
    40
  0
VERTEX
  5
768
100
AcDbEntity
  8
0
390
0
100
AcDbVertex
100
AcDb3dPolylineVertex
 10
99.869507
 20
-15.505529
 30
0.0
 70
    40
  0
VERTEX
  5
769
100
AcDbEntity
  8
0
390
0
100
AcDbVertex
100
AcDb3dPolylineVertex
 10
99.870178
 20
-15.210455
 30
0.0
 70
    48
  0
VERTEX
  5
76A
100
AcDbEntity
  8
0
390
0
100
AcDbVertex
100
AcDb3dPolylineVertex
 10
99.869659
 20
-15.351049
 30
0.0
 70
    48
  0
VERTEX
  5
76B
100
AcDbEntity
  8
0
390
0
100
AcDbVertex
100
AcDb3dPolylineVertex
 10
99.869507
 20
-15.505529
 30
0.0
 70
    48
  0
VERTEX
  5
76C
100
AcDbEntity
  8
0
390
0
100
AcDbVertex
100
AcDb3dPolylineVertex
 10
99.869461
 20
-15.586236
 30
0.0
 70
    40
  0
VERTEX
  5
76D
100
AcDbEntity
  8
0
390
0
100
AcDbVertex
100
AcDb3dPolylineVertex
 10
99.869484
 20
-15.669312
 30
0.0
 70
    40
  0
VERTEX
  5
76E
100
AcDbEntity
  8
0
390
0
100
AcDbVertex
100
AcDb3dPolylineVertex
 10
99.869576
 20
-15.754683
 30
0.0
 70
    40
  0
VERTEX
  5
76F
100
AcDbEntity
  8
0
390
0
100
AcDbVertex
100
AcDb3dPolylineVertex
 10
99.869728
 20
-15.842277
 30
0.0
 70
    40
  0
VERTEX
  5
770
100
AcDbEntity
  8
0
390
0
100
AcDbVertex
100
AcDb3dPolylineVertex
 10
99.869949
 20
-15.932019
 30
0.0
 70
    40
  0
VERTEX
  5
771
100
AcDbEntity
  8
0
390
0
100
AcDbVertex
100
AcDb3dPolylineVertex
 10
99.870239
 20
-16.02384
 30
0.0
 70
    40
  0
VERTEX
  5
772
100
AcDbEntity
  8
0
390
0
100
AcDbVertex
100
AcDb3dPolylineVertex
 10
99.869354
 20
-15.664526
 30
0.0
 70
    48
  0
VERTEX
  5
773
100
AcDbEntity
  8
0
390
0
100
AcDbVertex
100
AcDb3dPolylineVertex
 10
99.869598
 20
-15.838171
 30
0.0
 70
    48
  0
VERTEX
  5
774
100
AcDbEntity
  8
0
390
0
100
AcDbVertex
100
AcDb3dPolylineVertex
 10
99.870239
 20
-16.02384
 30
0.0
 70
    48
  0
VERTEX
  5
775
100
AcDbEntity
  8
0
390
0
100
AcDbVertex
100
AcDb3dPolylineVertex
 10
99.87059
 20
-16.115009
 30
0.0
 70
    40
  0
VERTEX
  5
776
100
AcDbEntity
  8
0
390
0
100
AcDbVertex
100
AcDb3dPolylineVertex
 10
99.871002
 20
-16.207993
 30
0.0
 70
    40
  0
VERTEX
  5
777
100
AcDbEntity
  8
0
390
0
100
AcDbVertex
100
AcDb3dPolylineVertex
 10
99.871468
 20
-16.302717
 30
0.0
 70
    40
  0
VERTEX
  5
778
100
AcDbEntity
  8
0
390
0
100
AcDbVertex
100
AcDb3dPolylineVertex
 10
99.871994
 20
-16.399117
 30
0.0
 70
    40
  0
VERTEX
  5
779
100
AcDbEntity
  8
0
390
0
100
AcDbVertex
100
AcDb3dPolylineVertex
 10
99.872566
 20
-16.497118
 30
0.0
 70
    40
  0
VERTEX
  5
77A
100
AcDbEntity
  8
0
390
0
100
AcDbVertex
100
AcDb3dPolylineVertex
 10
99.873199
 20
-16.596655
 30
0.0
 70
    40
  0
VERTEX
  5
77B
100
AcDbEntity
  8
0
390
0
100
AcDbVertex
100
AcDb3dPolylineVertex
 10
99.87088
 20
-16.204321
 30
0.0
 70
    48
  0
VERTEX
  5
77C
100
AcDbEntity
  8
0
390
0
100
AcDbVertex
100
AcDb3dPolylineVertex
 10
99.871887
 20
-16.396093
 30
0.0
 70
    48
  0
VERTEX
  5
77D
100
AcDbEntity
  8
0
390
0
100
AcDbVertex
100
AcDb3dPolylineVertex
 10
99.873199
 20
-16.596655
 30
0.0
 70
    48
  0
VERTEX
  5
77E
100
AcDbEntity
  8
0
390
0
100
AcDbVertex
100
AcDb3dPolylineVertex
 10
99.873917
 20
-16.700594
 30
0.0
 70
    40
  0
VERTEX
  5
77F
100
AcDbEntity
  8
0
390
0
100
AcDbVertex
100
AcDb3dPolylineVertex
 10
99.87468
 20
-16.80599
 30
0.0
 70
    40
  0
VERTEX
  5
780
100
AcDbEntity
  8
0
390
0
100
AcDbVertex
100
AcDb3dPolylineVertex
 10
99.875496
 20
-16.912756
 30
0.0
 70
    40
  0
VERTEX
  5
781
100
AcDbEntity
  8
0
390
0
100
AcDbVertex
100
AcDb3dPolylineVertex
 10
99.876358
 20
-17.020803
 30
0.0
 70
    40
  0
VERTEX
  5
782
100
AcDbEntity
  8
0
390
0
100
AcDbVertex
100
AcDb3dPolylineVertex
 10
99.877258
 20
-17.130045
 30
0.0
 70
    40
  0
VERTEX
  5
783
100
AcDbEntity
  8
0
390
0
100
AcDbVertex
100
AcDb3dPolylineVertex
 10
99.878204
 20
-17.240393
 30
0.0
 70
    40
  0
VERTEX
  5
784
100
AcDbEntity
  8
0
390
0
100
AcDbVertex
100
AcDb3dPolylineVertex
 10
99.874573
 20
-16.803015
 30
0.0
 70
    48
  0
VERTEX
  5
785
100
AcDbEntity
  8
0
390
0
100
AcDbVertex
100
AcDb3dPolylineVertex
 10
99.876282
 20
-17.018652
 30
0.0
 70
    48
  0
VERTEX
  5
786
100
AcDbEntity
  8
0
390
0
100
AcDbVertex
100
AcDb3dPolylineVertex
 10
99.878204
 20
-17.240393
 30
0.0
 70
    48
  0
VERTEX
  5
787
100
AcDbEntity
  8
0
390
0
100
AcDbVertex
100
AcDb3dPolylineVertex
 10
99.879166
 20
-17.348618
 30
0.0
 70
    40
  0
VERTEX
  5
788
100
AcDbEntity
  8
0
390
0
100
AcDbVertex
100
AcDb3dPolylineVertex
 10
99.880165
 20
-17.45772
 30
0.0
 70
    40
  0
VERTEX
  5
789
100
AcDbEntity
  8
0
390
0
100
AcDbVertex
100
AcDb3dPolylineVertex
 10
99.881187
 20
-17.567606
 30
0.0
 70
    40
  0
VERTEX
  5
78A
100
AcDbEntity
  8
0
390
0
100
AcDbVertex
100
AcDb3dPolylineVertex
 10
99.88224
 20
-17.678186
 30
0.0
 70
    40
  0
VERTEX
  5
78B
100
AcDbEntity
  8
0
390
0
100
AcDbVertex
100
AcDb3dPolylineVertex
 10
99.883308
 20
-17.789371
 30
0.0
 70
    40
  0
VERTEX
  5
78C
100
AcDbEntity
  8
0
390
0
100
AcDbVertex
100
AcDb3dPolylineVertex
 10
99.884399
 20
-17.901068
 30
0.0
 70
    40
  0
VERTEX
  5
78D
100
AcDbEntity
  8
0
390
0
100
AcDbVertex
100
AcDb3dPolylineVertex
 10
99.880096
 20
-17.455908
 30
0.0
 70
    48
  0
VERTEX
  5
78E
100
AcDbEntity
  8
0
390
0
100
AcDbVertex
100
AcDb3dPolylineVertex
 10
99.882202
 20
-17.677221
 30
0.0
 70
    48
  0
VERTEX
  5
78F
100
AcDbEntity
  8
0
390
0
100
AcDbVertex
100
AcDb3dPolylineVertex
 10
99.884399
 20
-17.901068
 30
0.0
 70
    48
  0
VERTEX
  5
790
100
AcDbEntity
  8
0
390
0
100
AcDbVertex
100
AcDb3dPolylineVertex
 10
99.885551
 20
-18.016468
 30
0.0
 70
    40
  0
VERTEX
  5
791
100
AcDbEntity
  8
0
390
0
100
AcDbVertex
100
AcDb3dPolylineVertex
 10
99.886726
 20
-18.132238
 30
0.0
 70
    40
  0
VERTEX
  5
792
100
AcDbEntity
  8
0
390
0
100
AcDbVertex
100
AcDb3dPolylineVertex
 10
99.887909
 20
-18.248304
 30
0.0
 70
    40
  0
VERTEX
  5
793
100
AcDbEntity
  8
0
390
0
100
AcDbVertex
100
AcDb3dPolylineVertex
 10
99.889091
 20
-18.36459
 30
0.0
 70
    40
  0
VERTEX
  5
794
100
AcDbEntity
  8
0
390
0
100
AcDbVertex
100
AcDb3dPolylineVertex
 10
99.890289
 20
-18.481016
 30
0.0
 70
    40
  0
VERTEX
  5
795
100
AcDbEntity
  8
0
390
0
100
AcDbVertex
100
AcDb3dPolylineVertex
 10
99.891479
 20
-18.597509
 30
0.0
 70
    40
  0
VERTEX
  5
796
100
AcDbEntity
  8
0
390
0
100
AcDbVertex
100
AcDb3dPolylineVertex
 10
99.886688
 20
-18.131445
 30
0.0
 70
    48
  0
VERTEX
  5
797
100
AcDbEntity
  8
0
390
0
100
AcDbVertex
100
AcDb3dPolylineVertex
 10
99.889099
 20
-18.364508
 30
0.0
 70
    48
  0
VERTEX
  5
798
100
AcDbEntity
  8
0
390
0
100
AcDbVertex
100
AcDb3dPolylineVertex
 10
99.891479
 20
-18.597509
 30
0.0
 70
    48
  0
VERTEX
  5
799
100
AcDbEntity
  8
0
390
0
100
AcDbVertex
100
AcDb3dPolylineVertex
 10
99.892639
 20
-18.710743
 30
0.0
 70
    40
  0
VERTEX
  5
79A
100
AcDbEntity
  8
0
390
0
100
AcDbVertex
100
AcDb3dPolylineVertex
 10
99.893791
 20
-18.823812
 30
0.0
 70
    40
  0
VERTEX
  5
79B
100
AcDbEntity
  8
0
390
0
100
AcDbVertex
100
AcDb3dPolylineVertex
 10
99.894928
 20
-18.936567
 30
0.0
 70
    40
  0
VERTEX
  5
79C
100
AcDbEntity
  8
0
390
0
100
AcDbVertex
100
AcDb3dPolylineVertex
 10
99.896049
 20
-19.048861
 30
0.0
 70
    40
  0
VERTEX
  5
79D
100
AcDbEntity
  8
0
390
0
100
AcDbVertex
100
AcDb3dPolylineVertex
 10
99.897133
 20
-19.16054
 30
0.0
 70
    40
  0
VERTEX
  5
79E
100
AcDbEntity
  8
0
390
0
100
AcDbVertex
100
AcDb3dPolylineVertex
 10
99.898193
 20
-19.27146
 30
0.0
 70
    40
  0
VERTEX
  5
79F
100
AcDbEntity
  8
0
390
0
100
AcDbVertex
100
AcDb3dPolylineVertex
 10
99.893799
 20
-18.824041
 30
0.0
 70
    48
  0
VERTEX
  5
7A0
100
AcDbEntity
  8
0
390
0
100
AcDbVertex
100
AcDb3dPolylineVertex
 10
99.896118
 20
-19.050482
 30
0.0
 70
    48
  0
VERTEX
  5
7A1
100
AcDbEntity
  8
0
390
0
100
AcDbVertex
100
AcDb3dPolylineVertex
 10
99.898193
 20
-19.27146
 30
0.0
 70
    48
  0
VERTEX
  5
7A2
100
AcDbEntity
  8
0
390
0
100
AcDbVertex
100
AcDb3dPolylineVertex
 10
99.899261
 20
-19.384712
 30
0.0
 70
    40
  0
VERTEX
  5
7A3
100
AcDbEntity
  8
0
390
0
100
AcDbVertex
100
AcDb3dPolylineVertex
 10
99.900291
 20
-19.49716
 30
0.0
 70
    40
  0
VERTEX
  5
7A4
100
AcDbEntity
  8
0
390
0
100
AcDbVertex
100
AcDb3dPolylineVertex
 10
99.901291
 20
-19.608965
 30
0.0
 70
    40
  0
VERTEX
  5
7A5
100
AcDbEntity
  8
0
390
0
100
AcDbVertex
100
AcDb3dPolylineVertex
 10
99.902283
 20
-19.720289
 30
0.0
 70
    40
  0
VERTEX
  5
7A6
100
AcDbEntity
  8
0
390
0
100
AcDbVertex
100
AcDb3dPolylineVertex
 10
99.903259
 20
-19.831295
 30
0.0
 70
    40
  0
VERTEX
  5
7A7
100
AcDbEntity
  8
0
390
0
100
AcDbVertex
100
AcDb3dPolylineVertex
 10
99.904236
 20
-19.942144
 30
0.0
 70
    40
  0
VERTEX
  5
7A8
100
AcDbEntity
  8
0
390
0
100
AcDbVertex
100
AcDb3dPolylineVertex
 10
99.90036
 20
-19.498877
 30
0.0
 70
    48
  0
VERTEX
  5
7A9
100
AcDbEntity
  8
0
390
0
100
AcDbVertex
100
AcDb3dPolylineVertex
 10
99.902283
 20
-19.720495
 30
0.0
 70
    48
  0
VERTEX
  5
7AA
100
AcDbEntity
  8
0
390
0
100
AcDbVertex
100
AcDb3dPolylineVertex
 10
99.904236
 20
-19.942144
 30
0.0
 70
    48
  0
SEQEND
  5
7AB
100
AcDbEntity
  8
0
390
0
  0
LINE
  5
7AC
100
AcDbEntity
  8
ANSICHT
390
0
  6
DURCHGEHEND
 62
     1
100
AcDbLine
 10
96.161163
 20
-33.050514
 30
0.0
 11
96.161163
 21
-32.330971
 31
0.0
  0
LINE
  5
7AD
100
AcDbEntity
  8
ANSICHT
390
0
  6
DURCHGEHEND
 62
     1
100
AcDbLine
 10
96.161163
 20
-32.330971
 30
0.0
 11
96.161163
 21
-22.260351
 31
0.0
  0
POLYLINE
  5
7AE
100
AcDbEntity
  8
ANSICHT
390
0
  6
DURCHGEHEND
 62
     1
100
AcDb3dPolyline
 66
     1
 10
0.0
 20
0.0
 30
0.0
 70
    12
 75
     5
  0
VERTEX
  5
7AF
100
AcDbEntity
  8
0
390
0
100
AcDbVertex
100
AcDb3dPolylineVertex
 10
94.405884
 20
-14.132849
 30
0.0
 70
    48
  0
VERTEX
  5
7B0
100
AcDbEntity
  8
0
390
0
100
AcDbVertex
100
AcDb3dPolylineVertex
 10
94.405884
 20
-14.132849
 30
0.0
 70
    40
  0
VERTEX
  5
7B1
100
AcDbEntity
  8
0
390
0
100
AcDbVertex
100
AcDb3dPolylineVertex
 10
94.405807
 20
-14.132844
 30
0.0
 70
    40
  0
VERTEX
  5
7B2
100
AcDbEntity
  8
0
390
0
100
AcDbVertex
100
AcDb3dPolylineVertex
 10
94.405731
 20
-14.132831
 30
0.0
 70
    40
  0
VERTEX
  5
7B3
100
AcDbEntity
  8
0
390
0
100
AcDbVertex
100
AcDb3dPolylineVertex
 10
94.405655
 20
-14.132811
 30
0.0
 70
    40
  0
VERTEX
  5
7B4
100
AcDbEntity
  8
0
390
0
100
AcDbVertex
100
AcDb3dPolylineVertex
 10
94.405579
 20
-14.132786
 30
0.0
 70
    40
  0
VERTEX
  5
7B5
100
AcDbEntity
  8
0
390
0
100
AcDbVertex
100
AcDb3dPolylineVertex
 10
94.405502
 20
-14.132757
 30
0.0
 70
    40
  0
VERTEX
  5
7B6
100
AcDbEntity
  8
0
390
0
100
AcDbVertex
100
AcDb3dPolylineVertex
 10
94.405426
 20
-14.132727
 30
0.0
 70
    40
  0
VERTEX
  5
7B7
100
AcDbEntity
  8
0
390
0
100
AcDbVertex
100
AcDb3dPolylineVertex
 10
94.405731
 20
-14.132849
 30
0.0
 70
    48
  0
VERTEX
  5
7B8
100
AcDbEntity
  8
0
390
0
100
AcDbVertex
100
AcDb3dPolylineVertex
 10
94.405579
 20
-14.132788
 30
0.0
 70
    48
  0
VERTEX
  5
7B9
100
AcDbEntity
  8
0
390
0
100
AcDbVertex
100
AcDb3dPolylineVertex
 10
94.405426
 20
-14.132727
 30
0.0
 70
    48
  0
VERTEX
  5
7BA
100
AcDbEntity
  8
0
390
0
100
AcDbVertex
100
AcDb3dPolylineVertex
 10
94.37001
 20
-14.127263
 30
0.0
 70
    40
  0
VERTEX
  5
7BB
100
AcDbEntity
  8
0
390
0
100
AcDbVertex
100
AcDb3dPolylineVertex
 10
94.332497
 20
-14.128816
 30
0.0
 70
    40
  0
VERTEX
  5
7BC
100
AcDbEntity
  8
0
390
0
100
AcDbVertex
100
AcDb3dPolylineVertex
 10
94.293243
 20
-14.136282
 30
0.0
 70
    40
  0
VERTEX
  5
7BD
100
AcDbEntity
  8
0
390
0
100
AcDbVertex
100
AcDb3dPolylineVertex
 10
94.252609
 20
-14.14856
 30
0.0
 70
    40
  0
VERTEX
  5
7BE
100
AcDbEntity
  8
0
390
0
100
AcDbVertex
100
AcDb3dPolylineVertex
 10
94.21096
 20
-14.164547
 30
0.0
 70
    40
  0
VERTEX
  5
7BF
100
AcDbEntity
  8
0
390
0
100
AcDbVertex
100
AcDb3dPolylineVertex
 10
94.168671
 20
-14.183142
 30
0.0
 70
    40
  0
VERTEX
  5
7C0
100
AcDbEntity
  8
0
390
0
100
AcDbVertex
100
AcDb3dPolylineVertex
 10
94.336945
 20
-14.11405
 30
0.0
 70
    48
  0
VERTEX
  5
7C1
100
AcDbEntity
  8
0
390
0
100
AcDbVertex
100
AcDb3dPolylineVertex
 10
94.253662
 20
-14.144079
 30
0.0
 70
    48
  0
VERTEX
  5
7C2
100
AcDbEntity
  8
0
390
0
100
AcDbVertex
100
AcDb3dPolylineVertex
 10
94.168671
 20
-14.183142
 30
0.0
 70
    48
  0
VERTEX
  5
7C3
100
AcDbEntity
  8
0
390
0
100
AcDbVertex
100
AcDb3dPolylineVertex
 10
94.123444
 20
-14.204734
 30
0.0
 70
    40
  0
VERTEX
  5
7C4
100
AcDbEntity
  8
0
390
0
100
AcDbVertex
100
AcDb3dPolylineVertex
 10
94.077835
 20
-14.228316
 30
0.0
 70
    40
  0
VERTEX
  5
7C5
100
AcDbEntity
  8
0
390
0
100
AcDbVertex
100
AcDb3dPolylineVertex
 10
94.031792
 20
-14.254171
 30
0.0
 70
    40
  0
VERTEX
  5
7C6
100
AcDbEntity
  8
0
390
0
100
AcDbVertex
100
AcDb3dPolylineVertex
 10
93.985245
 20
-14.282579
 30
0.0
 70
    40
  0
VERTEX
  5
7C7
100
AcDbEntity
  8
0
390
0
100
AcDbVertex
100
AcDb3dPolylineVertex
 10
93.938126
 20
-14.313822
 30
0.0
 70
    40
  0
VERTEX
  5
7C8
100
AcDbEntity
  8
0
390
0
100
AcDbVertex
100
AcDb3dPolylineVertex
 10
93.890381
 20
-14.348181
 30
0.0
 70
    40
  0
VERTEX
  5
7C9
100
AcDbEntity
  8
0
390
0
100
AcDbVertex
100
AcDb3dPolylineVertex
 10
94.078552
 20
-14.224524
 30
0.0
 70
    48
  0
VERTEX
  5
7CA
100
AcDbEntity
  8
0
390
0
100
AcDbVertex
100
AcDb3dPolylineVertex
 10
93.986542
 20
-14.276159
 30
0.0
 70
    48
  0
VERTEX
  5
7CB
100
AcDbEntity
  8
0
390
0
100
AcDbVertex
100
AcDb3dPolylineVertex
 10
93.890381
 20
-14.348181
 30
0.0
 70
    48
  0
VERTEX
  5
7CC
100
AcDbEntity
  8
0
390
0
100
AcDbVertex
100
AcDb3dPolylineVertex
 10
93.840759
 20
-14.386853
 30
0.0
 70
    40
  0
VERTEX
  5
7CD
100
AcDbEntity
  8
0
390
0
100
AcDbVertex
100
AcDb3dPolylineVertex
 10
93.790474
 20
-14.428936
 30
0.0
 70
    40
  0
VERTEX
  5
7CE
100
AcDbEntity
  8
0
390
0
100
AcDbVertex
100
AcDb3dPolylineVertex
 10
93.739586
 20
-14.474257
 30
0.0
 70
    40
  0
VERTEX
  5
7CF
100
AcDbEntity
  8
0
390
0
100
AcDbVertex
100
AcDb3dPolylineVertex
 10
93.688164
 20
-14.522644
 30
0.0
 70
    40
  0
VERTEX
  5
7D0
100
AcDbEntity
  8
0
390
0
100
AcDbVertex
100
AcDb3dPolylineVertex
 10
93.636276
 20
-14.573928
 30
0.0
 70
    40
  0
VERTEX
  5
7D1
100
AcDbEntity
  8
0
390
0
100
AcDbVertex
100
AcDb3dPolylineVertex
 10
93.583984
 20
-14.627935
 30
0.0
 70
    40
  0
VERTEX
  5
7D2
100
AcDbEntity
  8
0
390
0
100
AcDbVertex
100
AcDb3dPolylineVertex
 10
93.79184
 20
-14.422003
 30
0.0
 70
    48
  0
VERTEX
  5
7D3
100
AcDbEntity
  8
0
390
0
100
AcDbVertex
100
AcDb3dPolylineVertex
 10
93.688934
 20
-14.517309
 30
0.0
 70
    48
  0
VERTEX
  5
7D4
100
AcDbEntity
  8
0
390
0
100
AcDbVertex
100
AcDb3dPolylineVertex
 10
93.583984
 20
-14.627935
 30
0.0
 70
    48
  0
VERTEX
  5
7D5
100
AcDbEntity
  8
0
390
0
100
AcDbVertex
100
AcDb3dPolylineVertex
 10
93.53582
 20
-14.679666
 30
0.0
 70
    40
  0
VERTEX
  5
7D6
100
AcDbEntity
  8
0
390
0
100
AcDbVertex
100
AcDb3dPolylineVertex
 10
93.487396
 20
-14.733631
 30
0.0
 70
    40
  0
VERTEX
  5
7D7
100
AcDbEntity
  8
0
390
0
100
AcDbVertex
100
AcDb3dPolylineVertex
 10
93.438713
 20
-14.789927
 30
0.0
 70
    40
  0
VERTEX
  5
7D8
100
AcDbEntity
  8
0
390
0
100
AcDbVertex
100
AcDb3dPolylineVertex
 10
93.389801
 20
-14.848645
 30
0.0
 70
    40
  0
VERTEX
  5
7D9
100
AcDbEntity
  8
0
390
0
100
AcDbVertex
100
AcDb3dPolylineVertex
 10
93.340691
 20
-14.909882
 30
0.0
 70
    40
  0
VERTEX
  5
7DA
100
AcDbEntity
  8
0
390
0
100
AcDbVertex
100
AcDb3dPolylineVertex
 10
93.291382
 20
-14.97373
 30
0.0
 70
    40
  0
VERTEX
  5
7DB
100
AcDbEntity
  8
0
390
0
100
AcDbVertex
100
AcDb3dPolylineVertex
 10
93.487946
 20
-14.729223
 30
0.0
 70
    48
  0
VERTEX
  5
7DC
100
AcDbEntity
  8
0
390
0
100
AcDbVertex
100
AcDb3dPolylineVertex
 10
93.390167
 20
-14.843359
 30
0.0
 70
    48
  0
VERTEX
  5
7DD
100
AcDbEntity
  8
0
390
0
100
AcDbVertex
100
AcDb3dPolylineVertex
 10
93.291382
 20
-14.97373
 30
0.0
 70
    48
  0
VERTEX
  5
7DE
100
AcDbEntity
  8
0
390
0
100
AcDbVertex
100
AcDb3dPolylineVertex
 10
93.240959
 20
-15.041492
 30
0.0
 70
    40
  0
VERTEX
  5
7DF
100
AcDbEntity
  8
0
390
0
100
AcDbVertex
100
AcDb3dPolylineVertex
 10
93.190392
 20
-15.111595
 30
0.0
 70
    40
  0
VERTEX
  5
7E0
100
AcDbEntity
  8
0
390
0
100
AcDbVertex
100
AcDb3dPolylineVertex
 10
93.139694
 20
-15.183569
 30
0.0
 70
    40
  0
VERTEX
  5
7E1
100
AcDbEntity
  8
0
390
0
100
AcDbVertex
100
AcDb3dPolylineVertex
 10
93.088921
 20
-15.256947
 30
0.0
 70
    40
  0
VERTEX
  5
7E2
100
AcDbEntity
  8
0
390
0
100
AcDbVertex
100
AcDb3dPolylineVertex
 10
93.038078
 20
-15.331261
 30
0.0
 70
    40
  0
VERTEX
  5
7E3
100
AcDbEntity
  8
0
390
0
100
AcDbVertex
100
AcDb3dPolylineVertex
 10
92.987213
 20
-15.406042
 30
0.0
 70
    40
  0
VERTEX
  5
7E4
100
AcDbEntity
  8
0
390
0
100
AcDbVertex
100
AcDb3dPolylineVertex
 10
93.190704
 20
-15.106604
 30
0.0
 70
    48
  0
VERTEX
  5
7E5
100
AcDbEntity
  8
0
390
0
100
AcDbVertex
100
AcDb3dPolylineVertex
 10
93.088959
 20
-15.256323
 30
0.0
 70
    48
  0
VERTEX
  5
7E6
100
AcDbEntity
  8
0
390
0
100
AcDbVertex
100
AcDb3dPolylineVertex
 10
92.987213
 20
-15.406042
 30
0.0
 70
    48
  0
SEQEND
  5
7E7
100
AcDbEntity
  8
0
390
0
  0
LINE
  5
7E8
100
AcDbEntity
  8
ANSICHT
390
0
  6
DURCHGEHEND
 62
     1
100
AcDbLine
 10
92.911163
 20
-22.785833
 30
0.0
 11
92.911163
 21
-15.447058
 31
0.0
  0
POLYLINE
  5
7E9
100
AcDbEntity
  8
ANSICHT
390
0
  6
DURCHGEHEND
 62
     1
100
AcDb3dPolyline
 66
     1
 10
0.0
 20
0.0
 30
0.0
 70
    12
 75
     5
  0
VERTEX
  5
7EA
100
AcDbEntity
  8
0
390
0
100
AcDbVertex
100
AcDb3dPolylineVertex
 10
92.911163
 20
-15.447058
 30
0.0
 70
    48
  0
VERTEX
  5
7EB
100
AcDbEntity
  8
0
390
0
100
AcDbVertex
100
AcDb3dPolylineVertex
 10
92.911163
 20
-15.447058
 30
0.0
 70
    40
  0
VERTEX
  5
7EC
100
AcDbEntity
  8
0
390
0
100
AcDbVertex
100
AcDb3dPolylineVertex
 10
92.911583
 20
-15.444192
 30
0.0
 70
    40
  0
VERTEX
  5
7ED
100
AcDbEntity
  8
0
390
0
100
AcDbVertex
100
AcDb3dPolylineVertex
 10
92.912041
 20
-15.441343
 30
0.0
 70
    40
  0
VERTEX
  5
7EE
100
AcDbEntity
  8
0
390
0
100
AcDbVertex
100
AcDb3dPolylineVertex
 10
92.91259
 20
-15.438528
 30
0.0
 70
    40
  0
VERTEX
  5
7EF
100
AcDbEntity
  8
0
390
0
100
AcDbVertex
100
AcDb3dPolylineVertex
 10
92.913277
 20
-15.435764
 30
0.0
 70
    40
  0
VERTEX
  5
7F0
100
AcDbEntity
  8
0
390
0
100
AcDbVertex
100
AcDb3dPolylineVertex
 10
92.914146
 20
-15.433067
 30
0.0
 70
    40
  0
VERTEX
  5
7F1
100
AcDbEntity
  8
0
390
0
100
AcDbVertex
100
AcDb3dPolylineVertex
 10
92.915253
 20
-15.430456
 30
0.0
 70
    40
  0
VERTEX
  5
7F2
100
AcDbEntity
  8
0
390
0
100
AcDbVertex
100
AcDb3dPolylineVertex
 10
92.911987
 20
-15.44132
 30
0.0
 70
    48
  0
VERTEX
  5
7F3
100
AcDbEntity
  8
0
390
0
100
AcDbVertex
100
AcDb3dPolylineVertex
 10
92.912781
 20
-15.435583
 30
0.0
 70
    48
  0
VERTEX
  5
7F4
100
AcDbEntity
  8
0
390
0
100
AcDbVertex
100
AcDb3dPolylineVertex
 10
92.915253
 20
-15.430456
 30
0.0
 70
    48
  0
VERTEX
  5
7F5
100
AcDbEntity
  8
0
390
0
100
AcDbVertex
100
AcDb3dPolylineVertex
 10
92.916626
 20
-15.427944
 30
0.0
 70
    40
  0
VERTEX
  5
7F6
100
AcDbEntity
  8
0
390
0
100
AcDbVertex
100
AcDb3dPolylineVertex
 10
92.918259
 20
-15.425537
 30
0.0
 70
    40
  0
VERTEX
  5
7F7
100
AcDbEntity
  8
0
390
0
100
AcDbVertex
100
AcDb3dPolylineVertex
 10
92.920128
 20
-15.423239
 30
0.0
 70
    40
  0
VERTEX
  5
7F8
100
AcDbEntity
  8
0
390
0
100
AcDbVertex
100
AcDb3dPolylineVertex
 10
92.922211
 20
-15.421052
 30
0.0
 70
    40
  0
VERTEX
  5
7F9
100
AcDbEntity
  8
0
390
0
100
AcDbVertex
100
AcDb3dPolylineVertex
 10
92.924484
 20
-15.418981
 30
0.0
 70
    40
  0
VERTEX
  5
7FA
100
AcDbEntity
  8
0
390
0
100
AcDbVertex
100
AcDb3dPolylineVertex
 10
92.926941
 20
-15.417028
 30
0.0
 70
    40
  0
VERTEX
  5
7FB
100
AcDbEntity
  8
0
390
0
100
AcDbVertex
100
AcDb3dPolylineVertex
 10
92.917725
 20
-15.425329
 30
0.0
 70
    48
  0
VERTEX
  5
7FC
100
AcDbEntity
  8
0
390
0
100
AcDbVertex
100
AcDb3dPolylineVertex
 10
92.921875
 20
-15.420813
 30
0.0
 70
    48
  0
VERTEX
  5
7FD
100
AcDbEntity
  8
0
390
0
100
AcDbVertex
100
AcDb3dPolylineVertex
 10
92.926941
 20
-15.417028
 30
0.0
 70
    48
  0
VERTEX
  5
7FE
100
AcDbEntity
  8
0
390
0
100
AcDbVertex
100
AcDb3dPolylineVertex
 10
92.929596
 20
-15.415174
 30
0.0
 70
    40
  0
VERTEX
  5
7FF
100
AcDbEntity
  8
0
390
0
100
AcDbVertex
100
AcDb3dPolylineVertex
 10
92.932411
 20
-15.413462
 30
0.0
 70
    40
  0
VERTEX
  5
800
100
AcDbEntity
  8
0
390
0
100
AcDbVertex
100
AcDb3dPolylineVertex
 10
92.935379
 20
-15.41189
 30
0.0
 70
    40
  0
VERTEX
  5
801
100
AcDbEntity
  8
0
390
0
100
AcDbVertex
100
AcDb3dPolylineVertex
 10
92.938477
 20
-15.410463
 30
0.0
 70
    40
  0
VERTEX
  5
802
100
AcDbEntity
  8
0
390
0
100
AcDbVertex
100
AcDb3dPolylineVertex
 10
92.941711
 20
-15.409185
 30
0.0
 70
    40
  0
VERTEX
  5
803
100
AcDbEntity
  8
0
390
0
100
AcDbVertex
100
AcDb3dPolylineVertex
 10
92.945068
 20
-15.408056
 30
0.0
 70
    40
  0
VERTEX
  5
804
100
AcDbEntity
  8
0
390
0
100
AcDbVertex
100
AcDb3dPolylineVertex
 10
92.932098
 20
-15.413183
 30
0.0
 70
    48
  0
VERTEX
  5
805
100
AcDbEntity
  8
0
390
0
100
AcDbVertex
100
AcDb3dPolylineVertex
 10
92.938232
 20
-15.410162
 30
0.0
 70
    48
  0
VERTEX
  5
806
100
AcDbEntity
  8
0
390
0
100
AcDbVertex
100
AcDb3dPolylineVertex
 10
92.945068
 20
-15.408056
 30
0.0
 70
    48
  0
VERTEX
  5
807
100
AcDbEntity
  8
0
390
0
100
AcDbVertex
100
AcDb3dPolylineVertex
 10
92.948639
 20
-15.407069
 30
0.0
 70
    40
  0
VERTEX
  5
808
100
AcDbEntity
  8
0
390
0
100
AcDbVertex
100
AcDb3dPolylineVertex
 10
92.952332
 20
-15.406245
 30
0.0
 70
    40
  0
VERTEX
  5
809
100
AcDbEntity
  8
0
390
0
100
AcDbVertex
100
AcDb3dPolylineVertex
 10
92.956131
 20
-15.405584
 30
0.0
 70
    40
  0
VERTEX
  5
80A
100
AcDbEntity
  8
0
390
0
100
AcDbVertex
100
AcDb3dPolylineVertex
 10
92.960022
 20
-15.405086
 30
0.0
 70
    40
  0
VERTEX
  5
80B
100
AcDbEntity
  8
0
390
0
100
AcDbVertex
100
AcDb3dPolylineVertex
 10
92.963989
 20
-15.40475
 30
0.0
 70
    40
  0
VERTEX
  5
80C
100
AcDbEntity
  8
0
390
0
100
AcDbVertex
100
AcDb3dPolylineVertex
 10
92.968018
 20
-15.404577
 30
0.0
 70
    40
  0
VERTEX
  5
80D
100
AcDbEntity
  8
0
390
0
100
AcDbVertex
100
AcDb3dPolylineVertex
 10
92.952087
 20
-15.40592
 30
0.0
 70
    48
  0
VERTEX
  5
80E
100
AcDbEntity
  8
0
390
0
100
AcDbVertex
100
AcDb3dPolylineVertex
 10
92.9599
 20
-15.40476
 30
0.0
 70
    48
  0
VERTEX
  5
80F
100
AcDbEntity
  8
0
390
0
100
AcDbVertex
100
AcDb3dPolylineVertex
 10
92.968018
 20
-15.404577
 30
0.0
 70
    48
  0
VERTEX
  5
810
100
AcDbEntity
  8
0
390
0
100
AcDbVertex
100
AcDb3dPolylineVertex
 10
92.970963
 20
-15.404562
 30
0.0
 70
    40
  0
VERTEX
  5
811
100
AcDbEntity
  8
0
390
0
100
AcDbVertex
100
AcDb3dPolylineVertex
 10
92.97393
 20
-15.404636
 30
0.0
 70
    40
  0
VERTEX
  5
812
100
AcDbEntity
  8
0
390
0
100
AcDbVertex
100
AcDb3dPolylineVertex
 10
92.976913
 20
-15.404799
 30
0.0
 70
    40
  0
VERTEX
  5
813
100
AcDbEntity
  8
0
390
0
100
AcDbVertex
100
AcDb3dPolylineVertex
 10
92.979912
 20
-15.405047
 30
0.0
 70
    40
  0
VERTEX
  5
814
100
AcDbEntity
  8
0
390
0
100
AcDbVertex
100
AcDb3dPolylineVertex
 10
92.982903
 20
-15.405381
 30
0.0
 70
    40
  0
VERTEX
  5
815
100
AcDbEntity
  8
0
390
0
100
AcDbVertex
100
AcDb3dPolylineVertex
 10
92.985901
 20
-15.405798
 30
0.0
 70
    40
  0
VERTEX
  5
816
100
AcDbEntity
  8
0
390
0
100
AcDbVertex
100
AcDb3dPolylineVertex
 10
92.973877
 20
-15.404455
 30
0.0
 70
    48
  0
VERTEX
  5
817
100
AcDbEntity
  8
0
390
0
100
AcDbVertex
100
AcDb3dPolylineVertex
 10
92.979919
 20
-15.404882
 30
0.0
 70
    48
  0
VERTEX
  5
818
100
AcDbEntity
  8
0
390
0
100
AcDbVertex
100
AcDb3dPolylineVertex
 10
92.985901
 20
-15.405798
 30
0.0
 70
    48
  0
VERTEX
  5
819
100
AcDbEntity
  8
0
390
0
100
AcDbVertex
100
AcDb3dPolylineVertex
 10
92.986115
 20
-15.405842
 30
0.0
 70
    40
  0
VERTEX
  5
81A
100
AcDbEntity
  8
0
390
0
100
AcDbVertex
100
AcDb3dPolylineVertex
 10
92.986336
 20
-15.405882
 30
0.0
 70
    40
  0
VERTEX
  5
81B
100
AcDbEntity
  8
0
390
0
100
AcDbVertex
100
AcDb3dPolylineVertex
 10
92.986557
 20
-15.40592
 30
0.0
 70
    40
  0
VERTEX
  5
81C
100
AcDbEntity
  8
0
390
0
100
AcDbVertex
100
AcDb3dPolylineVertex
 10
92.986778
 20
-15.405958
 30
0.0
 70
    40
  0
VERTEX
  5
81D
100
AcDbEntity
  8
0
390
0
100
AcDbVertex
100
AcDb3dPolylineVertex
 10
92.987
 20
-15.405998
 30
0.0
 70
    40
  0
VERTEX
  5
81E
100
AcDbEntity
  8
0
390
0
100
AcDbVertex
100
AcDb3dPolylineVertex
 10
92.987213
 20
-15.406042
 30
0.0
 70
    40
  0
VERTEX
  5
81F
100
AcDbEntity
  8
0
390
0
100
AcDbVertex
100
AcDb3dPolylineVertex
 10
92.986328
 20
-15.40589
 30
0.0
 70
    48
  0
VERTEX
  5
820
100
AcDbEntity
  8
0
390
0
100
AcDbVertex
100
AcDb3dPolylineVertex
 10
92.986786
 20
-15.405951
 30
0.0
 70
    48
  0
VERTEX
  5
821
100
AcDbEntity
  8
0
390
0
100
AcDbVertex
100
AcDb3dPolylineVertex
 10
92.987213
 20
-15.406042
 30
0.0
 70
    48
  0
SEQEND
  5
822
100
AcDbEntity
  8
0
390
0
  0
POLYLINE
  5
823
100
AcDbEntity
  8
ANSICHT
390
0
  6
DURCHGEHEND
 62
     1
100
AcDb3dPolyline
 66
     1
 10
0.0
 20
0.0
 30
0.0
 70
    12
 75
     5
  0
VERTEX
  5
824
100
AcDbEntity
  8
0
390
0
100
AcDbVertex
100
AcDb3dPolylineVertex
 10
96.161163
 20
-22.260351
 30
0.0
 70
    48
  0
VERTEX
  5
825
100
AcDbEntity
  8
0
390
0
100
AcDbVertex
100
AcDb3dPolylineVertex
 10
96.161163
 20
-22.260351
 30
0.0
 70
    40
  0
VERTEX
  5
826
100
AcDbEntity
  8
0
390
0
100
AcDbVertex
100
AcDb3dPolylineVertex
 10
96.161163
 20
-22.164442
 30
0.0
 70
    40
  0
VERTEX
  5
827
100
AcDbEntity
  8
0
390
0
100
AcDbVertex
100
AcDb3dPolylineVertex
 10
96.161163
 20
-22.06776
 30
0.0
 70
    40
  0
VERTEX
  5
828
100
AcDbEntity
  8
0
390
0
100
AcDbVertex
100
AcDb3dPolylineVertex
 10
96.161163
 20
-21.96953
 30
0.0
 70
    40
  0
VERTEX
  5
829
100
AcDbEntity
  8
0
390
0
100
AcDbVertex
100
AcDb3dPolylineVertex
 10
96.161163
 20
-21.868979
 30
0.0
 70
    40
  0
VERTEX
  5
82A
100
AcDbEntity
  8
0
390
0
100
AcDbVertex
100
AcDb3dPolylineVertex
 10
96.161163
 20
-21.765329
 30
0.0
 70
    40
  0
VERTEX
  5
82B
100
AcDbEntity
  8
0
390
0
100
AcDbVertex
100
AcDb3dPolylineVertex
 10
96.161163
 20
-21.657812
 30
0.0
 70
    40
  0
VERTEX
  5
82C
100
AcDbEntity
  8
0
390
0
100
AcDbVertex
100
AcDb3dPolylineVertex
 10
96.161163
 20
-22.068792
 30
0.0
 70
    48
  0
VERTEX
  5
82D
100
AcDbEntity
  8
0
390
0
100
AcDbVertex
100
AcDb3dPolylineVertex
 10
96.161163
 20
-21.877234
 30
0.0
 70
    48
  0
VERTEX
  5
82E
100
AcDbEntity
  8
0
390
0
100
AcDbVertex
100
AcDb3dPolylineVertex
 10
96.161163
 20
-21.657812
 30
0.0
 70
    48
  0
VERTEX
  5
82F
100
AcDbEntity
  8
0
390
0
100
AcDbVertex
100
AcDb3dPolylineVertex
 10
96.161163
 20
-21.570042
 30
0.0
 70
    40
  0
VERTEX
  5
830
100
AcDbEntity
  8
0
390
0
100
AcDbVertex
100
AcDb3dPolylineVertex
 10
96.161163
 20
-21.479872
 30
0.0
 70
    40
  0
VERTEX
  5
831
100
AcDbEntity
  8
0
390
0
100
AcDbVertex
100
AcDb3dPolylineVertex
 10
96.161163
 20
-21.387781
 30
0.0
 70
    40
  0
VERTEX
  5
832
100
AcDbEntity
  8
0
390
0
100
AcDbVertex
100
AcDb3dPolylineVertex
 10
96.161163
 20
-21.294249
 30
0.0
 70
    40
  0
VERTEX
  5
833
100
AcDbEntity
  8
0
390
0
100
AcDbVertex
100
AcDb3dPolylineVertex
 10
96.161163
 20
-21.199753
 30
0.0
 70
    40
  0
VERTEX
  5
834
100
AcDbEntity
  8
0
390
0
100
AcDbVertex
100
AcDb3dPolylineVertex
 10
96.161163
 20
-21.104773
 30
0.0
 70
    40
  0
VERTEX
  5
835
100
AcDbEntity
  8
0
390
0
100
AcDbVertex
100
AcDb3dPolylineVertex
 10
96.161163
 20
-21.484991
 30
0.0
 70
    48
  0
VERTEX
  5
836
100
AcDbEntity
  8
0
390
0
100
AcDbVertex
100
AcDb3dPolylineVertex
 10
96.161163
 20
-21.294897
 30
0.0
 70
    48
  0
VERTEX
  5
837
100
AcDbEntity
  8
0
390
0
100
AcDbVertex
100
AcDb3dPolylineVertex
 10
96.161163
 20
-21.104773
 30
0.0
 70
    48
  0
SEQEND
  5
838
100
AcDbEntity
  8
0
390
0
  0
ELLIPSE
  5
839
100
AcDbEntity
  8
ANSICHT
390
0
  6
DURCHGEHEND
 62
     1
100
AcDbEllipse
 10
92.912903
 20
-18.484259
 30
0.0
 11
1.5608479976654053
 21
4.2743456499778238
 31
0.0
210
0.0
220
0.0
230
1.0
 40
0.294304
 41
0.5231624499449027
 42
0.8933468016046499
  0
LINE
  5
83A
100
AcDbEntity
  8
ANSICHT
390
0
  6
DURCHGEHEND
 62
     1
100
AcDbLine
 10
96.161163
 20
-20.931005
 30
0.0
 11
96.161163
 21
-21.396307
 31
0.0
  0
LINE
  5
83B
100
AcDbEntity
  8
ANSICHT
390
0
  6
DURCHGEHEND
 62
     1
100
AcDbLine
 10
92.348267
 20
-14.247168
 30
0.0
 11
92.348267
 21
-22.747168
 31
0.0
  0
LINE
  5
83C
100
AcDbEntity
  8
ANSICHT
390
0
  6
DURCHGEHEND
 62
     1
100
AcDbLine
 10
92.57251
 20
-21.872168
 30
0.0
 11
92.548279
 21
-21.872168
 31
0.0
  0
LINE
  5
83D
100
AcDbEntity
  8
ANSICHT
390
0
  6
DURCHGEHEND
 62
     1
100
AcDbLine
 10
92.548279
 20
-22.355291
 30
0.0
 11
92.548279
 21
-21.872168
 31
0.0
  0
LINE
  5
83E
100
AcDbEntity
  8
ANSICHT
390
0
  6
DURCHGEHEND
 62
     1
100
AcDbLine
 10
92.548279
 20
-15.122168
 30
0.0
 11
92.548279
 21
-14.639074
 31
0.0
  0
LINE
  5
83F
100
AcDbEntity
  8
ANSICHT
390
0
  6
DURCHGEHEND
 62
     1
100
AcDbLine
 10
92.548279
 20
-15.122168
 30
0.0
 11
92.57251
 21
-15.122168
 31
0.0
  0
LINE
  5
840
100
AcDbEntity
  8
ANSICHT
390
0
  6
DURCHGEHEND
 62
     1
100
AcDbLine
 10
92.57251
 20
-21.872168
 30
0.0
 11
92.911163
 21
-21.872168
 31
0.0
  0
LINE
  5
841
100
AcDbEntity
  8
ANSICHT
390
0
  6
DURCHGEHEND
 62
     1
100
AcDbLine
 10
93.138123
 20
-15.122168
 30
0.0
 11
92.57251
 21
-15.122168
 31
0.0
  0
LINE
  5
842
100
AcDbEntity
  8
ANSICHT
390
0
  6
DURCHGEHEND
 62
     1
100
AcDbLine
 10
81.836121
 20
-77.906464
 30
0.0
 11
85.746033
 21
-77.974731
 31
0.0
  0
LINE
  5
843
100
AcDbEntity
  8
ANSICHT
390
0
  6
DURCHGEHEND
 62
     1
100
AcDbLine
 10
89.655945
 20
-77.906464
 30
0.0
 11
85.746033
 21
-77.974731
 31
0.0
  0
LINE
  5
844
100
AcDbEntity
  8
ANSICHT
390
0
  6
DURCHGEHEND
 62
     1
100
AcDbLine
 10
85.746033
 20
-13.519629
 30
0.0
 11
80.362305
 21
-13.613623
 31
0.0
  0
LINE
  5
845
100
AcDbEntity
  8
ANSICHT
390
0
  6
DURCHGEHEND
 62
     1
100
AcDbLine
 10
85.746033
 20
-13.519629
 30
0.0
 11
91.129761
 21
-13.613623
 31
0.0
  0
ARC
  5
846
100
AcDbEntity
  8
ANSICHT
390
0
  6
DURCHGEHEND
 62
     1
100
AcDbCircle
 10
81.871033
 20
-75.906769
 30
0.0
 40
2.0
100
AcDbArc
 50
180.0
 51
269.0
  0
ARC
  5
847
100
AcDbEntity
  8
ANSICHT
390
0
  6
DURCHGEHEND
 62
     1
100
AcDbCircle
 10
89.621033
 20
-75.906769
 30
0.0
 40
2.0
100
AcDbArc
 50
271.0
 51
360.0
  0
LINE
  5
848
100
AcDbEntity
  8
ANSICHT
390
0
  6
DURCHGEHEND
 62
     1
100
AcDbLine
 10
79.871033
 20
-16.122168
 30
0.0
 11
79.871033
 21
-75.906769
 31
0.0
  0
LINE
  5
849
100
AcDbEntity
  8
ANSICHT
390
0
  6
DURCHGEHEND
 62
     1
100
AcDbLine
 10
79.871033
 20
-14.113562
 30
0.0
 11
79.871033
 21
-16.122168
 31
0.0
  0
ARC
  5
84A
100
AcDbEntity
  8
ANSICHT
390
0
  6
DURCHGEHEND
 62
     1
100
AcDbCircle
 10
80.371033
 20
-14.113562
 30
0.0
 40
0.5
100
AcDbArc
 50
90.997002
 51
179.996994
  0
ARC
  5
84B
100
AcDbEntity
  8
ANSICHT
390
0
  6
DURCHGEHEND
 62
     1
100
AcDbCircle
 10
91.121033
 20
-14.113562
 30
0.0
 40
0.5
100
AcDbArc
 50
0.0
 51
89.0
  0
LINE
  5
84C
100
AcDbEntity
  8
ANSICHT
390
0
  6
DURCHGEHEND
 62
     1
100
AcDbLine
 10
91.621033
 20
-14.113562
 30
0.0
 11
91.621033
 21
-16.122168
 31
0.0
  0
LINE
  5
84D
100
AcDbEntity
  8
ANSICHT
390
0
  6
DURCHGEHEND
 62
     1
100
AcDbLine
 10
91.621033
 20
-16.122168
 30
0.0
 11
91.621033
 21
-75.906769
 31
0.0
  0
ENDSEC
  0
SECTION
  2
OBJECTS
  0
DICTIONARY
  5
19
100
AcDbDictionary
280
     0
281
     1
  3
ACAD_GROUP
350
1A
  3
ACAD_MLINESTYLE
350
1B
  3
ACAD_LAYOUT
350
1E
  3
ACAD_PLOTSETTINGS
350
22
  3
ACAD_PLOTSTYLENAME
350
1F
  3
ACAD_WIPEOUT_VARS
350
23
  0
DICTIONARY
  5
1A
102
{ACAD_REACTORS
330
19
102
}
100
AcDbDictionary
280
     0
281
     1
  0
DICTIONARY
  5
1B
102
{ACAD_REACTORS
330
19
102
}
100
AcDbDictionary
280
     0
281
     1
  3
Standard
350
1C
  0
MLINESTYLE
  5
1C
102
{ACAD_REACTORS
330
1B
102
}
100
AcDbMlineStyle
  2
Standard
 70
     0
  3

 62
     0
 51
90.0
 52
90.0
 71
     2
 49
0.5
 62
   256
  6
ByLayer
 49
-0.5
 62
   256
  6
ByLayer
  0
ACDBDICTIONARYWDFLT
  5
1F
102
{ACAD_REACTORS
330
19
102
}
100
AcDbDictionary
281
     1
  3
Normal
350
1D
100
AcDbDictionaryWithDefault
340
1D
  0
ACDBPLACEHOLDER
  5
1D
102
{ACAD_REACTORS
330
1F
102
}
  0
LAYOUT
  5
20
102
{ACAD_REACTORS
330
1E
102
}
100
AcDbPlotSettings
  1

  2

  4

  6

 40
0.0
 41
0.0
 42
0.0
 43
0.0
 44
0.0
 45
0.0
 46
0.0
 47
0.0
 48
0.0
 49
0.0
140
0.0
141
0.0
142
1.0
143
1.0
 70
  1024
 72
     0
 73
     0
 74
     0
  7

 75
     0
147
1.0
148
0.0
149
0.0
100
AcDbLayout
  1
Model
 70
     0
 71
     0
 10
0.0
 20
0.0
 11
0.0
 21
0.0
 12
0.0
 22
0.0
 32
0.0
 14
0.0
 24
0.0
 34
0.0
 15
0.0
 25
0.0
 35
0.0
146
0.0
 13
0.0
 23
0.0
 33
0.0
 16
0.0
 26
0.0
 36
0.0
 17
0.0
 27
0.0
 37
0.0
 76
     0
330
A
331
0
345
0
346
0
  0
LAYOUT
  5
21
102
{ACAD_REACTORS
330
1E
102
}
100
AcDbPlotSettings
  1

  2

  4

  6

 40
0.0
 41
0.0
 42
0.0
 43
0.0
 44
0.0
 45
0.0
 46
0.0
 47
0.0
 48
0.0
 49
0.0
140
0.0
141
0.0
142
1.0
143
1.0
 70
     0
 72
     0
 73
     0
 74
     0
  7

 75
     0
147
1.0
148
0.0
149
0.0
100
AcDbLayout
  1
Layout1
 70
     0
 71
     0
 10
0.0
 20
0.0
 11
0.0
 21
0.0
 12
0.0
 22
0.0
 32
0.0
 14
0.0
 24
0.0
 34
0.0
 15
0.0
 25
0.0
 35
0.0
146
0.0
 13
0.0
 23
0.0
 33
0.0
 16
0.0
 26
0.0
 36
0.0
 17
0.0
 27
0.0
 37
0.0
 76
     0
330
B
331
0
345
0
346
0
  0
DICTIONARY
  5
1E
102
{ACAD_REACTORS
330
19
102
}
100
AcDbDictionary
280
     0
281
     1
  3
Layout1
350
21
  3
Model
350
20
  0
DICTIONARY
  5
22
102
{ACAD_REACTORS
330
19
102
}
100
AcDbDictionary
280
     0
281
     1
  0
WIPEOUTVARIABLES
  5
23
100
AcDbWipeoutVariables
 70
     1
  0
ENDSEC
  0
EOF
