  0
SECTION
  2
HEADER
  9
$ACADVER
  1
AC1015
  9
$ACADMAINTVER
 70
     6
  9
$DWGCODEPAGE
  3
ANSI_1252
  9
$INSBASE
 10
0.0
 20
0.0
 30
0.0
  9
$EXTMIN
 10
42.798576
 20
3.180404
 30
0.0
  9
$EXTMAX
 10
293.614227
 20
192.147476
 30
0.0
  9
$LIMMIN
 10
0.0
 20
0.0
  9
$LIMMAX
 10
0.0
 20
0.0
  9
$ORTHOMODE
 70
     0
  9
$REGENMODE
 70
     1
  9
$FILLMODE
 70
     1
  9
$QTEXTMODE
 70
     0
  9
$MIRRTEXT
 70
     1
  9
$LTSCALE
 40
1.0
  9
$ATTMODE
 70
     1
  9
$TEXTSIZE
 40
0.2
  9
$TRACEWID
 40
0.05
  9
$TEXTSTYLE
  7
Standard
  9
$CLAYER
  8
0
  9
$CELTYPE
  6
Continuous
  9
$CECOLOR
 62
   256
  9
$CELTSCALE
 40
1.0
  9
$DISPSILH
 70
     0
  9
$DIMSCALE
 40
1.0
  9
$DIMASZ
 40
0.18
  9
$DIMEXO
 40
0.0625
  9
$DIMDLI
 40
0.38
  9
$DIMRND
 40
0.0
  9
$DIMDLE
 40
0.0
  9
$DIMEXE
 40
0.18
  9
$DIMTP
 40
0.0
  9
$DIMTM
 40
0.0
  9
$DIMTXT
 40
0.18
  9
$DIMCEN
 40
0.09
  9
$DIMTSZ
 40
0.0
  9
$DIMTOL
 70
     0
  9
$DIMLIM
 70
     0
  9
$DIMTIH
 70
     1
  9
$DIMTOH
 70
     1
  9
$DIMSE1
 70
     0
  9
$DIMSE2
 70
     0
  9
$DIMTAD
 70
     0
  9
$DIMZIN
 70
     0
  9
$DIMBLK
  1

  9
$DIMASO
 70
     1
  9
$DIMSHO
 70
     1
  9
$DIMPOST
  1

  9
$DIMAPOST
  1

  9
$DIMALT
 70
     0
  9
$DIMALTD
 70
     2
  9
$DIMALTF
 40
25.4
  9
$DIMLFAC
 40
1.0
  9
$DIMTOFL
 70
     0
  9
$DIMTVP
 40
0.0
  9
$DIMTIX
 70
     0
  9
$DIMSOXD
 70
     0
  9
$DIMSAH
 70
     0
  9
$DIMBLK1
  1

  9
$DIMBLK2
  1

  9
$DIMSTYLE
  2
Standard
  9
$DIMCLRD
 70
     0
  9
$DIMCLRE
 70
     0
  9
$DIMCLRT
 70
     0
  9
$DIMTFAC
 40
1.0
  9
$DIMGAP
 40
0.09
  9
$DIMJUST
 70
     0
  9
$DIMSD1
 70
     0
  9
$DIMSD2
 70
     0
  9
$DIMTOLJ
 70
     1
  9
$DIMTZIN
 70
     0
  9
$DIMALTZ
 70
     0
  9
$DIMALTTZ
 70
     0
  9
$DIMUPT
 70
     0
  9
$DIMDEC
 70
     4
  9
$DIMTDEC
 70
     4
  9
$DIMALTU
 70
     2
  9
$DIMALTTD
 70
     2
  9
$DIMTXSTY
  7
Standard
  9
$DIMAUNIT
 70
     0
  9
$DIMADEC
 70
     0
  9
$DIMALTRND
 40
0.0
  9
$DIMAZIN
 70
     0
  9
$DIMDSEP
 70
     0
  9
$DIMATFIT
 70
     3
  9
$DIMFRAC
 70
     0
  9
$DIMLDRBLK
  1

  9
$DIMLUNIT
 70
     2
  9
$DIMLWD
 70
     0
  9
$DIMLWE
 70
     0
  9
$DIMTMOVE
 70
     0
  9
$LUNITS
 70
     2
  9
$LUPREC
 70
     4
  9
$SKETCHINC
 40
0.1
  9
$FILLETRAD
 40
0.0
  9
$AUNITS
 70
     0
  9
$AUPREC
 70
     0
  9
$MENU
  1
acad
  9
$ELEVATION
 40
0.0
  9
$PELEVATION
 40
0.0
  9
$THICKNESS
 40
0.0
  9
$LIMCHECK
 70
     0
  9
$CHAMFERA
 40
0.0
  9
$CHAMFERB
 40
0.0
  9
$CHAMFERC
 40
0.0
  9
$CHAMFERD
 40
0.0
  9
$SKPOLY
 70
     0
  9
$TDCREATE
 40
0.000000000
  9
$TDUCREATE
 40
0.000000000
  9
$TDUPDATE
 40
0.000000000
  9
$TDUUPDATE
 40
0.000000000
  9
$TDINDWG
 40
0.0000000000
  9
$TDUSRTIMER
 40
0.0000000000
  9
$USRTIMER
 70
     1
  9
$ANGBASE
 50
0.0
  9
$ANGDIR
 70
     0
  9
$PDMODE
 70
     0
  9
$PDSIZE
 40
0.0
  9
$PLINEWID
 40
0.0
  9
$SPLFRAME
 70
     0
  9
$SPLINETYPE
 70
     6
  9
$SPLINESEGS
 70
     8
  9
$HANDSEED
  5
459
  9
$SURFTAB1
 70
     6
  9
$SURFTAB2
 70
     6
  9
$SURFTYPE
 70
     6
  9
$SURFU
 70
     6
  9
$SURFV
 70
     6
  9
$UCSBASE
  2

  9
$UCSNAME
  2

  9
$UCSORG
 10
0.0
 20
0.0
 30
0.0
  9
$UCSXDIR
 10
1.0
 20
0.0
 30
0.0
  9
$UCSYDIR
 10
0.0
 20
1.0
 30
0.0
  9
$UCSORTHOREF
  2

  9
$UCSORTHOVIEW
 70
     0
  9
$UCSORGTOP
 10
0.0
 20
0.0
 30
0.0
  9
$UCSORGBOTTOM
 10
0.0
 20
0.0
 30
0.0
  9
$UCSORGLEFT
 10
0.0
 20
0.0
 30
0.0
  9
$UCSORGRIGHT
 10
0.0
 20
0.0
 30
0.0
  9
$UCSORGFRONT
 10
0.0
 20
0.0
 30
0.0
  9
$UCSORGBACK
 10
0.0
 20
0.0
 30
0.0
  9
$PUCSBASE
  2

  9
$PUCSNAME
  2

  9
$PUCSORG
 10
0.0
 20
0.0
 30
0.0
  9
$PUCSXDIR
 10
1.0
 20
0.0
 30
0.0
  9
$PUCSYDIR
 10
0.0
 20
1.0
 30
0.0
  9
$PUCSORTHOREF
  2

  9
$PUCSORTHOVIEW
 70
     0
  9
$PUCSORGTOP
 10
0.0
 20
0.0
 30
0.0
  9
$PUCSORGBOTTOM
 10
0.0
 20
0.0
 30
0.0
  9
$PUCSORGLEFT
 10
0.0
 20
0.0
 30
0.0
  9
$PUCSORGRIGHT
 10
0.0
 20
0.0
 30
0.0
  9
$PUCSORGFRONT
 10
0.0
 20
0.0
 30
0.0
  9
$PUCSORGBACK
 10
0.0
 20
0.0
 30
0.0
  9
$USERI1
 70
     0
  9
$USERI2
 70
     0
  9
$USERI3
 70
     0
  9
$USERI4
 70
     0
  9
$USERI5
 70
     0
  9
$USERR1
 40
0.0
  9
$USERR2
 40
0.0
  9
$USERR3
 40
0.0
  9
$USERR4
 40
0.0
  9
$USERR5
 40
0.0
  9
$WORLDVIEW
 70
     1
  9
$SHADEDGE
 70
     3
  9
$SHADEDIF
 70
    70
  9
$TILEMODE
 70
     1
  9
$MAXACTVP
 70
    16
  9
$PINSBASE
 10
0.0
 20
0.0
 30
0.0
  9
$PLIMCHECK
 70
     0
  9
$PEXTMIN
 10
1.000000E+20
 20
1.000000E+20
 30
1.000000E+20
  9
$PEXTMAX
 10
-1.000000E+20
 20
-1.000000E+20
 30
-1.000000E+20
  9
$PLIMMIN
 10
0.0
 20
0.0
  9
$PLIMMAX
 10
12.0
 20
9.0
  9
$UNITMODE
 70
     0
  9
$VISRETAIN
 70
     0
  9
$PLINEGEN
 70
     1
  9
$PSLTSCALE
 70
     0
  9
$TREEDEPTH
 70
  3020
  9
$CMLSTYLE
  2
Standard
  9
$CMLJUST
 70
     0
  9
$CMLSCALE
 40
1.0
  9
$PROXYGRAPHICS
 70
     0
  9
$MEASUREMENT
 70
     0
  9
$CELWEIGHT
370
     0
  9
$ENDCAPS
280
     0
  9
$JOINSTYLE
280
     0
  9
$LWDISPLAY
290
     0
  9
$INSUNITS
 70
     0
  9
$HYPERLINKBASE
  1

  9
$STYLESHEET
  1

  9
$XEDIT
290
     1
  9
$CEPSNTYPE
380
     0
  9
$PSTYLEMODE
290
     1
  9
$FINGERPRINTGUID
  2

  9
$VERSIONGUID
  2

  9
$EXTNAMES
290
     1
  9
$PSVPSCALE
 40
0.0
  0
ENDSEC
  0
SECTION
  2
CLASSES
  0
CLASS
  1
LWPOLYLINE
  2
AcDbPolyline
  3
AutoCAD 2000
 90
        0
280
     0
281
     1
  0
CLASS
  1
IMAGE
  2
AcDbRasterImage
  3
ISM
 90
      127
280
     0
281
     1
  0
CLASS
  1
OLE2FRAME
  2
AcDbOle2Frame
  3
AutoCAD 2000
 90
        0
280
     0
281
     1
  0
CLASS
  1
HATCH
  2
AcDbHatch
  3
AutoCAD 2000
 90
        0
280
     0
281
     1
  0
CLASS
  1
DICTIONARYVAR
  2
AcDbDictionaryVar
  3
AutoCAD 2000
 90
        0
280
     0
281
     0
  0
CLASS
  1
RASTERVARIABLES
  2
AcDbRasterVariables
  3
ISM
 90
        0
280
     0
281
     0
  0
CLASS
  1
IMAGEDEF
  2
AcDbRasterImageDef
  3
ISM
 90
        0
280
     0
281
     0
  0
CLASS
  1
IMAGEDEF_REACTOR
  2
AcDbRasterImageDefReactor
  3
ISM
 90
        1
280
     0
281
     0
  0
CLASS
  1
IDBUFFER
  2
AcDbIdBuffer
  3
AutoCAD 2000
 90
        0
280
     0
281
     0
  0
CLASS
  1
SPATIAL_FILTER
  2
AcDbSpatialFilter
  3
AutoCAD 2000
 90
        0
280
     0
281
     0
  0
CLASS
  1
XRECORD
  2
AcDbXrecord
  3
AutoCAD 2000
 90
        0
280
     0
281
     0
  0
CLASS
  1
SORTENTSTABLE
  2
AcDbSortentsTable
  3
AutoCAD 2000
 90
        0
280
     0
281
     0
  0
CLASS
  1
LAYER_INDEX
  2
AcDbLayerIndex
  3
AutoCAD 2000
 90
        0
280
     0
281
     0
  0
CLASS
  1
SPATIAL_INDEX
  2
AcDbSpatialIndex
  3
AutoCAD 2000
 90
        0
280
     0
281
     0
  0
CLASS
  1
OBJECT_PTR
  2
CAseDLPNTableRecord
  3
"ASE-LPNTableRecord"
 90
        1
280
     0
281
     0
  0
CLASS
  1
LAYOUT
  2
AcDbLayout
  3
AutoCAD 2000
 90
        0
280
     0
281
     0
  0
CLASS
  1
PLOTSETTINGS
  2
AcDbPlotSettings
  3
AutoCAD 2000
 90
        0
280
     0
281
     0
  0
CLASS
  1
ACDBDICTIONARYWDFLT
  2
AcDbDictionaryWithDefault
  3
AutoCAD 2000
 90
        0
280
     0
281
     0
  0
CLASS
  1
ACDBPLACEHOLDER
  2
AcDbPlaceHolder
  3
AutoCAD 2000
 90
        0
280
     0
281
     0
  0
CLASS
  1
VBA_PROJECT
  2
AcDbVbaProject
  3
acadvba
 90
        0
280
     0
281
     0
  0
CLASS
  1
WIPEOUT
  2
AcDbWipeout
  3
WipeOut|AutoCAD Express Tool|expresstools@autodesk.com
 90
      127
280
     0
281
     1
  0
CLASS
  1
WIPEOUTVARIABLES
  2
AcDbWipeoutVariables
  3
WipeOut|AutoCAD Express Tool|expresstools@autodesk.com
 90
        0
280
     0
281
     0
  0
CLASS
  1
RTEXT
  2
RText
  3
RText|AutoCAD Express Tool|expresstools@autodesk.com
 90
        0
280
     0
281
     1
  0
CLASS
  1
ARCALIGNEDTEXT
  2
AcDbArcAlignedText
  3
ATEXT|AutoCAD Express Tool|expresstools@autodesk.com
 90
        0
280
     0
281
     1
  0
ENDSEC
  0
SECTION
  2
TABLES
  0
TABLE
  2
VPORT
  5
7
100
AcDbSymbolTable
 70
     1
  0
VPORT
  5
15
100
AcDbSymbolTableRecord
100
AcDbViewportTableRecord
  2
*ACTIVE
 70
     0
 10
0.0
 20
0.0
 11
1.0
 21
1.0
 12
6.591288
 22
4.579184
 13
0.0
 23
0.0
 14
1.0
 24
1.0
 15
0.0
 25
0.0
 16
0.0
 26
0.0
 36
1.0
 17
0.0
 27
0.0
 37
0.0
 40
9.158369
 41
0.688564
 42
50.0
 43
0.0
 44
0.0
 50
0.0
 51
0.0
 71
     0
 72
   100
 73
     1
 74
     1
 75
     0
 76
     0
 77
     0
 78
     0
281
     0
 65
     0
110
0.0
120
0.0
130
0.0
111
1.0
121
0.0
131
0.0
112
0.0
122
1.0
132
0.0
345
0
346
0
 79
     0
146
0.0
  0
ENDTAB
  0
TABLE
  2
LTYPE
  5
4
100
AcDbSymbolTable
 70
   186
  0
LTYPE
  5
11
100
AcDbSymbolTableRecord
100
AcDbLinetypeTableRecord
  2
ByBlock
 70
    64
  3

 72
    65
 73
     0
 40
0.0
  0
LTYPE
  5
12
100
AcDbSymbolTableRecord
100
AcDbLinetypeTableRecord
  2
ByLayer
 70
    64
  3

 72
    65
 73
     0
 40
0.0
  0
LTYPE
  5
13
100
AcDbSymbolTableRecord
100
AcDbLinetypeTableRecord
  2
Continuous
 70
    64
  3
Solid line
 72
    65
 73
     0
 40
0.0
  0
LTYPE
  5
25
100
AcDbSymbolTableRecord
100
AcDbLinetypeTableRecord
  2
DURCHGEHEND
 70
    64
  3

 72
    65
 73
     0
 40
0.0
  0
LTYPE
  5
26
100
AcDbSymbolTableRecord
100
AcDbLinetypeTableRecord
  2
GESTRICHELT
 70
    64
  3

 72
    65
 73
     2
 40
10.0
 49
5.0
 74
     0
 49
-5.0
 74
     0
  0
LTYPE
  5
27
100
AcDbSymbolTableRecord
100
AcDbLinetypeTableRecord
  2
MITTELLINIE
 70
    64
  3

 72
    65
 73
     4
 40
20.0
 49
10.0
 74
     0
 49
-2.0
 74
     0
 49
5.0
 74
     0
 49
-3.0
 74
     0
  0
LTYPE
  5
28
100
AcDbSymbolTableRecord
100
AcDbLinetypeTableRecord
  2
PUNKTIERT
 70
    64
  3

 72
    65
 73
     2
 40
0.25
 49
0.0
 74
     0
 49
-0.25
 74
     0
  0
LTYPE
  5
29
100
AcDbSymbolTableRecord
100
AcDbLinetypeTableRecord
  2
STRICHPUNKTIERT
 70
    64
  3

 72
    65
 73
     4
 40
12.0
 49
5.0
 74
     0
 49
-3.0
 74
     0
 49
1.0
 74
     0
 49
-3.0
 74
     0
  0
LTYPE
  5
2A
100
AcDbSymbolTableRecord
100
AcDbLinetypeTableRecord
  2
STRICH-PUNKT-PUNKT
 70
    64
  3

 72
    65
 73
     6
 40
10.0
 49
5.0
 74
     0
 49
-1.0
 74
     0
 49
1.0
 74
     0
 49
-1.0
 74
     0
 49
1.0
 74
     0
 49
-1.0
 74
     0
  0
LTYPE
  5
2B
100
AcDbSymbolTableRecord
100
AcDbLinetypeTableRecord
  2
STARTPFEIL
 70
    64
  3

 72
    65
 73
     0
 40
0.0
  0
LTYPE
  5
2C
100
AcDbSymbolTableRecord
100
AcDbLinetypeTableRecord
  2
ENDPFEIL
 70
    64
  3

 72
    65
 73
     0
 40
0.0
  0
LTYPE
  5
2D
100
AcDbSymbolTableRecord
100
AcDbLinetypeTableRecord
  2
ENDPUNKT
 70
    64
  3

 72
    65
 73
     0
 40
0.0
  0
LTYPE
  5
2E
100
AcDbSymbolTableRecord
100
AcDbLinetypeTableRecord
  2
PFEIL
 70
    64
  3

 72
    65
 73
     0
 40
0.0
  0
LTYPE
  5
2F
100
AcDbSymbolTableRecord
100
AcDbLinetypeTableRecord
  2
STITCHLINE
 70
    64
  3

 72
    65
 73
     2
 40
6.0
 49
3.0
 74
     0
 49
-3.0
 74
     0
  0
LTYPE
  5
30
100
AcDbSymbolTableRecord
100
AcDbLinetypeTableRecord
  2
MITTELLINIE_2
 70
    64
  3

 72
    65
 73
     4
 40
17.0
 49
10.0
 74
     0
 49
-2.0
 74
     0
 49
3.0
 74
     0
 49
-2.0
 74
     0
  0
LTYPE
  5
31
100
AcDbSymbolTableRecord
100
AcDbLinetypeTableRecord
  2
VERDECKTE_LINIE
 70
    64
  3

 72
    65
 73
     2
 40
4.0
 49
2.0
 74
     0
 49
-2.0
 74
     0
  0
LTYPE
  5
32
100
AcDbSymbolTableRecord
100
AcDbLinetypeTableRecord
  2
PHANTOMLINIE
 70
    64
  3

 72
    65
 73
     6
 40
21.0
 49
10.0
 74
     0
 49
-2.0
 74
     0
 49
3.0
 74
     0
 49
-1.0
 74
     0
 49
3.0
 74
     0
 49
-2.0
 74
     0
  0
LTYPE
  5
33
100
AcDbSymbolTableRecord
100
AcDbLinetypeTableRecord
  2
BRUCHLINIE_1
 70
    64
  3

 72
    65
 73
     0
 40
0.0
  0
LTYPE
  5
34
100
AcDbSymbolTableRecord
100
AcDbLinetypeTableRecord
  2
BRUCHLINIE_2
 70
    64
  3

 72
    65
 73
     0
 40
0.0
  0
LTYPE
  5
35
100
AcDbSymbolTableRecord
100
AcDbLinetypeTableRecord
  2
_DURCHGEHEND
 70
    64
  3

 72
    65
 73
     0
 40
0.0
  0
LTYPE
  5
36
100
AcDbSymbolTableRecord
100
AcDbLinetypeTableRecord
  2
_GESTRICHELT
 70
    64
  3

 72
    65
 73
     2
 40
10.0
 49
5.0
 74
     0
 49
-5.0
 74
     0
  0
LTYPE
  5
37
100
AcDbSymbolTableRecord
100
AcDbLinetypeTableRecord
  2
_MITTELLINIE
 70
    64
  3

 72
    65
 73
     4
 40
20.0
 49
10.0
 74
     0
 49
-2.0
 74
     0
 49
5.0
 74
     0
 49
-3.0
 74
     0
  0
LTYPE
  5
38
100
AcDbSymbolTableRecord
100
AcDbLinetypeTableRecord
  2
_PUNKTIERT
 70
    64
  3

 72
    65
 73
     2
 40
0.25
 49
0.0
 74
     0
 49
-0.25
 74
     0
  0
LTYPE
  5
39
100
AcDbSymbolTableRecord
100
AcDbLinetypeTableRecord
  2
_STRICHPUNKTIERT
 70
    64
  3

 72
    65
 73
     4
 40
8.0
 49
5.0
 74
     0
 49
-1.0
 74
     0
 49
1.0
 74
     0
 49
-1.0
 74
     0
  0
LTYPE
  5
3A
100
AcDbSymbolTableRecord
100
AcDbLinetypeTableRecord
  2
_STRICH-PUNKT-PUNKT
 70
    64
  3

 72
    65
 73
     6
 40
10.0
 49
5.0
 74
     0
 49
-1.0
 74
     0
 49
1.0
 74
     0
 49
-1.0
 74
     0
 49
1.0
 74
     0
 49
-1.0
 74
     0
  0
LTYPE
  5
3B
100
AcDbSymbolTableRecord
100
AcDbLinetypeTableRecord
  2
_STARTPFEIL
 70
    64
  3

 72
    65
 73
     0
 40
0.0
  0
LTYPE
  5
3C
100
AcDbSymbolTableRecord
100
AcDbLinetypeTableRecord
  2
_ENDPFEIL
 70
    64
  3

 72
    65
 73
     0
 40
0.0
  0
LTYPE
  5
3D
100
AcDbSymbolTableRecord
100
AcDbLinetypeTableRecord
  2
_ENDPUNKT
 70
    64
  3

 72
    65
 73
     0
 40
0.0
  0
LTYPE
  5
3E
100
AcDbSymbolTableRecord
100
AcDbLinetypeTableRecord
  2
_PFEIL
 70
    64
  3

 72
    65
 73
     0
 40
0.0
  0
LTYPE
  5
3F
100
AcDbSymbolTableRecord
100
AcDbLinetypeTableRecord
  2
_STITCHLINE
 70
    64
  3

 72
    65
 73
     2
 40
6.0
 49
3.0
 74
     0
 49
-3.0
 74
     0
  0
LTYPE
  5
40
100
AcDbSymbolTableRecord
100
AcDbLinetypeTableRecord
  2
_MITTELLINIE_2
 70
    64
  3

 72
    65
 73
     4
 40
17.0
 49
10.0
 74
     0
 49
-2.0
 74
     0
 49
3.0
 74
     0
 49
-2.0
 74
     0
  0
LTYPE
  5
41
100
AcDbSymbolTableRecord
100
AcDbLinetypeTableRecord
  2
_VERDECKTE_LINIE
 70
    64
  3

 72
    65
 73
     2
 40
4.0
 49
2.0
 74
     0
 49
-2.0
 74
     0
  0
LTYPE
  5
42
100
AcDbSymbolTableRecord
100
AcDbLinetypeTableRecord
  2
_PHANTOMLINIE
 70
    64
  3

 72
    65
 73
     6
 40
21.0
 49
10.0
 74
     0
 49
-2.0
 74
     0
 49
3.0
 74
     0
 49
-1.0
 74
     0
 49
3.0
 74
     0
 49
-2.0
 74
     0
  0
LTYPE
  5
43
100
AcDbSymbolTableRecord
100
AcDbLinetypeTableRecord
  2
_BRUCHLINIE_1
 70
    64
  3

 72
    65
 73
     0
 40
0.0
  0
LTYPE
  5
44
100
AcDbSymbolTableRecord
100
AcDbLinetypeTableRecord
  2
_BRUCHLINIE_2
 70
    64
  3

 72
    65
 73
     0
 40
0.0
  0
LTYPE
  5
45
100
AcDbSymbolTableRecord
100
AcDbLinetypeTableRecord
  2
CONTINUOUS
 70
    64
  3

 72
    65
 73
     0
 40
0.0
  0
LTYPE
  5
46
100
AcDbSymbolTableRecord
100
AcDbLinetypeTableRecord
  2
_DURCHGEHEND
 70
    64
  3

 72
    65
 73
     0
 40
0.0
  0
LTYPE
  5
47
100
AcDbSymbolTableRecord
100
AcDbLinetypeTableRecord
  2
_GESTRICHELT
 70
    64
  3

 72
    65
 73
     2
 40
10.0
 49
5.0
 74
     0
 49
-5.0
 74
     0
  0
LTYPE
  5
48
100
AcDbSymbolTableRecord
100
AcDbLinetypeTableRecord
  2
_MITTELLINIE
 70
    64
  3

 72
    65
 73
     4
 40
20.0
 49
10.0
 74
     0
 49
-2.0
 74
     0
 49
5.0
 74
     0
 49
-3.0
 74
     0
  0
LTYPE
  5
49
100
AcDbSymbolTableRecord
100
AcDbLinetypeTableRecord
  2
_PUNKTIERT
 70
    64
  3

 72
    65
 73
     2
 40
0.25
 49
0.0
 74
     0
 49
-0.25
 74
     0
  0
LTYPE
  5
4A
100
AcDbSymbolTableRecord
100
AcDbLinetypeTableRecord
  2
_STRICHPUNKTIERT
 70
    64
  3

 72
    65
 73
     4
 40
8.0
 49
5.0
 74
     0
 49
-1.0
 74
     0
 49
1.0
 74
     0
 49
-1.0
 74
     0
  0
LTYPE
  5
4B
100
AcDbSymbolTableRecord
100
AcDbLinetypeTableRecord
  2
_STRICH-PUNKT-PUNKT
 70
    64
  3

 72
    65
 73
     6
 40
10.0
 49
5.0
 74
     0
 49
-1.0
 74
     0
 49
1.0
 74
     0
 49
-1.0
 74
     0
 49
1.0
 74
     0
 49
-1.0
 74
     0
  0
LTYPE
  5
4C
100
AcDbSymbolTableRecord
100
AcDbLinetypeTableRecord
  2
_STARTPFEIL
 70
    64
  3

 72
    65
 73
     0
 40
0.0
  0
LTYPE
  5
4D
100
AcDbSymbolTableRecord
100
AcDbLinetypeTableRecord
  2
_ENDPFEIL
 70
    64
  3

 72
    65
 73
     0
 40
0.0
  0
LTYPE
  5
4E
100
AcDbSymbolTableRecord
100
AcDbLinetypeTableRecord
  2
_ENDPUNKT
 70
    64
  3

 72
    65
 73
     0
 40
0.0
  0
LTYPE
  5
4F
100
AcDbSymbolTableRecord
100
AcDbLinetypeTableRecord
  2
_PFEIL
 70
    64
  3

 72
    65
 73
     0
 40
0.0
  0
LTYPE
  5
50
100
AcDbSymbolTableRecord
100
AcDbLinetypeTableRecord
  2
_STITCHLINE
 70
    64
  3

 72
    65
 73
     2
 40
6.0
 49
3.0
 74
     0
 49
-3.0
 74
     0
  0
LTYPE
  5
51
100
AcDbSymbolTableRecord
100
AcDbLinetypeTableRecord
  2
_MITTELLINIE_2
 70
    64
  3

 72
    65
 73
     4
 40
17.0
 49
10.0
 74
     0
 49
-2.0
 74
     0
 49
3.0
 74
     0
 49
-2.0
 74
     0
  0
LTYPE
  5
52
100
AcDbSymbolTableRecord
100
AcDbLinetypeTableRecord
  2
_VERDECKTE_LINIE
 70
    64
  3

 72
    65
 73
     2
 40
4.0
 49
2.0
 74
     0
 49
-2.0
 74
     0
  0
LTYPE
  5
53
100
AcDbSymbolTableRecord
100
AcDbLinetypeTableRecord
  2
_PHANTOMLINIE
 70
    64
  3

 72
    65
 73
     6
 40
21.0
 49
10.0
 74
     0
 49
-2.0
 74
     0
 49
3.0
 74
     0
 49
-1.0
 74
     0
 49
3.0
 74
     0
 49
-2.0
 74
     0
  0
LTYPE
  5
54
100
AcDbSymbolTableRecord
100
AcDbLinetypeTableRecord
  2
_BRUCHLINIE_1
 70
    64
  3

 72
    65
 73
     0
 40
0.0
  0
LTYPE
  5
55
100
AcDbSymbolTableRecord
100
AcDbLinetypeTableRecord
  2
_BRUCHLINIE_2
 70
    64
  3

 72
    65
 73
     0
 40
0.0
  0
LTYPE
  5
56
100
AcDbSymbolTableRecord
100
AcDbLinetypeTableRecord
  2
_DURCHGEHEND
 70
    64
  3

 72
    65
 73
     0
 40
0.0
  0
LTYPE
  5
57
100
AcDbSymbolTableRecord
100
AcDbLinetypeTableRecord
  2
_GESTRICHELT
 70
    64
  3

 72
    65
 73
     2
 40
10.0
 49
5.0
 74
     0
 49
-5.0
 74
     0
  0
LTYPE
  5
58
100
AcDbSymbolTableRecord
100
AcDbLinetypeTableRecord
  2
_MITTELLINIE
 70
    64
  3

 72
    65
 73
     4
 40
20.0
 49
10.0
 74
     0
 49
-2.0
 74
     0
 49
5.0
 74
     0
 49
-3.0
 74
     0
  0
LTYPE
  5
59
100
AcDbSymbolTableRecord
100
AcDbLinetypeTableRecord
  2
_PUNKTIERT
 70
    64
  3

 72
    65
 73
     2
 40
0.25
 49
0.0
 74
     0
 49
-0.25
 74
     0
  0
LTYPE
  5
5A
100
AcDbSymbolTableRecord
100
AcDbLinetypeTableRecord
  2
_STRICHPUNKTIERT
 70
    64
  3

 72
    65
 73
     4
 40
8.0
 49
5.0
 74
     0
 49
-1.0
 74
     0
 49
1.0
 74
     0
 49
-1.0
 74
     0
  0
LTYPE
  5
5B
100
AcDbSymbolTableRecord
100
AcDbLinetypeTableRecord
  2
_STRICH-PUNKT-PUNKT
 70
    64
  3

 72
    65
 73
     6
 40
10.0
 49
5.0
 74
     0
 49
-1.0
 74
     0
 49
1.0
 74
     0
 49
-1.0
 74
     0
 49
1.0
 74
     0
 49
-1.0
 74
     0
  0
LTYPE
  5
5C
100
AcDbSymbolTableRecord
100
AcDbLinetypeTableRecord
  2
_STARTPFEIL
 70
    64
  3

 72
    65
 73
     0
 40
0.0
  0
LTYPE
  5
5D
100
AcDbSymbolTableRecord
100
AcDbLinetypeTableRecord
  2
_ENDPFEIL
 70
    64
  3

 72
    65
 73
     0
 40
0.0
  0
LTYPE
  5
5E
100
AcDbSymbolTableRecord
100
AcDbLinetypeTableRecord
  2
_ENDPUNKT
 70
    64
  3

 72
    65
 73
     0
 40
0.0
  0
LTYPE
  5
5F
100
AcDbSymbolTableRecord
100
AcDbLinetypeTableRecord
  2
_PFEIL
 70
    64
  3

 72
    65
 73
     0
 40
0.0
  0
LTYPE
  5
60
100
AcDbSymbolTableRecord
100
AcDbLinetypeTableRecord
  2
_STITCHLINE
 70
    64
  3

 72
    65
 73
     2
 40
6.0
 49
3.0
 74
     0
 49
-3.0
 74
     0
  0
LTYPE
  5
61
100
AcDbSymbolTableRecord
100
AcDbLinetypeTableRecord
  2
_MITTELLINIE_2
 70
    64
  3

 72
    65
 73
     4
 40
17.0
 49
10.0
 74
     0
 49
-2.0
 74
     0
 49
3.0
 74
     0
 49
-2.0
 74
     0
  0
LTYPE
  5
62
100
AcDbSymbolTableRecord
100
AcDbLinetypeTableRecord
  2
_VERDECKTE_LINIE
 70
    64
  3

 72
    65
 73
     2
 40
4.0
 49
2.0
 74
     0
 49
-2.0
 74
     0
  0
LTYPE
  5
63
100
AcDbSymbolTableRecord
100
AcDbLinetypeTableRecord
  2
_PHANTOMLINIE
 70
    64
  3

 72
    65
 73
     6
 40
21.0
 49
10.0
 74
     0
 49
-2.0
 74
     0
 49
3.0
 74
     0
 49
-1.0
 74
     0
 49
3.0
 74
     0
 49
-2.0
 74
     0
  0
LTYPE
  5
64
100
AcDbSymbolTableRecord
100
AcDbLinetypeTableRecord
  2
_BRUCHLINIE_1
 70
    64
  3

 72
    65
 73
     0
 40
0.0
  0
LTYPE
  5
65
100
AcDbSymbolTableRecord
100
AcDbLinetypeTableRecord
  2
_BRUCHLINIE_2
 70
    64
  3

 72
    65
 73
     0
 40
0.0
  0
LTYPE
  5
66
100
AcDbSymbolTableRecord
100
AcDbLinetypeTableRecord
  2
SLDCENTERLINES0
 70
    64
  3

 72
    65
 73
     4
 40
19.05
 49
15.24
 74
     0
 49
-1.27
 74
     0
 49
1.27
 74
     0
 49
-1.27
 74
     0
  0
LTYPE
  5
67
100
AcDbSymbolTableRecord
100
AcDbLinetypeTableRecord
  2
SLDTANVISIBLE0
 70
    64
  3

 72
    65
 73
     6
 40
12.7
 49
6.35
 74
     0
 49
-1.27
 74
     0
 49
1.27
 74
     0
 49
-1.27
 74
     0
 49
1.27
 74
     0
 49
-1.27
 74
     0
  0
LTYPE
  5
68
100
AcDbSymbolTableRecord
100
AcDbLinetypeTableRecord
  2
_DURCHGEHEND
 70
    64
  3

 72
    65
 73
     0
 40
0.0
  0
LTYPE
  5
69
100
AcDbSymbolTableRecord
100
AcDbLinetypeTableRecord
  2
_GESTRICHELT
 70
    64
  3

 72
    65
 73
     2
 40
10.0
 49
5.0
 74
     0
 49
-5.0
 74
     0
  0
LTYPE
  5
6A
100
AcDbSymbolTableRecord
100
AcDbLinetypeTableRecord
  2
_MITTELLINIE
 70
    64
  3

 72
    65
 73
     4
 40
20.0
 49
10.0
 74
     0
 49
-2.0
 74
     0
 49
5.0
 74
     0
 49
-3.0
 74
     0
  0
LTYPE
  5
6B
100
AcDbSymbolTableRecord
100
AcDbLinetypeTableRecord
  2
_PUNKTIERT
 70
    64
  3

 72
    65
 73
     2
 40
0.25
 49
0.0
 74
     0
 49
-0.25
 74
     0
  0
LTYPE
  5
6C
100
AcDbSymbolTableRecord
100
AcDbLinetypeTableRecord
  2
_STRICHPUNKTIERT
 70
    64
  3

 72
    65
 73
     4
 40
8.0
 49
5.0
 74
     0
 49
-1.0
 74
     0
 49
1.0
 74
     0
 49
-1.0
 74
     0
  0
LTYPE
  5
6D
100
AcDbSymbolTableRecord
100
AcDbLinetypeTableRecord
  2
_STRICH-PUNKT-PUNKT
 70
    64
  3

 72
    65
 73
     6
 40
10.0
 49
5.0
 74
     0
 49
-1.0
 74
     0
 49
1.0
 74
     0
 49
-1.0
 74
     0
 49
1.0
 74
     0
 49
-1.0
 74
     0
  0
LTYPE
  5
6E
100
AcDbSymbolTableRecord
100
AcDbLinetypeTableRecord
  2
_STARTPFEIL
 70
    64
  3

 72
    65
 73
     0
 40
0.0
  0
LTYPE
  5
6F
100
AcDbSymbolTableRecord
100
AcDbLinetypeTableRecord
  2
_ENDPFEIL
 70
    64
  3

 72
    65
 73
     0
 40
0.0
  0
LTYPE
  5
70
100
AcDbSymbolTableRecord
100
AcDbLinetypeTableRecord
  2
_ENDPUNKT
 70
    64
  3

 72
    65
 73
     0
 40
0.0
  0
LTYPE
  5
71
100
AcDbSymbolTableRecord
100
AcDbLinetypeTableRecord
  2
_PFEIL
 70
    64
  3

 72
    65
 73
     0
 40
0.0
  0
LTYPE
  5
72
100
AcDbSymbolTableRecord
100
AcDbLinetypeTableRecord
  2
_STITCHLINE
 70
    64
  3

 72
    65
 73
     2
 40
6.0
 49
3.0
 74
     0
 49
-3.0
 74
     0
  0
LTYPE
  5
73
100
AcDbSymbolTableRecord
100
AcDbLinetypeTableRecord
  2
_MITTELLINIE_2
 70
    64
  3

 72
    65
 73
     4
 40
17.0
 49
10.0
 74
     0
 49
-2.0
 74
     0
 49
3.0
 74
     0
 49
-2.0
 74
     0
  0
LTYPE
  5
74
100
AcDbSymbolTableRecord
100
AcDbLinetypeTableRecord
  2
_VERDECKTE_LINIE
 70
    64
  3

 72
    65
 73
     2
 40
4.0
 49
2.0
 74
     0
 49
-2.0
 74
     0
  0
LTYPE
  5
75
100
AcDbSymbolTableRecord
100
AcDbLinetypeTableRecord
  2
_PHANTOMLINIE
 70
    64
  3

 72
    65
 73
     6
 40
21.0
 49
10.0
 74
     0
 49
-2.0
 74
     0
 49
3.0
 74
     0
 49
-1.0
 74
     0
 49
3.0
 74
     0
 49
-2.0
 74
     0
  0
LTYPE
  5
76
100
AcDbSymbolTableRecord
100
AcDbLinetypeTableRecord
  2
_BRUCHLINIE_1
 70
    64
  3

 72
    65
 73
     0
 40
0.0
  0
LTYPE
  5
77
100
AcDbSymbolTableRecord
100
AcDbLinetypeTableRecord
  2
_BRUCHLINIE_2
 70
    64
  3

 72
    65
 73
     0
 40
0.0
  0
LTYPE
  5
78
100
AcDbSymbolTableRecord
100
AcDbLinetypeTableRecord
  2
_DURCHGEHEND
 70
    64
  3

 72
    65
 73
     0
 40
0.0
  0
LTYPE
  5
79
100
AcDbSymbolTableRecord
100
AcDbLinetypeTableRecord
  2
_GESTRICHELT
 70
    64
  3

 72
    65
 73
     2
 40
10.0
 49
5.0
 74
     0
 49
-5.0
 74
     0
  0
LTYPE
  5
7A
100
AcDbSymbolTableRecord
100
AcDbLinetypeTableRecord
  2
_MITTELLINIE
 70
    64
  3

 72
    65
 73
     4
 40
20.0
 49
10.0
 74
     0
 49
-2.0
 74
     0
 49
5.0
 74
     0
 49
-3.0
 74
     0
  0
LTYPE
  5
7B
100
AcDbSymbolTableRecord
100
AcDbLinetypeTableRecord
  2
_PUNKTIERT
 70
    64
  3

 72
    65
 73
     2
 40
0.25
 49
0.0
 74
     0
 49
-0.25
 74
     0
  0
LTYPE
  5
7C
100
AcDbSymbolTableRecord
100
AcDbLinetypeTableRecord
  2
_STRICHPUNKTIERT
 70
    64
  3

 72
    65
 73
     4
 40
8.0
 49
5.0
 74
     0
 49
-1.0
 74
     0
 49
1.0
 74
     0
 49
-1.0
 74
     0
  0
LTYPE
  5
7D
100
AcDbSymbolTableRecord
100
AcDbLinetypeTableRecord
  2
_STRICH-PUNKT-PUNKT
 70
    64
  3

 72
    65
 73
     6
 40
10.0
 49
5.0
 74
     0
 49
-1.0
 74
     0
 49
1.0
 74
     0
 49
-1.0
 74
     0
 49
1.0
 74
     0
 49
-1.0
 74
     0
  0
LTYPE
  5
7E
100
AcDbSymbolTableRecord
100
AcDbLinetypeTableRecord
  2
_STARTPFEIL
 70
    64
  3

 72
    65
 73
     0
 40
0.0
  0
LTYPE
  5
7F
100
AcDbSymbolTableRecord
100
AcDbLinetypeTableRecord
  2
_ENDPFEIL
 70
    64
  3

 72
    65
 73
     0
 40
0.0
  0
LTYPE
  5
80
100
AcDbSymbolTableRecord
100
AcDbLinetypeTableRecord
  2
_ENDPUNKT
 70
    64
  3

 72
    65
 73
     0
 40
0.0
  0
LTYPE
  5
81
100
AcDbSymbolTableRecord
100
AcDbLinetypeTableRecord
  2
_PFEIL
 70
    64
  3

 72
    65
 73
     0
 40
0.0
  0
LTYPE
  5
82
100
AcDbSymbolTableRecord
100
AcDbLinetypeTableRecord
  2
_STITCHLINE
 70
    64
  3

 72
    65
 73
     2
 40
6.0
 49
3.0
 74
     0
 49
-3.0
 74
     0
  0
LTYPE
  5
83
100
AcDbSymbolTableRecord
100
AcDbLinetypeTableRecord
  2
_MITTELLINIE_2
 70
    64
  3

 72
    65
 73
     4
 40
17.0
 49
10.0
 74
     0
 49
-2.0
 74
     0
 49
3.0
 74
     0
 49
-2.0
 74
     0
  0
LTYPE
  5
84
100
AcDbSymbolTableRecord
100
AcDbLinetypeTableRecord
  2
_VERDECKTE_LINIE
 70
    64
  3

 72
    65
 73
     2
 40
4.0
 49
2.0
 74
     0
 49
-2.0
 74
     0
  0
LTYPE
  5
85
100
AcDbSymbolTableRecord
100
AcDbLinetypeTableRecord
  2
_PHANTOMLINIE
 70
    64
  3

 72
    65
 73
     6
 40
21.0
 49
10.0
 74
     0
 49
-2.0
 74
     0
 49
3.0
 74
     0
 49
-1.0
 74
     0
 49
3.0
 74
     0
 49
-2.0
 74
     0
  0
LTYPE
  5
86
100
AcDbSymbolTableRecord
100
AcDbLinetypeTableRecord
  2
_BRUCHLINIE_1
 70
    64
  3

 72
    65
 73
     0
 40
0.0
  0
LTYPE
  5
87
100
AcDbSymbolTableRecord
100
AcDbLinetypeTableRecord
  2
_BRUCHLINIE_2
 70
    64
  3

 72
    65
 73
     0
 40
0.0
  0
LTYPE
  5
88
100
AcDbSymbolTableRecord
100
AcDbLinetypeTableRecord
  2
_DURCHGEHEND
 70
    64
  3

 72
    65
 73
     0
 40
0.0
  0
LTYPE
  5
89
100
AcDbSymbolTableRecord
100
AcDbLinetypeTableRecord
  2
_GESTRICHELT
 70
    64
  3

 72
    65
 73
     2
 40
10.0
 49
5.0
 74
     0
 49
-5.0
 74
     0
  0
LTYPE
  5
8A
100
AcDbSymbolTableRecord
100
AcDbLinetypeTableRecord
  2
_MITTELLINIE
 70
    64
  3

 72
    65
 73
     4
 40
20.0
 49
10.0
 74
     0
 49
-2.0
 74
     0
 49
5.0
 74
     0
 49
-3.0
 74
     0
  0
LTYPE
  5
8B
100
AcDbSymbolTableRecord
100
AcDbLinetypeTableRecord
  2
_PUNKTIERT
 70
    64
  3

 72
    65
 73
     2
 40
0.25
 49
0.0
 74
     0
 49
-0.25
 74
     0
  0
LTYPE
  5
8C
100
AcDbSymbolTableRecord
100
AcDbLinetypeTableRecord
  2
_STRICHPUNKTIERT
 70
    64
  3

 72
    65
 73
     4
 40
8.0
 49
5.0
 74
     0
 49
-1.0
 74
     0
 49
1.0
 74
     0
 49
-1.0
 74
     0
  0
LTYPE
  5
8D
100
AcDbSymbolTableRecord
100
AcDbLinetypeTableRecord
  2
_STRICH-PUNKT-PUNKT
 70
    64
  3

 72
    65
 73
     6
 40
10.0
 49
5.0
 74
     0
 49
-1.0
 74
     0
 49
1.0
 74
     0
 49
-1.0
 74
     0
 49
1.0
 74
     0
 49
-1.0
 74
     0
  0
LTYPE
  5
8E
100
AcDbSymbolTableRecord
100
AcDbLinetypeTableRecord
  2
_STARTPFEIL
 70
    64
  3

 72
    65
 73
     0
 40
0.0
  0
LTYPE
  5
8F
100
AcDbSymbolTableRecord
100
AcDbLinetypeTableRecord
  2
_ENDPFEIL
 70
    64
  3

 72
    65
 73
     0
 40
0.0
  0
LTYPE
  5
90
100
AcDbSymbolTableRecord
100
AcDbLinetypeTableRecord
  2
_ENDPUNKT
 70
    64
  3

 72
    65
 73
     0
 40
0.0
  0
LTYPE
  5
91
100
AcDbSymbolTableRecord
100
AcDbLinetypeTableRecord
  2
_PFEIL
 70
    64
  3

 72
    65
 73
     0
 40
0.0
  0
LTYPE
  5
92
100
AcDbSymbolTableRecord
100
AcDbLinetypeTableRecord
  2
_STITCHLINE
 70
    64
  3

 72
    65
 73
     2
 40
6.0
 49
3.0
 74
     0
 49
-3.0
 74
     0
  0
LTYPE
  5
93
100
AcDbSymbolTableRecord
100
AcDbLinetypeTableRecord
  2
_MITTELLINIE_2
 70
    64
  3

 72
    65
 73
     4
 40
17.0
 49
10.0
 74
     0
 49
-2.0
 74
     0
 49
3.0
 74
     0
 49
-2.0
 74
     0
  0
LTYPE
  5
94
100
AcDbSymbolTableRecord
100
AcDbLinetypeTableRecord
  2
_VERDECKTE_LINIE
 70
    64
  3

 72
    65
 73
     2
 40
4.0
 49
2.0
 74
     0
 49
-2.0
 74
     0
  0
LTYPE
  5
95
100
AcDbSymbolTableRecord
100
AcDbLinetypeTableRecord
  2
_PHANTOMLINIE
 70
    64
  3

 72
    65
 73
     6
 40
21.0
 49
10.0
 74
     0
 49
-2.0
 74
     0
 49
3.0
 74
     0
 49
-1.0
 74
     0
 49
3.0
 74
     0
 49
-2.0
 74
     0
  0
LTYPE
  5
96
100
AcDbSymbolTableRecord
100
AcDbLinetypeTableRecord
  2
_BRUCHLINIE_1
 70
    64
  3

 72
    65
 73
     0
 40
0.0
  0
LTYPE
  5
97
100
AcDbSymbolTableRecord
100
AcDbLinetypeTableRecord
  2
_BRUCHLINIE_2
 70
    64
  3

 72
    65
 73
     0
 40
0.0
  0
LTYPE
  5
98
100
AcDbSymbolTableRecord
100
AcDbLinetypeTableRecord
  2
_DURCHGEHEND
 70
    64
  3

 72
    65
 73
     0
 40
0.0
  0
LTYPE
  5
99
100
AcDbSymbolTableRecord
100
AcDbLinetypeTableRecord
  2
_GESTRICHELT
 70
    64
  3

 72
    65
 73
     2
 40
10.0
 49
5.0
 74
     0
 49
-5.0
 74
     0
  0
LTYPE
  5
9A
100
AcDbSymbolTableRecord
100
AcDbLinetypeTableRecord
  2
_MITTELLINIE
 70
    64
  3

 72
    65
 73
     4
 40
20.0
 49
10.0
 74
     0
 49
-2.0
 74
     0
 49
5.0
 74
     0
 49
-3.0
 74
     0
  0
LTYPE
  5
9B
100
AcDbSymbolTableRecord
100
AcDbLinetypeTableRecord
  2
_PUNKTIERT
 70
    64
  3

 72
    65
 73
     2
 40
0.25
 49
0.0
 74
     0
 49
-0.25
 74
     0
  0
LTYPE
  5
9C
100
AcDbSymbolTableRecord
100
AcDbLinetypeTableRecord
  2
_STRICHPUNKTIERT
 70
    64
  3

 72
    65
 73
     4
 40
8.0
 49
5.0
 74
     0
 49
-1.0
 74
     0
 49
1.0
 74
     0
 49
-1.0
 74
     0
  0
LTYPE
  5
9D
100
AcDbSymbolTableRecord
100
AcDbLinetypeTableRecord
  2
_STRICH-PUNKT-PUNKT
 70
    64
  3

 72
    65
 73
     6
 40
10.0
 49
5.0
 74
     0
 49
-1.0
 74
     0
 49
1.0
 74
     0
 49
-1.0
 74
     0
 49
1.0
 74
     0
 49
-1.0
 74
     0
  0
LTYPE
  5
9E
100
AcDbSymbolTableRecord
100
AcDbLinetypeTableRecord
  2
_STARTPFEIL
 70
    64
  3

 72
    65
 73
     0
 40
0.0
  0
LTYPE
  5
9F
100
AcDbSymbolTableRecord
100
AcDbLinetypeTableRecord
  2
_ENDPFEIL
 70
    64
  3

 72
    65
 73
     0
 40
0.0
  0
LTYPE
  5
A0
100
AcDbSymbolTableRecord
100
AcDbLinetypeTableRecord
  2
_ENDPUNKT
 70
    64
  3

 72
    65
 73
     0
 40
0.0
  0
LTYPE
  5
A1
100
AcDbSymbolTableRecord
100
AcDbLinetypeTableRecord
  2
_PFEIL
 70
    64
  3

 72
    65
 73
     0
 40
0.0
  0
LTYPE
  5
A2
100
AcDbSymbolTableRecord
100
AcDbLinetypeTableRecord
  2
_STITCHLINE
 70
    64
  3

 72
    65
 73
     2
 40
6.0
 49
3.0
 74
     0
 49
-3.0
 74
     0
  0
LTYPE
  5
A3
100
AcDbSymbolTableRecord
100
AcDbLinetypeTableRecord
  2
_MITTELLINIE_2
 70
    64
  3

 72
    65
 73
     4
 40
17.0
 49
10.0
 74
     0
 49
-2.0
 74
     0
 49
3.0
 74
     0
 49
-2.0
 74
     0
  0
LTYPE
  5
A4
100
AcDbSymbolTableRecord
100
AcDbLinetypeTableRecord
  2
_VERDECKTE_LINIE
 70
    64
  3

 72
    65
 73
     2
 40
4.0
 49
2.0
 74
     0
 49
-2.0
 74
     0
  0
LTYPE
  5
A5
100
AcDbSymbolTableRecord
100
AcDbLinetypeTableRecord
  2
_PHANTOMLINIE
 70
    64
  3

 72
    65
 73
     6
 40
21.0
 49
10.0
 74
     0
 49
-2.0
 74
     0
 49
3.0
 74
     0
 49
-1.0
 74
     0
 49
3.0
 74
     0
 49
-2.0
 74
     0
  0
LTYPE
  5
A6
100
AcDbSymbolTableRecord
100
AcDbLinetypeTableRecord
  2
_BRUCHLINIE_1
 70
    64
  3

 72
    65
 73
     0
 40
0.0
  0
LTYPE
  5
A7
100
AcDbSymbolTableRecord
100
AcDbLinetypeTableRecord
  2
_BRUCHLINIE_2
 70
    64
  3

 72
    65
 73
     0
 40
0.0
  0
LTYPE
  5
A8
100
AcDbSymbolTableRecord
100
AcDbLinetypeTableRecord
  2
_DURCHGEHEND
 70
    64
  3

 72
    65
 73
     0
 40
0.0
  0
LTYPE
  5
A9
100
AcDbSymbolTableRecord
100
AcDbLinetypeTableRecord
  2
_GESTRICHELT
 70
    64
  3

 72
    65
 73
     2
 40
10.0
 49
5.0
 74
     0
 49
-5.0
 74
     0
  0
LTYPE
  5
AA
100
AcDbSymbolTableRecord
100
AcDbLinetypeTableRecord
  2
_MITTELLINIE
 70
    64
  3

 72
    65
 73
     4
 40
20.0
 49
10.0
 74
     0
 49
-2.0
 74
     0
 49
5.0
 74
     0
 49
-3.0
 74
     0
  0
LTYPE
  5
AB
100
AcDbSymbolTableRecord
100
AcDbLinetypeTableRecord
  2
_PUNKTIERT
 70
    64
  3

 72
    65
 73
     2
 40
0.25
 49
0.0
 74
     0
 49
-0.25
 74
     0
  0
LTYPE
  5
AC
100
AcDbSymbolTableRecord
100
AcDbLinetypeTableRecord
  2
_STRICHPUNKTIERT
 70
    64
  3

 72
    65
 73
     4
 40
8.0
 49
5.0
 74
     0
 49
-1.0
 74
     0
 49
1.0
 74
     0
 49
-1.0
 74
     0
  0
LTYPE
  5
AD
100
AcDbSymbolTableRecord
100
AcDbLinetypeTableRecord
  2
_STRICH-PUNKT-PUNKT
 70
    64
  3

 72
    65
 73
     6
 40
10.0
 49
5.0
 74
     0
 49
-1.0
 74
     0
 49
1.0
 74
     0
 49
-1.0
 74
     0
 49
1.0
 74
     0
 49
-1.0
 74
     0
  0
LTYPE
  5
AE
100
AcDbSymbolTableRecord
100
AcDbLinetypeTableRecord
  2
_STARTPFEIL
 70
    64
  3

 72
    65
 73
     0
 40
0.0
  0
LTYPE
  5
AF
100
AcDbSymbolTableRecord
100
AcDbLinetypeTableRecord
  2
_ENDPFEIL
 70
    64
  3

 72
    65
 73
     0
 40
0.0
  0
LTYPE
  5
B0
100
AcDbSymbolTableRecord
100
AcDbLinetypeTableRecord
  2
_ENDPUNKT
 70
    64
  3

 72
    65
 73
     0
 40
0.0
  0
LTYPE
  5
B1
100
AcDbSymbolTableRecord
100
AcDbLinetypeTableRecord
  2
_PFEIL
 70
    64
  3

 72
    65
 73
     0
 40
0.0
  0
LTYPE
  5
B2
100
AcDbSymbolTableRecord
100
AcDbLinetypeTableRecord
  2
_STITCHLINE
 70
    64
  3

 72
    65
 73
     2
 40
6.0
 49
3.0
 74
     0
 49
-3.0
 74
     0
  0
LTYPE
  5
B3
100
AcDbSymbolTableRecord
100
AcDbLinetypeTableRecord
  2
_MITTELLINIE_2
 70
    64
  3

 72
    65
 73
     4
 40
17.0
 49
10.0
 74
     0
 49
-2.0
 74
     0
 49
3.0
 74
     0
 49
-2.0
 74
     0
  0
LTYPE
  5
B4
100
AcDbSymbolTableRecord
100
AcDbLinetypeTableRecord
  2
_VERDECKTE_LINIE
 70
    64
  3

 72
    65
 73
     2
 40
4.0
 49
2.0
 74
     0
 49
-2.0
 74
     0
  0
LTYPE
  5
B5
100
AcDbSymbolTableRecord
100
AcDbLinetypeTableRecord
  2
_PHANTOMLINIE
 70
    64
  3

 72
    65
 73
     6
 40
21.0
 49
10.0
 74
     0
 49
-2.0
 74
     0
 49
3.0
 74
     0
 49
-1.0
 74
     0
 49
3.0
 74
     0
 49
-2.0
 74
     0
  0
LTYPE
  5
B6
100
AcDbSymbolTableRecord
100
AcDbLinetypeTableRecord
  2
_BRUCHLINIE_1
 70
    64
  3

 72
    65
 73
     0
 40
0.0
  0
LTYPE
  5
B7
100
AcDbSymbolTableRecord
100
AcDbLinetypeTableRecord
  2
_BRUCHLINIE_2
 70
    64
  3

 72
    65
 73
     0
 40
0.0
  0
LTYPE
  5
B8
100
AcDbSymbolTableRecord
100
AcDbLinetypeTableRecord
  2
4_2-0_7-0_7-0_7
 70
    64
  3

 72
    65
 73
     4
 40
6.35
 49
4.233334
 74
     0
 49
-0.705556
 74
     0
 49
0.705556
 74
     0
 49
-0.705556
 74
     0
  0
LTYPE
  5
B9
100
AcDbSymbolTableRecord
100
AcDbLinetypeTableRecord
  2
0_7-0_7
 70
    64
  3

 72
    65
 73
     2
 40
1.411111
 49
0.705556
 74
     0
 49
-0.705556
 74
     0
  0
LTYPE
  5
BA
100
AcDbSymbolTableRecord
100
AcDbLinetypeTableRecord
  2
_DURCHGEHEND
 70
    64
  3

 72
    65
 73
     0
 40
0.0
  0
LTYPE
  5
BB
100
AcDbSymbolTableRecord
100
AcDbLinetypeTableRecord
  2
_GESTRICHELT
 70
    64
  3

 72
    65
 73
     2
 40
10.0
 49
5.0
 74
     0
 49
-5.0
 74
     0
  0
LTYPE
  5
BC
100
AcDbSymbolTableRecord
100
AcDbLinetypeTableRecord
  2
_MITTELLINIE
 70
    64
  3

 72
    65
 73
     4
 40
20.0
 49
10.0
 74
     0
 49
-2.0
 74
     0
 49
5.0
 74
     0
 49
-3.0
 74
     0
  0
LTYPE
  5
BD
100
AcDbSymbolTableRecord
100
AcDbLinetypeTableRecord
  2
_PUNKTIERT
 70
    64
  3

 72
    65
 73
     2
 40
0.25
 49
0.0
 74
     0
 49
-0.25
 74
     0
  0
LTYPE
  5
BE
100
AcDbSymbolTableRecord
100
AcDbLinetypeTableRecord
  2
_STRICHPUNKTIERT
 70
    64
  3

 72
    65
 73
     4
 40
8.0
 49
5.0
 74
     0
 49
-1.0
 74
     0
 49
1.0
 74
     0
 49
-1.0
 74
     0
  0
LTYPE
  5
BF
100
AcDbSymbolTableRecord
100
AcDbLinetypeTableRecord
  2
_STRICH-PUNKT-PUNKT
 70
    64
  3

 72
    65
 73
     6
 40
10.0
 49
5.0
 74
     0
 49
-1.0
 74
     0
 49
1.0
 74
     0
 49
-1.0
 74
     0
 49
1.0
 74
     0
 49
-1.0
 74
     0
  0
LTYPE
  5
C0
100
AcDbSymbolTableRecord
100
AcDbLinetypeTableRecord
  2
_STARTPFEIL
 70
    64
  3

 72
    65
 73
     0
 40
0.0
  0
LTYPE
  5
C1
100
AcDbSymbolTableRecord
100
AcDbLinetypeTableRecord
  2
_ENDPFEIL
 70
    64
  3

 72
    65
 73
     0
 40
0.0
  0
LTYPE
  5
C2
100
AcDbSymbolTableRecord
100
AcDbLinetypeTableRecord
  2
_ENDPUNKT
 70
    64
  3

 72
    65
 73
     0
 40
0.0
  0
LTYPE
  5
C3
100
AcDbSymbolTableRecord
100
AcDbLinetypeTableRecord
  2
_PFEIL
 70
    64
  3

 72
    65
 73
     0
 40
0.0
  0
LTYPE
  5
C4
100
AcDbSymbolTableRecord
100
AcDbLinetypeTableRecord
  2
_STITCHLINE
 70
    64
  3

 72
    65
 73
     2
 40
6.0
 49
3.0
 74
     0
 49
-3.0
 74
     0
  0
LTYPE
  5
C5
100
AcDbSymbolTableRecord
100
AcDbLinetypeTableRecord
  2
_MITTELLINIE_2
 70
    64
  3

 72
    65
 73
     4
 40
17.0
 49
10.0
 74
     0
 49
-2.0
 74
     0
 49
3.0
 74
     0
 49
-2.0
 74
     0
  0
LTYPE
  5
C6
100
AcDbSymbolTableRecord
100
AcDbLinetypeTableRecord
  2
_VERDECKTE_LINIE
 70
    64
  3

 72
    65
 73
     2
 40
4.0
 49
2.0
 74
     0
 49
-2.0
 74
     0
  0
LTYPE
  5
C7
100
AcDbSymbolTableRecord
100
AcDbLinetypeTableRecord
  2
_PHANTOMLINIE
 70
    64
  3

 72
    65
 73
     6
 40
21.0
 49
10.0
 74
     0
 49
-2.0
 74
     0
 49
3.0
 74
     0
 49
-1.0
 74
     0
 49
3.0
 74
     0
 49
-2.0
 74
     0
  0
LTYPE
  5
C8
100
AcDbSymbolTableRecord
100
AcDbLinetypeTableRecord
  2
_BRUCHLINIE_1
 70
    64
  3

 72
    65
 73
     0
 40
0.0
  0
LTYPE
  5
C9
100
AcDbSymbolTableRecord
100
AcDbLinetypeTableRecord
  2
_BRUCHLINIE_2
 70
    64
  3

 72
    65
 73
     0
 40
0.0
  0
LTYPE
  5
CA
100
AcDbSymbolTableRecord
100
AcDbLinetypeTableRecord
  2
_DURCHGEHEND
 70
    64
  3

 72
    65
 73
     0
 40
0.0
  0
LTYPE
  5
CB
100
AcDbSymbolTableRecord
100
AcDbLinetypeTableRecord
  2
_GESTRICHELT
 70
    64
  3

 72
    65
 73
     2
 40
10.0
 49
5.0
 74
     0
 49
-5.0
 74
     0
  0
LTYPE
  5
CC
100
AcDbSymbolTableRecord
100
AcDbLinetypeTableRecord
  2
_MITTELLINIE
 70
    64
  3

 72
    65
 73
     4
 40
20.0
 49
10.0
 74
     0
 49
-2.0
 74
     0
 49
5.0
 74
     0
 49
-3.0
 74
     0
  0
LTYPE
  5
CD
100
AcDbSymbolTableRecord
100
AcDbLinetypeTableRecord
  2
_PUNKTIERT
 70
    64
  3

 72
    65
 73
     2
 40
0.25
 49
0.0
 74
     0
 49
-0.25
 74
     0
  0
LTYPE
  5
CE
100
AcDbSymbolTableRecord
100
AcDbLinetypeTableRecord
  2
_STRICHPUNKTIERT
 70
    64
  3

 72
    65
 73
     4
 40
8.0
 49
5.0
 74
     0
 49
-1.0
 74
     0
 49
1.0
 74
     0
 49
-1.0
 74
     0
  0
LTYPE
  5
CF
100
AcDbSymbolTableRecord
100
AcDbLinetypeTableRecord
  2
_STRICH-PUNKT-PUNKT
 70
    64
  3

 72
    65
 73
     6
 40
10.0
 49
5.0
 74
     0
 49
-1.0
 74
     0
 49
1.0
 74
     0
 49
-1.0
 74
     0
 49
1.0
 74
     0
 49
-1.0
 74
     0
  0
LTYPE
  5
D0
100
AcDbSymbolTableRecord
100
AcDbLinetypeTableRecord
  2
_STARTPFEIL
 70
    64
  3

 72
    65
 73
     0
 40
0.0
  0
LTYPE
  5
D1
100
AcDbSymbolTableRecord
100
AcDbLinetypeTableRecord
  2
_ENDPFEIL
 70
    64
  3

 72
    65
 73
     0
 40
0.0
  0
LTYPE
  5
D2
100
AcDbSymbolTableRecord
100
AcDbLinetypeTableRecord
  2
_ENDPUNKT
 70
    64
  3

 72
    65
 73
     0
 40
0.0
  0
LTYPE
  5
D3
100
AcDbSymbolTableRecord
100
AcDbLinetypeTableRecord
  2
_PFEIL
 70
    64
  3

 72
    65
 73
     0
 40
0.0
  0
LTYPE
  5
D4
100
AcDbSymbolTableRecord
100
AcDbLinetypeTableRecord
  2
_STITCHLINE
 70
    64
  3

 72
    65
 73
     2
 40
6.0
 49
3.0
 74
     0
 49
-3.0
 74
     0
  0
LTYPE
  5
D5
100
AcDbSymbolTableRecord
100
AcDbLinetypeTableRecord
  2
_MITTELLINIE_2
 70
    64
  3

 72
    65
 73
     4
 40
17.0
 49
10.0
 74
     0
 49
-2.0
 74
     0
 49
3.0
 74
     0
 49
-2.0
 74
     0
  0
LTYPE
  5
D6
100
AcDbSymbolTableRecord
100
AcDbLinetypeTableRecord
  2
_VERDECKTE_LINIE
 70
    64
  3

 72
    65
 73
     2
 40
4.0
 49
2.0
 74
     0
 49
-2.0
 74
     0
  0
LTYPE
  5
D7
100
AcDbSymbolTableRecord
100
AcDbLinetypeTableRecord
  2
_PHANTOMLINIE
 70
    64
  3

 72
    65
 73
     6
 40
21.0
 49
10.0
 74
     0
 49
-2.0
 74
     0
 49
3.0
 74
     0
 49
-1.0
 74
     0
 49
3.0
 74
     0
 49
-2.0
 74
     0
  0
LTYPE
  5
D8
100
AcDbSymbolTableRecord
100
AcDbLinetypeTableRecord
  2
_BRUCHLINIE_1
 70
    64
  3

 72
    65
 73
     0
 40
0.0
  0
LTYPE
  5
D9
100
AcDbSymbolTableRecord
100
AcDbLinetypeTableRecord
  2
_BRUCHLINIE_2
 70
    64
  3

 72
    65
 73
     0
 40
0.0
  0
LTYPE
  5
DA
100
AcDbSymbolTableRecord
100
AcDbLinetypeTableRecord
  2
SLDUSER-DASHED0
 70
    64
  3

 72
    65
 73
     2
 40
1.905
 49
1.27
 74
     0
 49
-0.635
 74
     0
  0
LTYPE
  5
DB
100
AcDbSymbolTableRecord
100
AcDbLinetypeTableRecord
  2
STRICHPUNKTIERT-1
 70
    64
  3

 72
    65
 73
     4
 40
8.0
 49
5.0
 74
     0
 49
-1.0
 74
     0
 49
1.0
 74
     0
 49
-1.0
 74
     0
  0
ENDTAB
  0
TABLE
  2
LAYER
  5
2
100
AcDbSymbolTable
 70
     7
  0
LAYER
  5
14
100
AcDbSymbolTableRecord
100
AcDbLayerTableRecord
  2
0
 70
     0
 62
     7
  6
Continuous
290
     1
370
    -3
390
1D
  0
LAYER
  5
DC
100
AcDbSymbolTableRecord
100
AcDbLayerTableRecord
  2
STANDARDEBENE
 70
     0
 62
     7
  6
Continuous
290
     1
370
    -3
390
1D
  0
LAYER
  5
DD
100
AcDbSymbolTableRecord
100
AcDbLayerTableRecord
  2
ARMATUR
 70
     0
 62
     7
  6
Continuous
290
     1
370
    -3
390
1D
  0
LAYER
  5
DE
100
AcDbSymbolTableRecord
100
AcDbLayerTableRecord
  2
ACHSEN
 70
     0
 62
     7
  6
Continuous
290
     1
370
    -3
390
1D
  0
LAYER
  5
DF
100
AcDbSymbolTableRecord
100
AcDbLayerTableRecord
  2
BEMASSUNG
 70
     0
 62
     7
  6
Continuous
290
     1
370
    -3
390
1D
  0
LAYER
  5
E0
100
AcDbSymbolTableRecord
100
AcDbLayerTableRecord
  2
WAND
 70
     0
 62
     7
  6
Continuous
290
     1
370
    -3
390
1D
  0
LAYER
  5
E1
100
AcDbSymbolTableRecord
100
AcDbLayerTableRecord
  2
ANSICHT
 70
     0
 62
     7
  6
Continuous
290
     1
370
    -3
390
1D
  0
ENDTAB
  0
TABLE
  2
STYLE
  5
3
100
AcDbSymbolTable
 70
     1
  0
STYLE
  5
17
100
AcDbSymbolTableRecord
100
AcDbTextStyleTableRecord
  2
Standard
 70
     0
 40
0.0
 41
1.0
 50
0.0
 71
     0
 42
0.0
  3
txt
  4

  0
ENDTAB
  0
TABLE
  2
VIEW
  5
5
100
AcDbSymbolTable
 70
     0
  0
ENDTAB
  0
TABLE
  2
UCS
  5
6
100
AcDbSymbolTable
 70
     1
  0
UCS
  5
24
100
AcDbSymbolTableRecord
100
AcDbUCSTableRecord
  2
ISODRAW_6_2
 70
     0
 10
0.0
 20
0.0
 30
0.0
 11
0.0
 21
1.0
 31
0.0
 12
0.0
 22
0.0
 32
1.0
 79
     0
146
0.0
  0
ENDTAB
  0
TABLE
  2
APPID
  5
8
100
AcDbSymbolTable
 70
     1
  0
APPID
  5
16
100
AcDbSymbolTableRecord
100
AcDbRegAppTableRecord
  2
ACAD
 70
     0
  0
ENDTAB
  0
TABLE
  2
DIMSTYLE
  5
9
100
AcDbSymbolTable
 70
     1
100
AcDbDimStyleTable
 71
     0
  0
DIMSTYLE
105
18
100
AcDbSymbolTableRecord
100
AcDbDimStyleTableRecord
  2
Standard
 70
     0
  3

  4

 40
1.0
 41
0.18
 42
0.0625
 43
0.38
 44
0.18
 45
0.0
 46
0.0
 47
0.0
 48
0.0
 71
     0
 72
     0
 73
     1
 74
     1
 75
     0
 76
     0
 77
     0
 78
     0
 79
     0
140
0.18
141
0.09
142
0.0
143
25.4
144
1.0
145
0.0
146
1.0
147
0.09
148
0.0
170
     0
171
     2
172
     0
173
     0
174
     0
175
     0
176
     0
177
     0
178
     0
179
     0
271
     4
272
     4
273
     2
274
     2
275
     0
276
     0
277
     2
278
    46
279
     0
280
     0
281
     0
282
     0
283
     1
284
     0
285
     0
286
     0
288
     0
289
     3
340
17
341
0
342
0
343
0
344
0
371
    -2
372
    -2
  0
ENDTAB
  0
TABLE
  2
BLOCK_RECORD
  5
1
100
AcDbSymbolTable
 70
     0
  0
BLOCK_RECORD
  5
A
100
AcDbSymbolTableRecord
100
AcDbBlockTableRecord
  2
*MODEL_SPACE
340
20
  0
BLOCK_RECORD
  5
B
100
AcDbSymbolTableRecord
100
AcDbBlockTableRecord
  2
*PAPER_SPACE
340
21
  0
ENDTAB
  0
ENDSEC
  0
SECTION
  2
BLOCKS
  0
BLOCK
  5
D
100
AcDbEntity
  8
0
390
0
100
AcDbBlockBegin
  2
*MODEL_SPACE
 70
     0
 10
0.0
 20
0.0
 30
0.0
  3
*MODEL_SPACE
  1

  0
ENDBLK
  5
E
100
AcDbEntity
  8
0
390
0
100
AcDbBlockEnd
  0
BLOCK
  5
F
100
AcDbEntity
 67
     1
  8
0
390
0
100
AcDbBlockBegin
  2
*PAPER_SPACE
 70
     0
 10
0.0
 20
0.0
 30
0.0
  3
*PAPER_SPACE
  1

  0
ENDBLK
  5
10
100
AcDbEntity
 67
     1
  8
0
390
0
100
AcDbBlockEnd
  0
ENDSEC
  0
SECTION
  2
ENTITIES
  0
LINE
  5
E2
100
AcDbEntity
  8
ARMATUR
390
0
  6
DURCHGEHEND
 62
     7
100
AcDbLine
 10
154.237411
 20
131.268829
 30
0.0
 11
154.237411
 21
130.818817
 31
0.0
  0
LINE
  5
E3
100
AcDbEntity
  8
ARMATUR
390
0
  6
DURCHGEHEND
 62
     7
100
AcDbLine
 10
142.987411
 20
130.818817
 30
0.0
 11
142.987411
 21
131.268829
 31
0.0
  0
LINE
  5
E4
100
AcDbEntity
  8
ARMATUR
390
0
  6
DURCHGEHEND
 62
     7
100
AcDbLine
 10
142.562439
 20
131.268829
 30
0.0
 11
142.562439
 21
132.018829
 31
0.0
  0
LINE
  5
E5
100
AcDbEntity
  8
ARMATUR
390
0
  6
DURCHGEHEND
 62
     7
100
AcDbLine
 10
154.562454
 20
132.018829
 30
0.0
 11
154.562454
 21
131.268829
 31
0.0
  0
LINE
  5
E6
100
AcDbEntity
  8
ARMATUR
390
0
  6
DURCHGEHEND
 62
     7
100
AcDbLine
 10
153.612411
 20
126.091805
 30
0.0
 11
153.612411
 21
120.091805
 31
0.0
  0
POLYLINE
  5
E7
100
AcDbEntity
  8
ARMATUR
390
0
  6
DURCHGEHEND
 62
     7
100
AcDb3dPolyline
 66
     1
 10
0.0
 20
0.0
 30
0.0
 70
    12
 75
     5
  0
VERTEX
  5
E8
100
AcDbEntity
  8
0
390
0
100
AcDbVertex
100
AcDb3dPolylineVertex
 10
143.610321
 20
120.092445
 30
0.0
 70
    48
  0
VERTEX
  5
E9
100
AcDbEntity
  8
0
390
0
100
AcDbVertex
100
AcDb3dPolylineVertex
 10
143.610321
 20
120.092445
 30
0.0
 70
    40
  0
VERTEX
  5
EA
100
AcDbEntity
  8
0
390
0
100
AcDbVertex
100
AcDb3dPolylineVertex
 10
143.611816
 20
120.113564
 30
0.0
 70
    40
  0
VERTEX
  5
EB
100
AcDbEntity
  8
0
390
0
100
AcDbVertex
100
AcDb3dPolylineVertex
 10
143.610321
 20
120.092445
 30
0.0
 70
    48
  0
VERTEX
  5
EC
100
AcDbEntity
  8
0
390
0
100
AcDbVertex
100
AcDb3dPolylineVertex
 10
143.611816
 20
120.113564
 30
0.0
 70
    48
  0
VERTEX
  5
ED
100
AcDbEntity
  8
0
390
0
100
AcDbVertex
100
AcDb3dPolylineVertex
 10
143.611816
 20
120.113564
 30
0.0
 70
    48
  0
VERTEX
  5
EE
100
AcDbEntity
  8
0
390
0
100
AcDbVertex
100
AcDb3dPolylineVertex
 10
143.594925
 20
120.184822
 30
0.0
 70
    40
  0
VERTEX
  5
EF
100
AcDbEntity
  8
0
390
0
100
AcDbVertex
100
AcDb3dPolylineVertex
 10
143.611816
 20
120.113564
 30
0.0
 70
    48
  0
VERTEX
  5
F0
100
AcDbEntity
  8
0
390
0
100
AcDbVertex
100
AcDb3dPolylineVertex
 10
143.594925
 20
120.184822
 30
0.0
 70
    48
  0
VERTEX
  5
F1
100
AcDbEntity
  8
0
390
0
100
AcDbVertex
100
AcDb3dPolylineVertex
 10
143.594925
 20
120.184822
 30
0.0
 70
    48
  0
VERTEX
  5
F2
100
AcDbEntity
  8
0
390
0
100
AcDbVertex
100
AcDb3dPolylineVertex
 10
143.551208
 20
120.256416
 30
0.0
 70
    40
  0
VERTEX
  5
F3
100
AcDbEntity
  8
0
390
0
100
AcDbVertex
100
AcDb3dPolylineVertex
 10
143.594925
 20
120.184822
 30
0.0
 70
    48
  0
VERTEX
  5
F4
100
AcDbEntity
  8
0
390
0
100
AcDbVertex
100
AcDb3dPolylineVertex
 10
143.551208
 20
120.256416
 30
0.0
 70
    48
  0
VERTEX
  5
F5
100
AcDbEntity
  8
0
390
0
100
AcDbVertex
100
AcDb3dPolylineVertex
 10
143.551208
 20
120.256416
 30
0.0
 70
    48
  0
VERTEX
  5
F6
100
AcDbEntity
  8
0
390
0
100
AcDbVertex
100
AcDb3dPolylineVertex
 10
143.480774
 20
120.312569
 30
0.0
 70
    40
  0
VERTEX
  5
F7
100
AcDbEntity
  8
0
390
0
100
AcDbVertex
100
AcDb3dPolylineVertex
 10
143.551208
 20
120.256416
 30
0.0
 70
    48
  0
VERTEX
  5
F8
100
AcDbEntity
  8
0
390
0
100
AcDbVertex
100
AcDb3dPolylineVertex
 10
143.480774
 20
120.312569
 30
0.0
 70
    48
  0
VERTEX
  5
F9
100
AcDbEntity
  8
0
390
0
100
AcDbVertex
100
AcDb3dPolylineVertex
 10
143.480774
 20
120.312569
 30
0.0
 70
    48
  0
VERTEX
  5
FA
100
AcDbEntity
  8
0
390
0
100
AcDbVertex
100
AcDb3dPolylineVertex
 10
143.39296
 20
120.34034
 30
0.0
 70
    40
  0
VERTEX
  5
FB
100
AcDbEntity
  8
0
390
0
100
AcDbVertex
100
AcDb3dPolylineVertex
 10
143.480774
 20
120.312569
 30
0.0
 70
    48
  0
VERTEX
  5
FC
100
AcDbEntity
  8
0
390
0
100
AcDbVertex
100
AcDb3dPolylineVertex
 10
143.39296
 20
120.34034
 30
0.0
 70
    48
  0
VERTEX
  5
FD
100
AcDbEntity
  8
0
390
0
100
AcDbVertex
100
AcDb3dPolylineVertex
 10
143.39296
 20
120.34034
 30
0.0
 70
    48
  0
VERTEX
  5
FE
100
AcDbEntity
  8
0
390
0
100
AcDbVertex
100
AcDb3dPolylineVertex
 10
143.351746
 20
120.339363
 30
0.0
 70
    40
  0
VERTEX
  5
FF
100
AcDbEntity
  8
0
390
0
100
AcDbVertex
100
AcDb3dPolylineVertex
 10
143.39296
 20
120.34034
 30
0.0
 70
    48
  0
VERTEX
  5
100
100
AcDbEntity
  8
0
390
0
100
AcDbVertex
100
AcDb3dPolylineVertex
 10
143.351746
 20
120.339363
 30
0.0
 70
    48
  0
VERTEX
  5
101
100
AcDbEntity
  8
0
390
0
100
AcDbVertex
100
AcDb3dPolylineVertex
 10
143.351746
 20
120.339363
 30
0.0
 70
    48
  0
SEQEND
  5
102
100
AcDbEntity
  8
0
390
0
  0
POLYLINE
  5
103
100
AcDbEntity
  8
ARMATUR
390
0
  6
DURCHGEHEND
 62
     7
100
AcDb3dPolyline
 66
     1
 10
0.0
 20
0.0
 30
0.0
 70
    12
 75
     5
  0
VERTEX
  5
104
100
AcDbEntity
  8
0
390
0
100
AcDbVertex
100
AcDb3dPolylineVertex
 10
143.37175
 20
125.8433
 30
0.0
 70
    48
  0
VERTEX
  5
105
100
AcDbEntity
  8
0
390
0
100
AcDbVertex
100
AcDb3dPolylineVertex
 10
143.37175
 20
125.8433
 30
0.0
 70
    40
  0
VERTEX
  5
106
100
AcDbEntity
  8
0
390
0
100
AcDbVertex
100
AcDb3dPolylineVertex
 10
143.379852
 20
125.842354
 30
0.0
 70
    40
  0
VERTEX
  5
107
100
AcDbEntity
  8
0
390
0
100
AcDbVertex
100
AcDb3dPolylineVertex
 10
143.37175
 20
125.8433
 30
0.0
 70
    48
  0
VERTEX
  5
108
100
AcDbEntity
  8
0
390
0
100
AcDbVertex
100
AcDb3dPolylineVertex
 10
143.379852
 20
125.842354
 30
0.0
 70
    48
  0
VERTEX
  5
109
100
AcDbEntity
  8
0
390
0
100
AcDbVertex
100
AcDb3dPolylineVertex
 10
143.379852
 20
125.842354
 30
0.0
 70
    48
  0
VERTEX
  5
10A
100
AcDbEntity
  8
0
390
0
100
AcDbVertex
100
AcDb3dPolylineVertex
 10
143.466461
 20
125.864418
 30
0.0
 70
    40
  0
VERTEX
  5
10B
100
AcDbEntity
  8
0
390
0
100
AcDbVertex
100
AcDb3dPolylineVertex
 10
143.379852
 20
125.842354
 30
0.0
 70
    48
  0
VERTEX
  5
10C
100
AcDbEntity
  8
0
390
0
100
AcDbVertex
100
AcDb3dPolylineVertex
 10
143.466461
 20
125.864418
 30
0.0
 70
    48
  0
VERTEX
  5
10D
100
AcDbEntity
  8
0
390
0
100
AcDbVertex
100
AcDb3dPolylineVertex
 10
143.466461
 20
125.864418
 30
0.0
 70
    48
  0
VERTEX
  5
10E
100
AcDbEntity
  8
0
390
0
100
AcDbVertex
100
AcDb3dPolylineVertex
 10
143.540329
 20
125.916054
 30
0.0
 70
    40
  0
VERTEX
  5
10F
100
AcDbEntity
  8
0
390
0
100
AcDbVertex
100
AcDb3dPolylineVertex
 10
143.466461
 20
125.864418
 30
0.0
 70
    48
  0
VERTEX
  5
110
100
AcDbEntity
  8
0
390
0
100
AcDbVertex
100
AcDb3dPolylineVertex
 10
143.540329
 20
125.916054
 30
0.0
 70
    48
  0
VERTEX
  5
111
100
AcDbEntity
  8
0
390
0
100
AcDbVertex
100
AcDb3dPolylineVertex
 10
143.540329
 20
125.916054
 30
0.0
 70
    48
  0
VERTEX
  5
112
100
AcDbEntity
  8
0
390
0
100
AcDbVertex
100
AcDb3dPolylineVertex
 10
143.585907
 20
125.979652
 30
0.0
 70
    40
  0
VERTEX
  5
113
100
AcDbEntity
  8
0
390
0
100
AcDbVertex
100
AcDb3dPolylineVertex
 10
143.540329
 20
125.916054
 30
0.0
 70
    48
  0
VERTEX
  5
114
100
AcDbEntity
  8
0
390
0
100
AcDbVertex
100
AcDb3dPolylineVertex
 10
143.585907
 20
125.979652
 30
0.0
 70
    48
  0
VERTEX
  5
115
100
AcDbEntity
  8
0
390
0
100
AcDbVertex
100
AcDb3dPolylineVertex
 10
143.585907
 20
125.979652
 30
0.0
 70
    48
  0
VERTEX
  5
116
100
AcDbEntity
  8
0
390
0
100
AcDbVertex
100
AcDb3dPolylineVertex
 10
143.607101
 20
126.040291
 30
0.0
 70
    40
  0
VERTEX
  5
117
100
AcDbEntity
  8
0
390
0
100
AcDbVertex
100
AcDb3dPolylineVertex
 10
143.585907
 20
125.979652
 30
0.0
 70
    48
  0
VERTEX
  5
118
100
AcDbEntity
  8
0
390
0
100
AcDbVertex
100
AcDb3dPolylineVertex
 10
143.607101
 20
126.040291
 30
0.0
 70
    48
  0
VERTEX
  5
119
100
AcDbEntity
  8
0
390
0
100
AcDbVertex
100
AcDb3dPolylineVertex
 10
143.607101
 20
126.040291
 30
0.0
 70
    48
  0
VERTEX
  5
11A
100
AcDbEntity
  8
0
390
0
100
AcDbVertex
100
AcDb3dPolylineVertex
 10
143.612442
 20
126.094337
 30
0.0
 70
    40
  0
VERTEX
  5
11B
100
AcDbEntity
  8
0
390
0
100
AcDbVertex
100
AcDb3dPolylineVertex
 10
143.607101
 20
126.040291
 30
0.0
 70
    48
  0
VERTEX
  5
11C
100
AcDbEntity
  8
0
390
0
100
AcDbVertex
100
AcDb3dPolylineVertex
 10
143.612442
 20
126.094337
 30
0.0
 70
    48
  0
VERTEX
  5
11D
100
AcDbEntity
  8
0
390
0
100
AcDbVertex
100
AcDb3dPolylineVertex
 10
143.612442
 20
126.094337
 30
0.0
 70
    48
  0
VERTEX
  5
11E
100
AcDbEntity
  8
0
390
0
100
AcDbVertex
100
AcDb3dPolylineVertex
 10
143.610657
 20
126.112099
 30
0.0
 70
    40
  0
VERTEX
  5
11F
100
AcDbEntity
  8
0
390
0
100
AcDbVertex
100
AcDb3dPolylineVertex
 10
143.612442
 20
126.094337
 30
0.0
 70
    48
  0
VERTEX
  5
120
100
AcDbEntity
  8
0
390
0
100
AcDbVertex
100
AcDb3dPolylineVertex
 10
143.610657
 20
126.112099
 30
0.0
 70
    48
  0
VERTEX
  5
121
100
AcDbEntity
  8
0
390
0
100
AcDbVertex
100
AcDb3dPolylineVertex
 10
143.610657
 20
126.112099
 30
0.0
 70
    48
  0
SEQEND
  5
122
100
AcDbEntity
  8
0
390
0
  0
LINE
  5
123
100
AcDbEntity
  8
ARMATUR
390
0
  6
DURCHGEHEND
 62
     7
100
AcDbLine
 10
143.112411
 20
125.841805
 30
0.0
 11
143.370102
 21
125.841805
 31
0.0
  0
LINE
  5
124
100
AcDbEntity
  8
ARMATUR
390
0
  6
DURCHGEHEND
 62
     7
100
AcDbLine
 10
143.362411
 20
120.341805
 30
0.0
 11
143.112411
 21
120.341805
 31
0.0
  0
LINE
  5
125
100
AcDbEntity
  8
ARMATUR
390
0
  6
DURCHGEHEND
 62
     7
100
AcDbLine
 10
140.237411
 20
120.491798
 30
0.0
 11
140.112411
 21
120.616798
 31
0.0
  0
LINE
  5
126
100
AcDbEntity
  8
ARMATUR
390
0
  6
DURCHGEHEND
 62
     7
100
AcDbLine
 10
140.112411
 20
125.56678
 30
0.0
 11
140.237411
 21
125.69178
 31
0.0
  0
LINE
  5
127
100
AcDbEntity
  8
ARMATUR
390
0
  6
DURCHGEHEND
 62
     7
100
AcDbLine
 10
140.237411
 20
125.69178
 30
0.0
 11
143.112411
 21
125.69178
 31
0.0
  0
LINE
  5
128
100
AcDbEntity
  8
ARMATUR
390
0
  6
DURCHGEHEND
 62
     7
100
AcDbLine
 10
143.112411
 20
120.491798
 30
0.0
 11
140.237411
 21
120.491798
 31
0.0
  0
LINE
  5
129
100
AcDbEntity
  8
ARMATUR
390
0
  6
DURCHGEHEND
 62
     7
100
AcDbLine
 10
152.362411
 20
120.091805
 30
0.0
 11
152.362411
 21
119.341805
 31
0.0
  0
LINE
  5
12A
100
AcDbEntity
  8
ARMATUR
390
0
  6
DURCHGEHEND
 62
     7
100
AcDbLine
 10
144.862411
 20
119.341805
 30
0.0
 11
144.862411
 21
120.091805
 31
0.0
  0
LINE
  5
12B
100
AcDbEntity
  8
ARMATUR
390
0
  6
DURCHGEHEND
 62
     7
100
AcDbLine
 10
152.33992
 20
143.266785
 30
0.0
 11
152.33992
 21
132.018784
 31
0.0
  0
LINE
  5
12C
100
AcDbEntity
  8
ARMATUR
390
0
  6
DURCHGEHEND
 62
     7
100
AcDbLine
 10
152.33992
 20
129.323334
 30
0.0
 11
152.33992
 21
126.261787
 31
0.0
  0
LINE
  5
12D
100
AcDbEntity
  8
ARMATUR
390
0
  6
DURCHGEHEND
 62
     7
100
AcDbLine
 10
144.884918
 20
126.261787
 30
0.0
 11
144.884918
 21
129.323334
 31
0.0
  0
LINE
  5
12E
100
AcDbEntity
  8
ARMATUR
390
0
  6
DURCHGEHEND
 62
     7
100
AcDbLine
 10
144.884918
 20
132.018784
 30
0.0
 11
144.884918
 21
143.266785
 31
0.0
  0
LINE
  5
12F
100
AcDbEntity
  8
ARMATUR
390
0
  6
DURCHGEHEND
 62
     7
100
AcDbLine
 10
152.33992
 20
126.261787
 30
0.0
 11
152.169907
 21
126.091805
 31
0.0
  0
LINE
  5
130
100
AcDbEntity
  8
ARMATUR
390
0
  6
DURCHGEHEND
 62
     7
100
AcDbLine
 10
145.054916
 20
126.091805
 30
0.0
 11
144.884918
 21
126.261787
 31
0.0
  0
LINE
  5
131
100
AcDbEntity
  8
ARMATUR
390
0
  6
DURCHGEHEND
 62
     7
100
AcDbLine
 10
151.213669
 20
118.091805
 30
0.0
 11
151.213669
 21
114.46682
 31
0.0
  0
LINE
  5
132
100
AcDbEntity
  8
ARMATUR
390
0
  6
DURCHGEHEND
 62
     7
100
AcDbLine
 10
146.011169
 20
114.466797
 30
0.0
 11
146.011169
 21
118.091805
 31
0.0
  0
LINE
  5
133
100
AcDbEntity
  8
ARMATUR
390
0
  6
DURCHGEHEND
 62
     7
100
AcDbLine
 10
146.786148
 20
130.818817
 30
0.0
 11
142.987411
 21
130.818817
 31
0.0
  0
LINE
  5
134
100
AcDbEntity
  8
ARMATUR
390
0
  6
DURCHGEHEND
 62
     7
100
AcDbLine
 10
154.237411
 20
130.818817
 30
0.0
 11
146.786148
 21
130.818817
 31
0.0
  0
LINE
  5
135
100
AcDbEntity
  8
ARMATUR
390
0
  6
DURCHGEHEND
 62
     7
100
AcDbLine
 10
146.786148
 20
131.268829
 30
0.0
 11
142.987411
 21
131.268829
 31
0.0
  0
LINE
  5
136
100
AcDbEntity
  8
ARMATUR
390
0
  6
DURCHGEHEND
 62
     7
100
AcDbLine
 10
154.237411
 20
131.268829
 30
0.0
 11
146.786148
 21
131.268829
 31
0.0
  0
LINE
  5
137
100
AcDbEntity
  8
ARMATUR
390
0
  6
DURCHGEHEND
 62
     7
100
AcDbLine
 10
154.237411
 20
131.268829
 30
0.0
 11
142.562439
 21
131.268829
 31
0.0
  0
LINE
  5
138
100
AcDbEntity
  8
ARMATUR
390
0
  6
DURCHGEHEND
 62
     7
100
AcDbLine
 10
154.562454
 20
131.268829
 30
0.0
 11
154.237411
 21
131.268829
 31
0.0
  0
LINE
  5
139
100
AcDbEntity
  8
ARMATUR
390
0
  6
DURCHGEHEND
 62
     7
100
AcDbLine
 10
154.237411
 20
132.018829
 30
0.0
 11
142.562439
 21
132.018829
 31
0.0
  0
LINE
  5
13A
100
AcDbEntity
  8
ARMATUR
390
0
  6
DURCHGEHEND
 62
     7
100
AcDbLine
 10
154.562454
 20
132.018829
 30
0.0
 11
154.237411
 21
132.018829
 31
0.0
  0
POLYLINE
  5
13B
100
AcDbEntity
  8
ARMATUR
390
0
  6
DURCHGEHEND
 62
     7
100
AcDb3dPolyline
 66
     1
 10
0.0
 20
0.0
 30
0.0
 70
    12
 75
     5
  0
VERTEX
  5
13C
100
AcDbEntity
  8
0
390
0
100
AcDbVertex
100
AcDb3dPolylineVertex
 10
143.612411
 20
120.091805
 30
0.0
 70
    48
  0
VERTEX
  5
13D
100
AcDbEntity
  8
0
390
0
100
AcDbVertex
100
AcDb3dPolylineVertex
 10
143.612411
 20
120.091805
 30
0.0
 70
    40
  0
VERTEX
  5
13E
100
AcDbEntity
  8
0
390
0
100
AcDbVertex
100
AcDb3dPolylineVertex
 10
143.634247
 20
120.131203
 30
0.0
 70
    40
  0
VERTEX
  5
13F
100
AcDbEntity
  8
0
390
0
100
AcDbVertex
100
AcDb3dPolylineVertex
 10
143.612411
 20
120.091805
 30
0.0
 70
    48
  0
VERTEX
  5
140
100
AcDbEntity
  8
0
390
0
100
AcDbVertex
100
AcDb3dPolylineVertex
 10
143.634247
 20
120.131203
 30
0.0
 70
    48
  0
VERTEX
  5
141
100
AcDbEntity
  8
0
390
0
100
AcDbVertex
100
AcDb3dPolylineVertex
 10
143.634247
 20
120.131203
 30
0.0
 70
    48
  0
VERTEX
  5
142
100
AcDbEntity
  8
0
390
0
100
AcDbVertex
100
AcDb3dPolylineVertex
 10
143.70166
 20
120.257027
 30
0.0
 70
    40
  0
VERTEX
  5
143
100
AcDbEntity
  8
0
390
0
100
AcDbVertex
100
AcDb3dPolylineVertex
 10
143.634247
 20
120.131203
 30
0.0
 70
    48
  0
VERTEX
  5
144
100
AcDbEntity
  8
0
390
0
100
AcDbVertex
100
AcDb3dPolylineVertex
 10
143.70166
 20
120.257027
 30
0.0
 70
    48
  0
VERTEX
  5
145
100
AcDbEntity
  8
0
390
0
100
AcDbVertex
100
AcDb3dPolylineVertex
 10
143.70166
 20
120.257027
 30
0.0
 70
    48
  0
VERTEX
  5
146
100
AcDbEntity
  8
0
390
0
100
AcDbVertex
100
AcDb3dPolylineVertex
 10
143.805664
 20
120.460213
 30
0.0
 70
    40
  0
VERTEX
  5
147
100
AcDbEntity
  8
0
390
0
100
AcDbVertex
100
AcDb3dPolylineVertex
 10
143.70166
 20
120.257027
 30
0.0
 70
    48
  0
VERTEX
  5
148
100
AcDbEntity
  8
0
390
0
100
AcDbVertex
100
AcDb3dPolylineVertex
 10
143.805664
 20
120.460213
 30
0.0
 70
    48
  0
VERTEX
  5
149
100
AcDbEntity
  8
0
390
0
100
AcDbVertex
100
AcDb3dPolylineVertex
 10
143.805664
 20
120.460213
 30
0.0
 70
    48
  0
VERTEX
  5
14A
100
AcDbEntity
  8
0
390
0
100
AcDbVertex
100
AcDb3dPolylineVertex
 10
143.819092
 20
120.487251
 30
0.0
 70
    40
  0
VERTEX
  5
14B
100
AcDbEntity
  8
0
390
0
100
AcDbVertex
100
AcDb3dPolylineVertex
 10
143.805664
 20
120.460213
 30
0.0
 70
    48
  0
VERTEX
  5
14C
100
AcDbEntity
  8
0
390
0
100
AcDbVertex
100
AcDb3dPolylineVertex
 10
143.819092
 20
120.487251
 30
0.0
 70
    48
  0
VERTEX
  5
14D
100
AcDbEntity
  8
0
390
0
100
AcDbVertex
100
AcDb3dPolylineVertex
 10
143.819092
 20
120.487251
 30
0.0
 70
    48
  0
VERTEX
  5
14E
100
AcDbEntity
  8
0
390
0
100
AcDbVertex
100
AcDb3dPolylineVertex
 10
143.957901
 20
120.780556
 30
0.0
 70
    40
  0
VERTEX
  5
14F
100
AcDbEntity
  8
0
390
0
100
AcDbVertex
100
AcDb3dPolylineVertex
 10
143.819092
 20
120.487251
 30
0.0
 70
    48
  0
VERTEX
  5
150
100
AcDbEntity
  8
0
390
0
100
AcDbVertex
100
AcDb3dPolylineVertex
 10
143.957901
 20
120.780556
 30
0.0
 70
    48
  0
VERTEX
  5
151
100
AcDbEntity
  8
0
390
0
100
AcDbVertex
100
AcDb3dPolylineVertex
 10
143.957901
 20
120.780556
 30
0.0
 70
    48
  0
VERTEX
  5
152
100
AcDbEntity
  8
0
390
0
100
AcDbVertex
100
AcDb3dPolylineVertex
 10
144.108429
 20
121.136177
 30
0.0
 70
    40
  0
VERTEX
  5
153
100
AcDbEntity
  8
0
390
0
100
AcDbVertex
100
AcDb3dPolylineVertex
 10
143.957901
 20
120.780556
 30
0.0
 70
    48
  0
VERTEX
  5
154
100
AcDbEntity
  8
0
390
0
100
AcDbVertex
100
AcDb3dPolylineVertex
 10
144.108429
 20
121.136177
 30
0.0
 70
    48
  0
VERTEX
  5
155
100
AcDbEntity
  8
0
390
0
100
AcDbVertex
100
AcDb3dPolylineVertex
 10
144.108429
 20
121.136177
 30
0.0
 70
    48
  0
VERTEX
  5
156
100
AcDbEntity
  8
0
390
0
100
AcDbVertex
100
AcDb3dPolylineVertex
 10
144.35144
 20
121.875526
 30
0.0
 70
    40
  0
VERTEX
  5
157
100
AcDbEntity
  8
0
390
0
100
AcDbVertex
100
AcDb3dPolylineVertex
 10
144.108429
 20
121.136177
 30
0.0
 70
    48
  0
VERTEX
  5
158
100
AcDbEntity
  8
0
390
0
100
AcDbVertex
100
AcDb3dPolylineVertex
 10
144.35144
 20
121.875526
 30
0.0
 70
    48
  0
VERTEX
  5
159
100
AcDbEntity
  8
0
390
0
100
AcDbVertex
100
AcDb3dPolylineVertex
 10
144.35144
 20
121.875526
 30
0.0
 70
    48
  0
VERTEX
  5
15A
100
AcDbEntity
  8
0
390
0
100
AcDbVertex
100
AcDb3dPolylineVertex
 10
144.49205
 20
122.666298
 30
0.0
 70
    40
  0
VERTEX
  5
15B
100
AcDbEntity
  8
0
390
0
100
AcDbVertex
100
AcDb3dPolylineVertex
 10
144.35144
 20
121.875526
 30
0.0
 70
    48
  0
VERTEX
  5
15C
100
AcDbEntity
  8
0
390
0
100
AcDbVertex
100
AcDb3dPolylineVertex
 10
144.49205
 20
122.666298
 30
0.0
 70
    48
  0
VERTEX
  5
15D
100
AcDbEntity
  8
0
390
0
100
AcDbVertex
100
AcDb3dPolylineVertex
 10
144.49205
 20
122.666298
 30
0.0
 70
    48
  0
VERTEX
  5
15E
100
AcDbEntity
  8
0
390
0
100
AcDbVertex
100
AcDb3dPolylineVertex
 10
144.511154
 20
123.149879
 30
0.0
 70
    40
  0
VERTEX
  5
15F
100
AcDbEntity
  8
0
390
0
100
AcDbVertex
100
AcDb3dPolylineVertex
 10
144.49205
 20
122.666298
 30
0.0
 70
    48
  0
VERTEX
  5
160
100
AcDbEntity
  8
0
390
0
100
AcDbVertex
100
AcDb3dPolylineVertex
 10
144.511154
 20
123.149879
 30
0.0
 70
    48
  0
VERTEX
  5
161
100
AcDbEntity
  8
0
390
0
100
AcDbVertex
100
AcDb3dPolylineVertex
 10
144.511154
 20
123.149879
 30
0.0
 70
    48
  0
VERTEX
  5
162
100
AcDbEntity
  8
0
390
0
100
AcDbVertex
100
AcDb3dPolylineVertex
 10
144.479935
 20
123.631538
 30
0.0
 70
    40
  0
VERTEX
  5
163
100
AcDbEntity
  8
0
390
0
100
AcDbVertex
100
AcDb3dPolylineVertex
 10
144.511154
 20
123.149879
 30
0.0
 70
    48
  0
VERTEX
  5
164
100
AcDbEntity
  8
0
390
0
100
AcDbVertex
100
AcDb3dPolylineVertex
 10
144.479935
 20
123.631538
 30
0.0
 70
    48
  0
VERTEX
  5
165
100
AcDbEntity
  8
0
390
0
100
AcDbVertex
100
AcDb3dPolylineVertex
 10
144.479935
 20
123.631538
 30
0.0
 70
    48
  0
VERTEX
  5
166
100
AcDbEntity
  8
0
390
0
100
AcDbVertex
100
AcDb3dPolylineVertex
 10
144.388641
 20
124.154121
 30
0.0
 70
    40
  0
VERTEX
  5
167
100
AcDbEntity
  8
0
390
0
100
AcDbVertex
100
AcDb3dPolylineVertex
 10
144.479935
 20
123.631538
 30
0.0
 70
    48
  0
VERTEX
  5
168
100
AcDbEntity
  8
0
390
0
100
AcDbVertex
100
AcDb3dPolylineVertex
 10
144.388641
 20
124.154121
 30
0.0
 70
    48
  0
VERTEX
  5
169
100
AcDbEntity
  8
0
390
0
100
AcDbVertex
100
AcDb3dPolylineVertex
 10
144.388641
 20
124.154121
 30
0.0
 70
    48
  0
VERTEX
  5
16A
100
AcDbEntity
  8
0
390
0
100
AcDbVertex
100
AcDb3dPolylineVertex
 10
144.255478
 20
124.637764
 30
0.0
 70
    40
  0
VERTEX
  5
16B
100
AcDbEntity
  8
0
390
0
100
AcDbVertex
100
AcDb3dPolylineVertex
 10
144.388641
 20
124.154121
 30
0.0
 70
    48
  0
VERTEX
  5
16C
100
AcDbEntity
  8
0
390
0
100
AcDbVertex
100
AcDb3dPolylineVertex
 10
144.255478
 20
124.637764
 30
0.0
 70
    48
  0
VERTEX
  5
16D
100
AcDbEntity
  8
0
390
0
100
AcDbVertex
100
AcDb3dPolylineVertex
 10
144.255478
 20
124.637764
 30
0.0
 70
    48
  0
VERTEX
  5
16E
100
AcDbEntity
  8
0
390
0
100
AcDbVertex
100
AcDb3dPolylineVertex
 10
143.966049
 20
125.384865
 30
0.0
 70
    40
  0
VERTEX
  5
16F
100
AcDbEntity
  8
0
390
0
100
AcDbVertex
100
AcDb3dPolylineVertex
 10
144.255478
 20
124.637764
 30
0.0
 70
    48
  0
VERTEX
  5
170
100
AcDbEntity
  8
0
390
0
100
AcDbVertex
100
AcDb3dPolylineVertex
 10
143.966049
 20
125.384865
 30
0.0
 70
    48
  0
VERTEX
  5
171
100
AcDbEntity
  8
0
390
0
100
AcDbVertex
100
AcDb3dPolylineVertex
 10
143.966049
 20
125.384865
 30
0.0
 70
    48
  0
VERTEX
  5
172
100
AcDbEntity
  8
0
390
0
100
AcDbVertex
100
AcDb3dPolylineVertex
 10
143.735733
 20
125.861122
 30
0.0
 70
    40
  0
VERTEX
  5
173
100
AcDbEntity
  8
0
390
0
100
AcDbVertex
100
AcDb3dPolylineVertex
 10
143.966049
 20
125.384865
 30
0.0
 70
    48
  0
VERTEX
  5
174
100
AcDbEntity
  8
0
390
0
100
AcDbVertex
100
AcDb3dPolylineVertex
 10
143.735733
 20
125.861122
 30
0.0
 70
    48
  0
VERTEX
  5
175
100
AcDbEntity
  8
0
390
0
100
AcDbVertex
100
AcDb3dPolylineVertex
 10
143.735733
 20
125.861122
 30
0.0
 70
    48
  0
VERTEX
  5
176
100
AcDbEntity
  8
0
390
0
100
AcDbVertex
100
AcDb3dPolylineVertex
 10
143.659027
 20
126.006691
 30
0.0
 70
    40
  0
VERTEX
  5
177
100
AcDbEntity
  8
0
390
0
100
AcDbVertex
100
AcDb3dPolylineVertex
 10
143.735733
 20
125.861122
 30
0.0
 70
    48
  0
VERTEX
  5
178
100
AcDbEntity
  8
0
390
0
100
AcDbVertex
100
AcDb3dPolylineVertex
 10
143.659027
 20
126.006691
 30
0.0
 70
    48
  0
VERTEX
  5
179
100
AcDbEntity
  8
0
390
0
100
AcDbVertex
100
AcDb3dPolylineVertex
 10
143.659027
 20
126.006691
 30
0.0
 70
    48
  0
VERTEX
  5
17A
100
AcDbEntity
  8
0
390
0
100
AcDbVertex
100
AcDb3dPolylineVertex
 10
143.617828
 20
126.082253
 30
0.0
 70
    40
  0
VERTEX
  5
17B
100
AcDbEntity
  8
0
390
0
100
AcDbVertex
100
AcDb3dPolylineVertex
 10
143.659027
 20
126.006691
 30
0.0
 70
    48
  0
VERTEX
  5
17C
100
AcDbEntity
  8
0
390
0
100
AcDbVertex
100
AcDb3dPolylineVertex
 10
143.617828
 20
126.082253
 30
0.0
 70
    48
  0
VERTEX
  5
17D
100
AcDbEntity
  8
0
390
0
100
AcDbVertex
100
AcDb3dPolylineVertex
 10
143.617828
 20
126.082253
 30
0.0
 70
    48
  0
VERTEX
  5
17E
100
AcDbEntity
  8
0
390
0
100
AcDbVertex
100
AcDb3dPolylineVertex
 10
143.612411
 20
126.091805
 30
0.0
 70
    40
  0
VERTEX
  5
17F
100
AcDbEntity
  8
0
390
0
100
AcDbVertex
100
AcDb3dPolylineVertex
 10
143.617828
 20
126.082253
 30
0.0
 70
    48
  0
VERTEX
  5
180
100
AcDbEntity
  8
0
390
0
100
AcDbVertex
100
AcDb3dPolylineVertex
 10
143.612411
 20
126.091805
 30
0.0
 70
    48
  0
VERTEX
  5
181
100
AcDbEntity
  8
0
390
0
100
AcDbVertex
100
AcDb3dPolylineVertex
 10
143.612411
 20
126.091805
 30
0.0
 70
    48
  0
SEQEND
  5
182
100
AcDbEntity
  8
0
390
0
  0
LINE
  5
183
100
AcDbEntity
  8
ARMATUR
390
0
  6
DURCHGEHEND
 62
     7
100
AcDbLine
 10
153.612411
 20
120.091805
 30
0.0
 11
143.612411
 21
120.091805
 31
0.0
  0
LINE
  5
184
100
AcDbEntity
  8
ARMATUR
390
0
  6
DURCHGEHEND
 62
     7
100
AcDbLine
 10
143.612411
 20
126.091805
 30
0.0
 11
153.612411
 21
126.091805
 31
0.0
  0
POLYLINE
  5
185
100
AcDbEntity
  8
ARMATUR
390
0
  6
DURCHGEHEND
 62
     7
100
AcDb3dPolyline
 66
     1
 10
0.0
 20
0.0
 30
0.0
 70
    12
 75
     5
  0
VERTEX
  5
186
100
AcDbEntity
  8
0
390
0
100
AcDbVertex
100
AcDb3dPolylineVertex
 10
143.112411
 20
120.341805
 30
0.0
 70
    48
  0
VERTEX
  5
187
100
AcDbEntity
  8
0
390
0
100
AcDbVertex
100
AcDb3dPolylineVertex
 10
143.112411
 20
120.341805
 30
0.0
 70
    40
  0
VERTEX
  5
188
100
AcDbEntity
  8
0
390
0
100
AcDbVertex
100
AcDb3dPolylineVertex
 10
143.111923
 20
120.385994
 30
0.0
 70
    40
  0
VERTEX
  5
189
100
AcDbEntity
  8
0
390
0
100
AcDbVertex
100
AcDb3dPolylineVertex
 10
143.112411
 20
120.341805
 30
0.0
 70
    48
  0
VERTEX
  5
18A
100
AcDbEntity
  8
0
390
0
100
AcDbVertex
100
AcDb3dPolylineVertex
 10
143.111923
 20
120.385994
 30
0.0
 70
    48
  0
VERTEX
  5
18B
100
AcDbEntity
  8
0
390
0
100
AcDbVertex
100
AcDb3dPolylineVertex
 10
143.111923
 20
120.385994
 30
0.0
 70
    48
  0
VERTEX
  5
18C
100
AcDbEntity
  8
0
390
0
100
AcDbVertex
100
AcDb3dPolylineVertex
 10
143.111511
 20
120.491798
 30
0.0
 70
    40
  0
VERTEX
  5
18D
100
AcDbEntity
  8
0
390
0
100
AcDbVertex
100
AcDb3dPolylineVertex
 10
143.111923
 20
120.385994
 30
0.0
 70
    48
  0
VERTEX
  5
18E
100
AcDbEntity
  8
0
390
0
100
AcDbVertex
100
AcDb3dPolylineVertex
 10
143.111511
 20
120.491798
 30
0.0
 70
    48
  0
VERTEX
  5
18F
100
AcDbEntity
  8
0
390
0
100
AcDbVertex
100
AcDb3dPolylineVertex
 10
143.111511
 20
120.491798
 30
0.0
 70
    48
  0
SEQEND
  5
190
100
AcDbEntity
  8
0
390
0
  0
POLYLINE
  5
191
100
AcDbEntity
  8
ARMATUR
390
0
  6
DURCHGEHEND
 62
     7
100
AcDb3dPolyline
 66
     1
 10
0.0
 20
0.0
 30
0.0
 70
    12
 75
     5
  0
VERTEX
  5
192
100
AcDbEntity
  8
0
390
0
100
AcDbVertex
100
AcDb3dPolylineVertex
 10
143.111511
 20
125.69178
 30
0.0
 70
    48
  0
VERTEX
  5
193
100
AcDbEntity
  8
0
390
0
100
AcDbVertex
100
AcDb3dPolylineVertex
 10
143.111511
 20
125.69178
 30
0.0
 70
    40
  0
VERTEX
  5
194
100
AcDbEntity
  8
0
390
0
100
AcDbVertex
100
AcDb3dPolylineVertex
 10
143.111679
 20
125.742683
 30
0.0
 70
    40
  0
VERTEX
  5
195
100
AcDbEntity
  8
0
390
0
100
AcDbVertex
100
AcDb3dPolylineVertex
 10
143.111511
 20
125.69178
 30
0.0
 70
    48
  0
VERTEX
  5
196
100
AcDbEntity
  8
0
390
0
100
AcDbVertex
100
AcDb3dPolylineVertex
 10
143.111679
 20
125.742683
 30
0.0
 70
    48
  0
VERTEX
  5
197
100
AcDbEntity
  8
0
390
0
100
AcDbVertex
100
AcDb3dPolylineVertex
 10
143.111679
 20
125.742683
 30
0.0
 70
    48
  0
VERTEX
  5
198
100
AcDbEntity
  8
0
390
0
100
AcDbVertex
100
AcDb3dPolylineVertex
 10
143.112167
 20
125.830727
 30
0.0
 70
    40
  0
VERTEX
  5
199
100
AcDbEntity
  8
0
390
0
100
AcDbVertex
100
AcDb3dPolylineVertex
 10
143.111679
 20
125.742683
 30
0.0
 70
    48
  0
VERTEX
  5
19A
100
AcDbEntity
  8
0
390
0
100
AcDbVertex
100
AcDb3dPolylineVertex
 10
143.112167
 20
125.830727
 30
0.0
 70
    48
  0
VERTEX
  5
19B
100
AcDbEntity
  8
0
390
0
100
AcDbVertex
100
AcDb3dPolylineVertex
 10
143.112167
 20
125.830727
 30
0.0
 70
    48
  0
VERTEX
  5
19C
100
AcDbEntity
  8
0
390
0
100
AcDbVertex
100
AcDb3dPolylineVertex
 10
143.112671
 20
125.830727
 30
0.0
 70
    40
  0
VERTEX
  5
19D
100
AcDbEntity
  8
0
390
0
100
AcDbVertex
100
AcDb3dPolylineVertex
 10
143.112167
 20
125.830727
 30
0.0
 70
    48
  0
VERTEX
  5
19E
100
AcDbEntity
  8
0
390
0
100
AcDbVertex
100
AcDb3dPolylineVertex
 10
143.112671
 20
125.830727
 30
0.0
 70
    48
  0
VERTEX
  5
19F
100
AcDbEntity
  8
0
390
0
100
AcDbVertex
100
AcDb3dPolylineVertex
 10
143.112671
 20
125.830727
 30
0.0
 70
    48
  0
VERTEX
  5
1A0
100
AcDbEntity
  8
0
390
0
100
AcDbVertex
100
AcDb3dPolylineVertex
 10
143.113159
 20
125.742683
 30
0.0
 70
    40
  0
VERTEX
  5
1A1
100
AcDbEntity
  8
0
390
0
100
AcDbVertex
100
AcDb3dPolylineVertex
 10
143.112671
 20
125.830727
 30
0.0
 70
    48
  0
VERTEX
  5
1A2
100
AcDbEntity
  8
0
390
0
100
AcDbVertex
100
AcDb3dPolylineVertex
 10
143.113159
 20
125.742683
 30
0.0
 70
    48
  0
VERTEX
  5
1A3
100
AcDbEntity
  8
0
390
0
100
AcDbVertex
100
AcDb3dPolylineVertex
 10
143.113159
 20
125.742683
 30
0.0
 70
    48
  0
VERTEX
  5
1A4
100
AcDbEntity
  8
0
390
0
100
AcDbVertex
100
AcDb3dPolylineVertex
 10
143.113632
 20
125.569466
 30
0.0
 70
    40
  0
VERTEX
  5
1A5
100
AcDbEntity
  8
0
390
0
100
AcDbVertex
100
AcDb3dPolylineVertex
 10
143.113159
 20
125.742683
 30
0.0
 70
    48
  0
VERTEX
  5
1A6
100
AcDbEntity
  8
0
390
0
100
AcDbVertex
100
AcDb3dPolylineVertex
 10
143.113632
 20
125.569466
 30
0.0
 70
    48
  0
VERTEX
  5
1A7
100
AcDbEntity
  8
0
390
0
100
AcDbVertex
100
AcDb3dPolylineVertex
 10
143.113632
 20
125.569466
 30
0.0
 70
    48
  0
VERTEX
  5
1A8
100
AcDbEntity
  8
0
390
0
100
AcDbVertex
100
AcDb3dPolylineVertex
 10
143.114059
 20
125.316597
 30
0.0
 70
    40
  0
VERTEX
  5
1A9
100
AcDbEntity
  8
0
390
0
100
AcDbVertex
100
AcDb3dPolylineVertex
 10
143.113632
 20
125.569466
 30
0.0
 70
    48
  0
VERTEX
  5
1AA
100
AcDbEntity
  8
0
390
0
100
AcDbVertex
100
AcDb3dPolylineVertex
 10
143.114059
 20
125.316597
 30
0.0
 70
    48
  0
VERTEX
  5
1AB
100
AcDbEntity
  8
0
390
0
100
AcDbVertex
100
AcDb3dPolylineVertex
 10
143.114059
 20
125.316597
 30
0.0
 70
    48
  0
VERTEX
  5
1AC
100
AcDbEntity
  8
0
390
0
100
AcDbVertex
100
AcDb3dPolylineVertex
 10
143.114426
 20
124.992226
 30
0.0
 70
    40
  0
VERTEX
  5
1AD
100
AcDbEntity
  8
0
390
0
100
AcDbVertex
100
AcDb3dPolylineVertex
 10
143.114059
 20
125.316597
 30
0.0
 70
    48
  0
VERTEX
  5
1AE
100
AcDbEntity
  8
0
390
0
100
AcDbVertex
100
AcDb3dPolylineVertex
 10
143.114426
 20
124.992226
 30
0.0
 70
    48
  0
VERTEX
  5
1AF
100
AcDbEntity
  8
0
390
0
100
AcDbVertex
100
AcDb3dPolylineVertex
 10
143.114426
 20
124.992226
 30
0.0
 70
    48
  0
VERTEX
  5
1B0
100
AcDbEntity
  8
0
390
0
100
AcDbVertex
100
AcDb3dPolylineVertex
 10
143.114746
 20
124.606758
 30
0.0
 70
    40
  0
VERTEX
  5
1B1
100
AcDbEntity
  8
0
390
0
100
AcDbVertex
100
AcDb3dPolylineVertex
 10
143.114426
 20
124.992226
 30
0.0
 70
    48
  0
VERTEX
  5
1B2
100
AcDbEntity
  8
0
390
0
100
AcDbVertex
100
AcDb3dPolylineVertex
 10
143.114746
 20
124.606758
 30
0.0
 70
    48
  0
VERTEX
  5
1B3
100
AcDbEntity
  8
0
390
0
100
AcDbVertex
100
AcDb3dPolylineVertex
 10
143.114746
 20
124.606758
 30
0.0
 70
    48
  0
VERTEX
  5
1B4
100
AcDbEntity
  8
0
390
0
100
AcDbVertex
100
AcDb3dPolylineVertex
 10
143.114975
 20
124.172615
 30
0.0
 70
    40
  0
VERTEX
  5
1B5
100
AcDbEntity
  8
0
390
0
100
AcDbVertex
100
AcDb3dPolylineVertex
 10
143.114746
 20
124.606758
 30
0.0
 70
    48
  0
VERTEX
  5
1B6
100
AcDbEntity
  8
0
390
0
100
AcDbVertex
100
AcDb3dPolylineVertex
 10
143.114975
 20
124.172615
 30
0.0
 70
    48
  0
VERTEX
  5
1B7
100
AcDbEntity
  8
0
390
0
100
AcDbVertex
100
AcDb3dPolylineVertex
 10
143.114975
 20
124.172615
 30
0.0
 70
    48
  0
VERTEX
  5
1B8
100
AcDbEntity
  8
0
390
0
100
AcDbVertex
100
AcDb3dPolylineVertex
 10
143.115128
 20
123.703712
 30
0.0
 70
    40
  0
VERTEX
  5
1B9
100
AcDbEntity
  8
0
390
0
100
AcDbVertex
100
AcDb3dPolylineVertex
 10
143.114975
 20
124.172615
 30
0.0
 70
    48
  0
VERTEX
  5
1BA
100
AcDbEntity
  8
0
390
0
100
AcDbVertex
100
AcDb3dPolylineVertex
 10
143.115128
 20
123.703712
 30
0.0
 70
    48
  0
VERTEX
  5
1BB
100
AcDbEntity
  8
0
390
0
100
AcDbVertex
100
AcDb3dPolylineVertex
 10
143.115128
 20
123.703712
 30
0.0
 70
    48
  0
VERTEX
  5
1BC
100
AcDbEntity
  8
0
390
0
100
AcDbVertex
100
AcDb3dPolylineVertex
 10
143.115204
 20
123.215187
 30
0.0
 70
    40
  0
VERTEX
  5
1BD
100
AcDbEntity
  8
0
390
0
100
AcDbVertex
100
AcDb3dPolylineVertex
 10
143.115128
 20
123.703712
 30
0.0
 70
    48
  0
VERTEX
  5
1BE
100
AcDbEntity
  8
0
390
0
100
AcDbVertex
100
AcDb3dPolylineVertex
 10
143.115204
 20
123.215187
 30
0.0
 70
    48
  0
VERTEX
  5
1BF
100
AcDbEntity
  8
0
390
0
100
AcDbVertex
100
AcDb3dPolylineVertex
 10
143.115204
 20
123.215187
 30
0.0
 70
    48
  0
VERTEX
  5
1C0
100
AcDbEntity
  8
0
390
0
100
AcDbVertex
100
AcDb3dPolylineVertex
 10
143.115173
 20
122.722664
 30
0.0
 70
    40
  0
VERTEX
  5
1C1
100
AcDbEntity
  8
0
390
0
100
AcDbVertex
100
AcDb3dPolylineVertex
 10
143.115204
 20
123.215187
 30
0.0
 70
    48
  0
VERTEX
  5
1C2
100
AcDbEntity
  8
0
390
0
100
AcDbVertex
100
AcDb3dPolylineVertex
 10
143.115173
 20
122.722664
 30
0.0
 70
    48
  0
VERTEX
  5
1C3
100
AcDbEntity
  8
0
390
0
100
AcDbVertex
100
AcDb3dPolylineVertex
 10
143.115173
 20
122.722664
 30
0.0
 70
    48
  0
VERTEX
  5
1C4
100
AcDbEntity
  8
0
390
0
100
AcDbVertex
100
AcDb3dPolylineVertex
 10
143.115067
 20
122.242012
 30
0.0
 70
    40
  0
VERTEX
  5
1C5
100
AcDbEntity
  8
0
390
0
100
AcDbVertex
100
AcDb3dPolylineVertex
 10
143.115173
 20
122.722664
 30
0.0
 70
    48
  0
VERTEX
  5
1C6
100
AcDbEntity
  8
0
390
0
100
AcDbVertex
100
AcDb3dPolylineVertex
 10
143.115067
 20
122.242012
 30
0.0
 70
    48
  0
VERTEX
  5
1C7
100
AcDbEntity
  8
0
390
0
100
AcDbVertex
100
AcDb3dPolylineVertex
 10
143.115067
 20
122.242012
 30
0.0
 70
    48
  0
VERTEX
  5
1C8
100
AcDbEntity
  8
0
390
0
100
AcDbVertex
100
AcDb3dPolylineVertex
 10
143.114868
 20
121.788643
 30
0.0
 70
    40
  0
VERTEX
  5
1C9
100
AcDbEntity
  8
0
390
0
100
AcDbVertex
100
AcDb3dPolylineVertex
 10
143.115067
 20
122.242012
 30
0.0
 70
    48
  0
VERTEX
  5
1CA
100
AcDbEntity
  8
0
390
0
100
AcDbVertex
100
AcDb3dPolylineVertex
 10
143.114868
 20
121.788643
 30
0.0
 70
    48
  0
VERTEX
  5
1CB
100
AcDbEntity
  8
0
390
0
100
AcDbVertex
100
AcDb3dPolylineVertex
 10
143.114868
 20
121.788643
 30
0.0
 70
    48
  0
VERTEX
  5
1CC
100
AcDbEntity
  8
0
390
0
100
AcDbVertex
100
AcDb3dPolylineVertex
 10
143.114594
 20
121.377205
 30
0.0
 70
    40
  0
VERTEX
  5
1CD
100
AcDbEntity
  8
0
390
0
100
AcDbVertex
100
AcDb3dPolylineVertex
 10
143.114868
 20
121.788643
 30
0.0
 70
    48
  0
VERTEX
  5
1CE
100
AcDbEntity
  8
0
390
0
100
AcDbVertex
100
AcDb3dPolylineVertex
 10
143.114594
 20
121.377205
 30
0.0
 70
    48
  0
VERTEX
  5
1CF
100
AcDbEntity
  8
0
390
0
100
AcDbVertex
100
AcDb3dPolylineVertex
 10
143.114594
 20
121.377205
 30
0.0
 70
    48
  0
VERTEX
  5
1D0
100
AcDbEntity
  8
0
390
0
100
AcDbVertex
100
AcDb3dPolylineVertex
 10
143.114243
 20
121.020851
 30
0.0
 70
    40
  0
VERTEX
  5
1D1
100
AcDbEntity
  8
0
390
0
100
AcDbVertex
100
AcDb3dPolylineVertex
 10
143.114594
 20
121.377205
 30
0.0
 70
    48
  0
VERTEX
  5
1D2
100
AcDbEntity
  8
0
390
0
100
AcDbVertex
100
AcDb3dPolylineVertex
 10
143.114243
 20
121.020851
 30
0.0
 70
    48
  0
VERTEX
  5
1D3
100
AcDbEntity
  8
0
390
0
100
AcDbVertex
100
AcDb3dPolylineVertex
 10
143.114243
 20
121.020851
 30
0.0
 70
    48
  0
VERTEX
  5
1D4
100
AcDbEntity
  8
0
390
0
100
AcDbVertex
100
AcDb3dPolylineVertex
 10
143.113846
 20
120.731056
 30
0.0
 70
    40
  0
VERTEX
  5
1D5
100
AcDbEntity
  8
0
390
0
100
AcDbVertex
100
AcDb3dPolylineVertex
 10
143.114243
 20
121.020851
 30
0.0
 70
    48
  0
VERTEX
  5
1D6
100
AcDbEntity
  8
0
390
0
100
AcDbVertex
100
AcDb3dPolylineVertex
 10
143.113846
 20
120.731056
 30
0.0
 70
    48
  0
VERTEX
  5
1D7
100
AcDbEntity
  8
0
390
0
100
AcDbVertex
100
AcDb3dPolylineVertex
 10
143.113846
 20
120.731056
 30
0.0
 70
    48
  0
VERTEX
  5
1D8
100
AcDbEntity
  8
0
390
0
100
AcDbVertex
100
AcDb3dPolylineVertex
 10
143.113388
 20
120.517159
 30
0.0
 70
    40
  0
VERTEX
  5
1D9
100
AcDbEntity
  8
0
390
0
100
AcDbVertex
100
AcDb3dPolylineVertex
 10
143.113846
 20
120.731056
 30
0.0
 70
    48
  0
VERTEX
  5
1DA
100
AcDbEntity
  8
0
390
0
100
AcDbVertex
100
AcDb3dPolylineVertex
 10
143.113388
 20
120.517159
 30
0.0
 70
    48
  0
VERTEX
  5
1DB
100
AcDbEntity
  8
0
390
0
100
AcDbVertex
100
AcDb3dPolylineVertex
 10
143.113388
 20
120.517159
 30
0.0
 70
    48
  0
VERTEX
  5
1DC
100
AcDbEntity
  8
0
390
0
100
AcDbVertex
100
AcDb3dPolylineVertex
 10
143.112915
 20
120.385994
 30
0.0
 70
    40
  0
VERTEX
  5
1DD
100
AcDbEntity
  8
0
390
0
100
AcDbVertex
100
AcDb3dPolylineVertex
 10
143.113388
 20
120.517159
 30
0.0
 70
    48
  0
VERTEX
  5
1DE
100
AcDbEntity
  8
0
390
0
100
AcDbVertex
100
AcDb3dPolylineVertex
 10
143.112915
 20
120.385994
 30
0.0
 70
    48
  0
VERTEX
  5
1DF
100
AcDbEntity
  8
0
390
0
100
AcDbVertex
100
AcDb3dPolylineVertex
 10
143.112915
 20
120.385994
 30
0.0
 70
    48
  0
VERTEX
  5
1E0
100
AcDbEntity
  8
0
390
0
100
AcDbVertex
100
AcDb3dPolylineVertex
 10
143.112411
 20
120.341805
 30
0.0
 70
    40
  0
VERTEX
  5
1E1
100
AcDbEntity
  8
0
390
0
100
AcDbVertex
100
AcDb3dPolylineVertex
 10
143.112915
 20
120.385994
 30
0.0
 70
    48
  0
VERTEX
  5
1E2
100
AcDbEntity
  8
0
390
0
100
AcDbVertex
100
AcDb3dPolylineVertex
 10
143.112411
 20
120.341805
 30
0.0
 70
    48
  0
VERTEX
  5
1E3
100
AcDbEntity
  8
0
390
0
100
AcDbVertex
100
AcDb3dPolylineVertex
 10
143.112411
 20
120.341805
 30
0.0
 70
    48
  0
SEQEND
  5
1E4
100
AcDbEntity
  8
0
390
0
  0
POLYLINE
  5
1E5
100
AcDbEntity
  8
ARMATUR
390
0
  6
DURCHGEHEND
 62
     7
100
AcDb3dPolyline
 66
     1
 10
0.0
 20
0.0
 30
0.0
 70
    12
 75
     5
  0
VERTEX
  5
1E6
100
AcDbEntity
  8
0
390
0
100
AcDbVertex
100
AcDb3dPolylineVertex
 10
143.112411
 20
125.69178
 30
0.0
 70
    48
  0
VERTEX
  5
1E7
100
AcDbEntity
  8
0
390
0
100
AcDbVertex
100
AcDb3dPolylineVertex
 10
143.112411
 20
125.69178
 30
0.0
 70
    40
  0
VERTEX
  5
1E8
100
AcDbEntity
  8
0
390
0
100
AcDbVertex
100
AcDb3dPolylineVertex
 10
143.1129
 20
125.64753
 30
0.0
 70
    40
  0
VERTEX
  5
1E9
100
AcDbEntity
  8
0
390
0
100
AcDbVertex
100
AcDb3dPolylineVertex
 10
143.112411
 20
125.69178
 30
0.0
 70
    48
  0
VERTEX
  5
1EA
100
AcDbEntity
  8
0
390
0
100
AcDbVertex
100
AcDb3dPolylineVertex
 10
143.1129
 20
125.64753
 30
0.0
 70
    48
  0
VERTEX
  5
1EB
100
AcDbEntity
  8
0
390
0
100
AcDbVertex
100
AcDb3dPolylineVertex
 10
143.1129
 20
125.64753
 30
0.0
 70
    48
  0
VERTEX
  5
1EC
100
AcDbEntity
  8
0
390
0
100
AcDbVertex
100
AcDb3dPolylineVertex
 10
143.113373
 20
125.516212
 30
0.0
 70
    40
  0
VERTEX
  5
1ED
100
AcDbEntity
  8
0
390
0
100
AcDbVertex
100
AcDb3dPolylineVertex
 10
143.1129
 20
125.64753
 30
0.0
 70
    48
  0
VERTEX
  5
1EE
100
AcDbEntity
  8
0
390
0
100
AcDbVertex
100
AcDb3dPolylineVertex
 10
143.113373
 20
125.516212
 30
0.0
 70
    48
  0
VERTEX
  5
1EF
100
AcDbEntity
  8
0
390
0
100
AcDbVertex
100
AcDb3dPolylineVertex
 10
143.113373
 20
125.516212
 30
0.0
 70
    48
  0
VERTEX
  5
1F0
100
AcDbEntity
  8
0
390
0
100
AcDbVertex
100
AcDb3dPolylineVertex
 10
143.1138
 20
125.302345
 30
0.0
 70
    40
  0
VERTEX
  5
1F1
100
AcDbEntity
  8
0
390
0
100
AcDbVertex
100
AcDb3dPolylineVertex
 10
143.113373
 20
125.516212
 30
0.0
 70
    48
  0
VERTEX
  5
1F2
100
AcDbEntity
  8
0
390
0
100
AcDbVertex
100
AcDb3dPolylineVertex
 10
143.1138
 20
125.302345
 30
0.0
 70
    48
  0
VERTEX
  5
1F3
100
AcDbEntity
  8
0
390
0
100
AcDbVertex
100
AcDb3dPolylineVertex
 10
143.1138
 20
125.302345
 30
0.0
 70
    48
  0
VERTEX
  5
1F4
100
AcDbEntity
  8
0
390
0
100
AcDbVertex
100
AcDb3dPolylineVertex
 10
143.114197
 20
125.013222
 30
0.0
 70
    40
  0
VERTEX
  5
1F5
100
AcDbEntity
  8
0
390
0
100
AcDbVertex
100
AcDb3dPolylineVertex
 10
143.1138
 20
125.302345
 30
0.0
 70
    48
  0
VERTEX
  5
1F6
100
AcDbEntity
  8
0
390
0
100
AcDbVertex
100
AcDb3dPolylineVertex
 10
143.114197
 20
125.013222
 30
0.0
 70
    48
  0
VERTEX
  5
1F7
100
AcDbEntity
  8
0
390
0
100
AcDbVertex
100
AcDb3dPolylineVertex
 10
143.114197
 20
125.013222
 30
0.0
 70
    48
  0
VERTEX
  5
1F8
100
AcDbEntity
  8
0
390
0
100
AcDbVertex
100
AcDb3dPolylineVertex
 10
143.114517
 20
124.658638
 30
0.0
 70
    40
  0
VERTEX
  5
1F9
100
AcDbEntity
  8
0
390
0
100
AcDbVertex
100
AcDb3dPolylineVertex
 10
143.114197
 20
125.013222
 30
0.0
 70
    48
  0
VERTEX
  5
1FA
100
AcDbEntity
  8
0
390
0
100
AcDbVertex
100
AcDb3dPolylineVertex
 10
143.114517
 20
124.658638
 30
0.0
 70
    48
  0
VERTEX
  5
1FB
100
AcDbEntity
  8
0
390
0
100
AcDbVertex
100
AcDb3dPolylineVertex
 10
143.114517
 20
124.658638
 30
0.0
 70
    48
  0
VERTEX
  5
1FC
100
AcDbEntity
  8
0
390
0
100
AcDbVertex
100
AcDb3dPolylineVertex
 10
143.114777
 20
124.25071
 30
0.0
 70
    40
  0
VERTEX
  5
1FD
100
AcDbEntity
  8
0
390
0
100
AcDbVertex
100
AcDb3dPolylineVertex
 10
143.114517
 20
124.658638
 30
0.0
 70
    48
  0
VERTEX
  5
1FE
100
AcDbEntity
  8
0
390
0
100
AcDbVertex
100
AcDb3dPolylineVertex
 10
143.114777
 20
124.25071
 30
0.0
 70
    48
  0
VERTEX
  5
1FF
100
AcDbEntity
  8
0
390
0
100
AcDbVertex
100
AcDb3dPolylineVertex
 10
143.114777
 20
124.25071
 30
0.0
 70
    48
  0
VERTEX
  5
200
100
AcDbEntity
  8
0
390
0
100
AcDbVertex
100
AcDb3dPolylineVertex
 10
143.114944
 20
123.803322
 30
0.0
 70
    40
  0
VERTEX
  5
201
100
AcDbEntity
  8
0
390
0
100
AcDbVertex
100
AcDb3dPolylineVertex
 10
143.114777
 20
124.25071
 30
0.0
 70
    48
  0
VERTEX
  5
202
100
AcDbEntity
  8
0
390
0
100
AcDbVertex
100
AcDb3dPolylineVertex
 10
143.114944
 20
123.803322
 30
0.0
 70
    48
  0
VERTEX
  5
203
100
AcDbEntity
  8
0
390
0
100
AcDbVertex
100
AcDb3dPolylineVertex
 10
143.114944
 20
123.803322
 30
0.0
 70
    48
  0
VERTEX
  5
204
100
AcDbEntity
  8
0
390
0
100
AcDbVertex
100
AcDb3dPolylineVertex
 10
143.115036
 20
123.331703
 30
0.0
 70
    40
  0
VERTEX
  5
205
100
AcDbEntity
  8
0
390
0
100
AcDbVertex
100
AcDb3dPolylineVertex
 10
143.114944
 20
123.803322
 30
0.0
 70
    48
  0
VERTEX
  5
206
100
AcDbEntity
  8
0
390
0
100
AcDbVertex
100
AcDb3dPolylineVertex
 10
143.115036
 20
123.331703
 30
0.0
 70
    48
  0
VERTEX
  5
207
100
AcDbEntity
  8
0
390
0
100
AcDbVertex
100
AcDb3dPolylineVertex
 10
143.115036
 20
123.331703
 30
0.0
 70
    48
  0
VERTEX
  5
208
100
AcDbEntity
  8
0
390
0
100
AcDbVertex
100
AcDb3dPolylineVertex
 10
143.115036
 20
122.851906
 30
0.0
 70
    40
  0
VERTEX
  5
209
100
AcDbEntity
  8
0
390
0
100
AcDbVertex
100
AcDb3dPolylineVertex
 10
143.115036
 20
123.331703
 30
0.0
 70
    48
  0
VERTEX
  5
20A
100
AcDbEntity
  8
0
390
0
100
AcDbVertex
100
AcDb3dPolylineVertex
 10
143.115036
 20
122.851906
 30
0.0
 70
    48
  0
VERTEX
  5
20B
100
AcDbEntity
  8
0
390
0
100
AcDbVertex
100
AcDb3dPolylineVertex
 10
143.115036
 20
122.851906
 30
0.0
 70
    48
  0
VERTEX
  5
20C
100
AcDbEntity
  8
0
390
0
100
AcDbVertex
100
AcDb3dPolylineVertex
 10
143.114944
 20
122.380257
 30
0.0
 70
    40
  0
VERTEX
  5
20D
100
AcDbEntity
  8
0
390
0
100
AcDbVertex
100
AcDb3dPolylineVertex
 10
143.115036
 20
122.851906
 30
0.0
 70
    48
  0
VERTEX
  5
20E
100
AcDbEntity
  8
0
390
0
100
AcDbVertex
100
AcDb3dPolylineVertex
 10
143.114944
 20
122.380257
 30
0.0
 70
    48
  0
VERTEX
  5
20F
100
AcDbEntity
  8
0
390
0
100
AcDbVertex
100
AcDb3dPolylineVertex
 10
143.114944
 20
122.380257
 30
0.0
 70
    48
  0
VERTEX
  5
210
100
AcDbEntity
  8
0
390
0
100
AcDbVertex
100
AcDb3dPolylineVertex
 10
143.114777
 20
121.932869
 30
0.0
 70
    40
  0
VERTEX
  5
211
100
AcDbEntity
  8
0
390
0
100
AcDbVertex
100
AcDb3dPolylineVertex
 10
143.114944
 20
122.380257
 30
0.0
 70
    48
  0
VERTEX
  5
212
100
AcDbEntity
  8
0
390
0
100
AcDbVertex
100
AcDb3dPolylineVertex
 10
143.114777
 20
121.932869
 30
0.0
 70
    48
  0
VERTEX
  5
213
100
AcDbEntity
  8
0
390
0
100
AcDbVertex
100
AcDb3dPolylineVertex
 10
143.114777
 20
121.932869
 30
0.0
 70
    48
  0
VERTEX
  5
214
100
AcDbEntity
  8
0
390
0
100
AcDbVertex
100
AcDb3dPolylineVertex
 10
143.114517
 20
121.52494
 30
0.0
 70
    40
  0
VERTEX
  5
215
100
AcDbEntity
  8
0
390
0
100
AcDbVertex
100
AcDb3dPolylineVertex
 10
143.114777
 20
121.932869
 30
0.0
 70
    48
  0
VERTEX
  5
216
100
AcDbEntity
  8
0
390
0
100
AcDbVertex
100
AcDb3dPolylineVertex
 10
143.114517
 20
121.52494
 30
0.0
 70
    48
  0
VERTEX
  5
217
100
AcDbEntity
  8
0
390
0
100
AcDbVertex
100
AcDb3dPolylineVertex
 10
143.114517
 20
121.52494
 30
0.0
 70
    48
  0
VERTEX
  5
218
100
AcDbEntity
  8
0
390
0
100
AcDbVertex
100
AcDb3dPolylineVertex
 10
143.114197
 20
121.170357
 30
0.0
 70
    40
  0
VERTEX
  5
219
100
AcDbEntity
  8
0
390
0
100
AcDbVertex
100
AcDb3dPolylineVertex
 10
143.114517
 20
121.52494
 30
0.0
 70
    48
  0
VERTEX
  5
21A
100
AcDbEntity
  8
0
390
0
100
AcDbVertex
100
AcDb3dPolylineVertex
 10
143.114197
 20
121.170357
 30
0.0
 70
    48
  0
VERTEX
  5
21B
100
AcDbEntity
  8
0
390
0
100
AcDbVertex
100
AcDb3dPolylineVertex
 10
143.114197
 20
121.170357
 30
0.0
 70
    48
  0
VERTEX
  5
21C
100
AcDbEntity
  8
0
390
0
100
AcDbVertex
100
AcDb3dPolylineVertex
 10
143.1138
 20
120.881233
 30
0.0
 70
    40
  0
VERTEX
  5
21D
100
AcDbEntity
  8
0
390
0
100
AcDbVertex
100
AcDb3dPolylineVertex
 10
143.114197
 20
121.170357
 30
0.0
 70
    48
  0
VERTEX
  5
21E
100
AcDbEntity
  8
0
390
0
100
AcDbVertex
100
AcDb3dPolylineVertex
 10
143.1138
 20
120.881233
 30
0.0
 70
    48
  0
VERTEX
  5
21F
100
AcDbEntity
  8
0
390
0
100
AcDbVertex
100
AcDb3dPolylineVertex
 10
143.1138
 20
120.881233
 30
0.0
 70
    48
  0
VERTEX
  5
220
100
AcDbEntity
  8
0
390
0
100
AcDbVertex
100
AcDb3dPolylineVertex
 10
143.113373
 20
120.667366
 30
0.0
 70
    40
  0
VERTEX
  5
221
100
AcDbEntity
  8
0
390
0
100
AcDbVertex
100
AcDb3dPolylineVertex
 10
143.1138
 20
120.881233
 30
0.0
 70
    48
  0
VERTEX
  5
222
100
AcDbEntity
  8
0
390
0
100
AcDbVertex
100
AcDb3dPolylineVertex
 10
143.113373
 20
120.667366
 30
0.0
 70
    48
  0
VERTEX
  5
223
100
AcDbEntity
  8
0
390
0
100
AcDbVertex
100
AcDb3dPolylineVertex
 10
143.113373
 20
120.667366
 30
0.0
 70
    48
  0
VERTEX
  5
224
100
AcDbEntity
  8
0
390
0
100
AcDbVertex
100
AcDb3dPolylineVertex
 10
143.1129
 20
120.536049
 30
0.0
 70
    40
  0
VERTEX
  5
225
100
AcDbEntity
  8
0
390
0
100
AcDbVertex
100
AcDb3dPolylineVertex
 10
143.113373
 20
120.667366
 30
0.0
 70
    48
  0
VERTEX
  5
226
100
AcDbEntity
  8
0
390
0
100
AcDbVertex
100
AcDb3dPolylineVertex
 10
143.1129
 20
120.536049
 30
0.0
 70
    48
  0
VERTEX
  5
227
100
AcDbEntity
  8
0
390
0
100
AcDbVertex
100
AcDb3dPolylineVertex
 10
143.1129
 20
120.536049
 30
0.0
 70
    48
  0
VERTEX
  5
228
100
AcDbEntity
  8
0
390
0
100
AcDbVertex
100
AcDb3dPolylineVertex
 10
143.112411
 20
120.491798
 30
0.0
 70
    40
  0
VERTEX
  5
229
100
AcDbEntity
  8
0
390
0
100
AcDbVertex
100
AcDb3dPolylineVertex
 10
143.1129
 20
120.536049
 30
0.0
 70
    48
  0
VERTEX
  5
22A
100
AcDbEntity
  8
0
390
0
100
AcDbVertex
100
AcDb3dPolylineVertex
 10
143.112411
 20
120.491798
 30
0.0
 70
    48
  0
VERTEX
  5
22B
100
AcDbEntity
  8
0
390
0
100
AcDbVertex
100
AcDb3dPolylineVertex
 10
143.112411
 20
120.491798
 30
0.0
 70
    48
  0
SEQEND
  5
22C
100
AcDbEntity
  8
0
390
0
  0
POLYLINE
  5
22D
100
AcDbEntity
  8
ARMATUR
390
0
  6
DURCHGEHEND
 62
     7
100
AcDb3dPolyline
 66
     1
 10
0.0
 20
0.0
 30
0.0
 70
    12
 75
     5
  0
VERTEX
  5
22E
100
AcDbEntity
  8
0
390
0
100
AcDbVertex
100
AcDb3dPolylineVertex
 10
140.112411
 20
120.616798
 30
0.0
 70
    48
  0
VERTEX
  5
22F
100
AcDbEntity
  8
0
390
0
100
AcDbVertex
100
AcDb3dPolylineVertex
 10
140.112411
 20
120.616798
 30
0.0
 70
    40
  0
VERTEX
  5
230
100
AcDbEntity
  8
0
390
0
100
AcDbVertex
100
AcDb3dPolylineVertex
 10
140.111938
 20
120.661507
 30
0.0
 70
    40
  0
VERTEX
  5
231
100
AcDbEntity
  8
0
390
0
100
AcDbVertex
100
AcDb3dPolylineVertex
 10
140.112411
 20
120.616798
 30
0.0
 70
    48
  0
VERTEX
  5
232
100
AcDbEntity
  8
0
390
0
100
AcDbVertex
100
AcDb3dPolylineVertex
 10
140.111938
 20
120.661507
 30
0.0
 70
    48
  0
VERTEX
  5
233
100
AcDbEntity
  8
0
390
0
100
AcDbVertex
100
AcDb3dPolylineVertex
 10
140.111938
 20
120.661507
 30
0.0
 70
    48
  0
VERTEX
  5
234
100
AcDbEntity
  8
0
390
0
100
AcDbVertex
100
AcDb3dPolylineVertex
 10
140.111481
 20
120.794075
 30
0.0
 70
    40
  0
VERTEX
  5
235
100
AcDbEntity
  8
0
390
0
100
AcDbVertex
100
AcDb3dPolylineVertex
 10
140.111938
 20
120.661507
 30
0.0
 70
    48
  0
VERTEX
  5
236
100
AcDbEntity
  8
0
390
0
100
AcDbVertex
100
AcDb3dPolylineVertex
 10
140.111481
 20
120.794075
 30
0.0
 70
    48
  0
VERTEX
  5
237
100
AcDbEntity
  8
0
390
0
100
AcDbVertex
100
AcDb3dPolylineVertex
 10
140.111481
 20
120.794075
 30
0.0
 70
    48
  0
VERTEX
  5
238
100
AcDbEntity
  8
0
390
0
100
AcDbVertex
100
AcDb3dPolylineVertex
 10
140.111069
 20
121.009682
 30
0.0
 70
    40
  0
VERTEX
  5
239
100
AcDbEntity
  8
0
390
0
100
AcDbVertex
100
AcDb3dPolylineVertex
 10
140.111481
 20
120.794075
 30
0.0
 70
    48
  0
VERTEX
  5
23A
100
AcDbEntity
  8
0
390
0
100
AcDbVertex
100
AcDb3dPolylineVertex
 10
140.111069
 20
121.009682
 30
0.0
 70
    48
  0
VERTEX
  5
23B
100
AcDbEntity
  8
0
390
0
100
AcDbVertex
100
AcDb3dPolylineVertex
 10
140.111069
 20
121.009682
 30
0.0
 70
    48
  0
VERTEX
  5
23C
100
AcDbEntity
  8
0
390
0
100
AcDbVertex
100
AcDb3dPolylineVertex
 10
140.110687
 20
121.300545
 30
0.0
 70
    40
  0
VERTEX
  5
23D
100
AcDbEntity
  8
0
390
0
100
AcDbVertex
100
AcDb3dPolylineVertex
 10
140.111069
 20
121.009682
 30
0.0
 70
    48
  0
VERTEX
  5
23E
100
AcDbEntity
  8
0
390
0
100
AcDbVertex
100
AcDb3dPolylineVertex
 10
140.110687
 20
121.300545
 30
0.0
 70
    48
  0
VERTEX
  5
23F
100
AcDbEntity
  8
0
390
0
100
AcDbVertex
100
AcDb3dPolylineVertex
 10
140.110687
 20
121.300545
 30
0.0
 70
    48
  0
VERTEX
  5
240
100
AcDbEntity
  8
0
390
0
100
AcDbVertex
100
AcDb3dPolylineVertex
 10
140.110382
 20
121.656166
 30
0.0
 70
    40
  0
VERTEX
  5
241
100
AcDbEntity
  8
0
390
0
100
AcDbVertex
100
AcDb3dPolylineVertex
 10
140.110687
 20
121.300545
 30
0.0
 70
    48
  0
VERTEX
  5
242
100
AcDbEntity
  8
0
390
0
100
AcDbVertex
100
AcDb3dPolylineVertex
 10
140.110382
 20
121.656166
 30
0.0
 70
    48
  0
VERTEX
  5
243
100
AcDbEntity
  8
0
390
0
100
AcDbVertex
100
AcDb3dPolylineVertex
 10
140.110382
 20
121.656166
 30
0.0
 70
    48
  0
VERTEX
  5
244
100
AcDbEntity
  8
0
390
0
100
AcDbVertex
100
AcDb3dPolylineVertex
 10
140.110138
 20
122.063637
 30
0.0
 70
    40
  0
VERTEX
  5
245
100
AcDbEntity
  8
0
390
0
100
AcDbVertex
100
AcDb3dPolylineVertex
 10
140.110382
 20
121.656166
 30
0.0
 70
    48
  0
VERTEX
  5
246
100
AcDbEntity
  8
0
390
0
100
AcDbVertex
100
AcDb3dPolylineVertex
 10
140.110138
 20
122.063637
 30
0.0
 70
    48
  0
VERTEX
  5
247
100
AcDbEntity
  8
0
390
0
100
AcDbVertex
100
AcDb3dPolylineVertex
 10
140.110138
 20
122.063637
 30
0.0
 70
    48
  0
VERTEX
  5
248
100
AcDbEntity
  8
0
390
0
100
AcDbVertex
100
AcDb3dPolylineVertex
 10
140.109985
 20
122.508278
 30
0.0
 70
    40
  0
VERTEX
  5
249
100
AcDbEntity
  8
0
390
0
100
AcDbVertex
100
AcDb3dPolylineVertex
 10
140.110138
 20
122.063637
 30
0.0
 70
    48
  0
VERTEX
  5
24A
100
AcDbEntity
  8
0
390
0
100
AcDbVertex
100
AcDb3dPolylineVertex
 10
140.109985
 20
122.508278
 30
0.0
 70
    48
  0
VERTEX
  5
24B
100
AcDbEntity
  8
0
390
0
100
AcDbVertex
100
AcDb3dPolylineVertex
 10
140.109985
 20
122.508278
 30
0.0
 70
    48
  0
VERTEX
  5
24C
100
AcDbEntity
  8
0
390
0
100
AcDbVertex
100
AcDb3dPolylineVertex
 10
140.109909
 20
122.974037
 30
0.0
 70
    40
  0
VERTEX
  5
24D
100
AcDbEntity
  8
0
390
0
100
AcDbVertex
100
AcDb3dPolylineVertex
 10
140.109985
 20
122.508278
 30
0.0
 70
    48
  0
VERTEX
  5
24E
100
AcDbEntity
  8
0
390
0
100
AcDbVertex
100
AcDb3dPolylineVertex
 10
140.109909
 20
122.974037
 30
0.0
 70
    48
  0
VERTEX
  5
24F
100
AcDbEntity
  8
0
390
0
100
AcDbVertex
100
AcDb3dPolylineVertex
 10
140.109909
 20
122.974037
 30
0.0
 70
    48
  0
VERTEX
  5
250
100
AcDbEntity
  8
0
390
0
100
AcDbVertex
100
AcDb3dPolylineVertex
 10
140.10994
 20
123.444008
 30
0.0
 70
    40
  0
VERTEX
  5
251
100
AcDbEntity
  8
0
390
0
100
AcDbVertex
100
AcDb3dPolylineVertex
 10
140.109909
 20
122.974037
 30
0.0
 70
    48
  0
VERTEX
  5
252
100
AcDbEntity
  8
0
390
0
100
AcDbVertex
100
AcDb3dPolylineVertex
 10
140.10994
 20
123.444008
 30
0.0
 70
    48
  0
VERTEX
  5
253
100
AcDbEntity
  8
0
390
0
100
AcDbVertex
100
AcDb3dPolylineVertex
 10
140.10994
 20
123.444008
 30
0.0
 70
    48
  0
VERTEX
  5
254
100
AcDbEntity
  8
0
390
0
100
AcDbVertex
100
AcDb3dPolylineVertex
 10
140.110046
 20
123.901283
 30
0.0
 70
    40
  0
VERTEX
  5
255
100
AcDbEntity
  8
0
390
0
100
AcDbVertex
100
AcDb3dPolylineVertex
 10
140.10994
 20
123.444008
 30
0.0
 70
    48
  0
VERTEX
  5
256
100
AcDbEntity
  8
0
390
0
100
AcDbVertex
100
AcDb3dPolylineVertex
 10
140.110046
 20
123.901283
 30
0.0
 70
    48
  0
VERTEX
  5
257
100
AcDbEntity
  8
0
390
0
100
AcDbVertex
100
AcDb3dPolylineVertex
 10
140.110046
 20
123.901283
 30
0.0
 70
    48
  0
VERTEX
  5
258
100
AcDbEntity
  8
0
390
0
100
AcDbVertex
100
AcDb3dPolylineVertex
 10
140.110245
 20
124.329292
 30
0.0
 70
    40
  0
VERTEX
  5
259
100
AcDbEntity
  8
0
390
0
100
AcDbVertex
100
AcDb3dPolylineVertex
 10
140.110046
 20
123.901283
 30
0.0
 70
    48
  0
VERTEX
  5
25A
100
AcDbEntity
  8
0
390
0
100
AcDbVertex
100
AcDb3dPolylineVertex
 10
140.110245
 20
124.329292
 30
0.0
 70
    48
  0
VERTEX
  5
25B
100
AcDbEntity
  8
0
390
0
100
AcDbVertex
100
AcDb3dPolylineVertex
 10
140.110245
 20
124.329292
 30
0.0
 70
    48
  0
VERTEX
  5
25C
100
AcDbEntity
  8
0
390
0
100
AcDbVertex
100
AcDb3dPolylineVertex
 10
140.110519
 20
124.712563
 30
0.0
 70
    40
  0
VERTEX
  5
25D
100
AcDbEntity
  8
0
390
0
100
AcDbVertex
100
AcDb3dPolylineVertex
 10
140.110245
 20
124.329292
 30
0.0
 70
    48
  0
VERTEX
  5
25E
100
AcDbEntity
  8
0
390
0
100
AcDbVertex
100
AcDb3dPolylineVertex
 10
140.110519
 20
124.712563
 30
0.0
 70
    48
  0
VERTEX
  5
25F
100
AcDbEntity
  8
0
390
0
100
AcDbVertex
100
AcDb3dPolylineVertex
 10
140.110519
 20
124.712563
 30
0.0
 70
    48
  0
VERTEX
  5
260
100
AcDbEntity
  8
0
390
0
100
AcDbVertex
100
AcDb3dPolylineVertex
 10
140.11087
 20
125.03727
 30
0.0
 70
    40
  0
VERTEX
  5
261
100
AcDbEntity
  8
0
390
0
100
AcDbVertex
100
AcDb3dPolylineVertex
 10
140.110519
 20
124.712563
 30
0.0
 70
    48
  0
VERTEX
  5
262
100
AcDbEntity
  8
0
390
0
100
AcDbVertex
100
AcDb3dPolylineVertex
 10
140.11087
 20
125.03727
 30
0.0
 70
    48
  0
VERTEX
  5
263
100
AcDbEntity
  8
0
390
0
100
AcDbVertex
100
AcDb3dPolylineVertex
 10
140.11087
 20
125.03727
 30
0.0
 70
    48
  0
VERTEX
  5
264
100
AcDbEntity
  8
0
390
0
100
AcDbVertex
100
AcDb3dPolylineVertex
 10
140.111267
 20
125.291664
 30
0.0
 70
    40
  0
VERTEX
  5
265
100
AcDbEntity
  8
0
390
0
100
AcDbVertex
100
AcDb3dPolylineVertex
 10
140.11087
 20
125.03727
 30
0.0
 70
    48
  0
VERTEX
  5
266
100
AcDbEntity
  8
0
390
0
100
AcDbVertex
100
AcDb3dPolylineVertex
 10
140.111267
 20
125.291664
 30
0.0
 70
    48
  0
VERTEX
  5
267
100
AcDbEntity
  8
0
390
0
100
AcDbVertex
100
AcDb3dPolylineVertex
 10
140.111267
 20
125.291664
 30
0.0
 70
    48
  0
VERTEX
  5
268
100
AcDbEntity
  8
0
390
0
100
AcDbVertex
100
AcDb3dPolylineVertex
 10
140.11171
 20
125.46653
 30
0.0
 70
    40
  0
VERTEX
  5
269
100
AcDbEntity
  8
0
390
0
100
AcDbVertex
100
AcDb3dPolylineVertex
 10
140.111267
 20
125.291664
 30
0.0
 70
    48
  0
VERTEX
  5
26A
100
AcDbEntity
  8
0
390
0
100
AcDbVertex
100
AcDb3dPolylineVertex
 10
140.11171
 20
125.46653
 30
0.0
 70
    48
  0
VERTEX
  5
26B
100
AcDbEntity
  8
0
390
0
100
AcDbVertex
100
AcDb3dPolylineVertex
 10
140.11171
 20
125.46653
 30
0.0
 70
    48
  0
VERTEX
  5
26C
100
AcDbEntity
  8
0
390
0
100
AcDbVertex
100
AcDb3dPolylineVertex
 10
140.112183
 20
125.55558
 30
0.0
 70
    40
  0
VERTEX
  5
26D
100
AcDbEntity
  8
0
390
0
100
AcDbVertex
100
AcDb3dPolylineVertex
 10
140.11171
 20
125.46653
 30
0.0
 70
    48
  0
VERTEX
  5
26E
100
AcDbEntity
  8
0
390
0
100
AcDbVertex
100
AcDb3dPolylineVertex
 10
140.112183
 20
125.55558
 30
0.0
 70
    48
  0
VERTEX
  5
26F
100
AcDbEntity
  8
0
390
0
100
AcDbVertex
100
AcDb3dPolylineVertex
 10
140.112183
 20
125.55558
 30
0.0
 70
    48
  0
VERTEX
  5
270
100
AcDbEntity
  8
0
390
0
100
AcDbVertex
100
AcDb3dPolylineVertex
 10
140.112656
 20
125.55558
 30
0.0
 70
    40
  0
VERTEX
  5
271
100
AcDbEntity
  8
0
390
0
100
AcDbVertex
100
AcDb3dPolylineVertex
 10
140.112183
 20
125.55558
 30
0.0
 70
    48
  0
VERTEX
  5
272
100
AcDbEntity
  8
0
390
0
100
AcDbVertex
100
AcDb3dPolylineVertex
 10
140.112656
 20
125.55558
 30
0.0
 70
    48
  0
VERTEX
  5
273
100
AcDbEntity
  8
0
390
0
100
AcDbVertex
100
AcDb3dPolylineVertex
 10
140.112656
 20
125.55558
 30
0.0
 70
    48
  0
VERTEX
  5
274
100
AcDbEntity
  8
0
390
0
100
AcDbVertex
100
AcDb3dPolylineVertex
 10
140.113129
 20
125.46653
 30
0.0
 70
    40
  0
VERTEX
  5
275
100
AcDbEntity
  8
0
390
0
100
AcDbVertex
100
AcDb3dPolylineVertex
 10
140.112656
 20
125.55558
 30
0.0
 70
    48
  0
VERTEX
  5
276
100
AcDbEntity
  8
0
390
0
100
AcDbVertex
100
AcDb3dPolylineVertex
 10
140.113129
 20
125.46653
 30
0.0
 70
    48
  0
VERTEX
  5
277
100
AcDbEntity
  8
0
390
0
100
AcDbVertex
100
AcDb3dPolylineVertex
 10
140.113129
 20
125.46653
 30
0.0
 70
    48
  0
VERTEX
  5
278
100
AcDbEntity
  8
0
390
0
100
AcDbVertex
100
AcDb3dPolylineVertex
 10
140.113571
 20
125.291664
 30
0.0
 70
    40
  0
VERTEX
  5
279
100
AcDbEntity
  8
0
390
0
100
AcDbVertex
100
AcDb3dPolylineVertex
 10
140.113129
 20
125.46653
 30
0.0
 70
    48
  0
VERTEX
  5
27A
100
AcDbEntity
  8
0
390
0
100
AcDbVertex
100
AcDb3dPolylineVertex
 10
140.113571
 20
125.291664
 30
0.0
 70
    48
  0
VERTEX
  5
27B
100
AcDbEntity
  8
0
390
0
100
AcDbVertex
100
AcDb3dPolylineVertex
 10
140.113571
 20
125.291664
 30
0.0
 70
    48
  0
VERTEX
  5
27C
100
AcDbEntity
  8
0
390
0
100
AcDbVertex
100
AcDb3dPolylineVertex
 10
140.113968
 20
125.03727
 30
0.0
 70
    40
  0
VERTEX
  5
27D
100
AcDbEntity
  8
0
390
0
100
AcDbVertex
100
AcDb3dPolylineVertex
 10
140.113571
 20
125.291664
 30
0.0
 70
    48
  0
VERTEX
  5
27E
100
AcDbEntity
  8
0
390
0
100
AcDbVertex
100
AcDb3dPolylineVertex
 10
140.113968
 20
125.03727
 30
0.0
 70
    48
  0
VERTEX
  5
27F
100
AcDbEntity
  8
0
390
0
100
AcDbVertex
100
AcDb3dPolylineVertex
 10
140.113968
 20
125.03727
 30
0.0
 70
    48
  0
VERTEX
  5
280
100
AcDbEntity
  8
0
390
0
100
AcDbVertex
100
AcDb3dPolylineVertex
 10
140.114319
 20
124.712563
 30
0.0
 70
    40
  0
VERTEX
  5
281
100
AcDbEntity
  8
0
390
0
100
AcDbVertex
100
AcDb3dPolylineVertex
 10
140.113968
 20
125.03727
 30
0.0
 70
    48
  0
VERTEX
  5
282
100
AcDbEntity
  8
0
390
0
100
AcDbVertex
100
AcDb3dPolylineVertex
 10
140.114319
 20
124.712563
 30
0.0
 70
    48
  0
VERTEX
  5
283
100
AcDbEntity
  8
0
390
0
100
AcDbVertex
100
AcDb3dPolylineVertex
 10
140.114319
 20
124.712563
 30
0.0
 70
    48
  0
VERTEX
  5
284
100
AcDbEntity
  8
0
390
0
100
AcDbVertex
100
AcDb3dPolylineVertex
 10
140.114594
 20
124.329292
 30
0.0
 70
    40
  0
VERTEX
  5
285
100
AcDbEntity
  8
0
390
0
100
AcDbVertex
100
AcDb3dPolylineVertex
 10
140.114319
 20
124.712563
 30
0.0
 70
    48
  0
VERTEX
  5
286
100
AcDbEntity
  8
0
390
0
100
AcDbVertex
100
AcDb3dPolylineVertex
 10
140.114594
 20
124.329292
 30
0.0
 70
    48
  0
VERTEX
  5
287
100
AcDbEntity
  8
0
390
0
100
AcDbVertex
100
AcDb3dPolylineVertex
 10
140.114594
 20
124.329292
 30
0.0
 70
    48
  0
VERTEX
  5
288
100
AcDbEntity
  8
0
390
0
100
AcDbVertex
100
AcDb3dPolylineVertex
 10
140.114792
 20
123.901283
 30
0.0
 70
    40
  0
VERTEX
  5
289
100
AcDbEntity
  8
0
390
0
100
AcDbVertex
100
AcDb3dPolylineVertex
 10
140.114594
 20
124.329292
 30
0.0
 70
    48
  0
VERTEX
  5
28A
100
AcDbEntity
  8
0
390
0
100
AcDbVertex
100
AcDb3dPolylineVertex
 10
140.114792
 20
123.901283
 30
0.0
 70
    48
  0
VERTEX
  5
28B
100
AcDbEntity
  8
0
390
0
100
AcDbVertex
100
AcDb3dPolylineVertex
 10
140.114792
 20
123.901283
 30
0.0
 70
    48
  0
VERTEX
  5
28C
100
AcDbEntity
  8
0
390
0
100
AcDbVertex
100
AcDb3dPolylineVertex
 10
140.114899
 20
123.444008
 30
0.0
 70
    40
  0
VERTEX
  5
28D
100
AcDbEntity
  8
0
390
0
100
AcDbVertex
100
AcDb3dPolylineVertex
 10
140.114792
 20
123.901283
 30
0.0
 70
    48
  0
VERTEX
  5
28E
100
AcDbEntity
  8
0
390
0
100
AcDbVertex
100
AcDb3dPolylineVertex
 10
140.114899
 20
123.444008
 30
0.0
 70
    48
  0
VERTEX
  5
28F
100
AcDbEntity
  8
0
390
0
100
AcDbVertex
100
AcDb3dPolylineVertex
 10
140.114899
 20
123.444008
 30
0.0
 70
    48
  0
VERTEX
  5
290
100
AcDbEntity
  8
0
390
0
100
AcDbVertex
100
AcDb3dPolylineVertex
 10
140.114914
 20
122.974037
 30
0.0
 70
    40
  0
VERTEX
  5
291
100
AcDbEntity
  8
0
390
0
100
AcDbVertex
100
AcDb3dPolylineVertex
 10
140.114899
 20
123.444008
 30
0.0
 70
    48
  0
VERTEX
  5
292
100
AcDbEntity
  8
0
390
0
100
AcDbVertex
100
AcDb3dPolylineVertex
 10
140.114914
 20
122.974037
 30
0.0
 70
    48
  0
VERTEX
  5
293
100
AcDbEntity
  8
0
390
0
100
AcDbVertex
100
AcDb3dPolylineVertex
 10
140.114914
 20
122.974037
 30
0.0
 70
    48
  0
VERTEX
  5
294
100
AcDbEntity
  8
0
390
0
100
AcDbVertex
100
AcDb3dPolylineVertex
 10
140.114853
 20
122.508278
 30
0.0
 70
    40
  0
VERTEX
  5
295
100
AcDbEntity
  8
0
390
0
100
AcDbVertex
100
AcDb3dPolylineVertex
 10
140.114914
 20
122.974037
 30
0.0
 70
    48
  0
VERTEX
  5
296
100
AcDbEntity
  8
0
390
0
100
AcDbVertex
100
AcDb3dPolylineVertex
 10
140.114853
 20
122.508278
 30
0.0
 70
    48
  0
VERTEX
  5
297
100
AcDbEntity
  8
0
390
0
100
AcDbVertex
100
AcDb3dPolylineVertex
 10
140.114853
 20
122.508278
 30
0.0
 70
    48
  0
VERTEX
  5
298
100
AcDbEntity
  8
0
390
0
100
AcDbVertex
100
AcDb3dPolylineVertex
 10
140.1147
 20
122.063637
 30
0.0
 70
    40
  0
VERTEX
  5
299
100
AcDbEntity
  8
0
390
0
100
AcDbVertex
100
AcDb3dPolylineVertex
 10
140.114853
 20
122.508278
 30
0.0
 70
    48
  0
VERTEX
  5
29A
100
AcDbEntity
  8
0
390
0
100
AcDbVertex
100
AcDb3dPolylineVertex
 10
140.1147
 20
122.063637
 30
0.0
 70
    48
  0
VERTEX
  5
29B
100
AcDbEntity
  8
0
390
0
100
AcDbVertex
100
AcDb3dPolylineVertex
 10
140.1147
 20
122.063637
 30
0.0
 70
    48
  0
VERTEX
  5
29C
100
AcDbEntity
  8
0
390
0
100
AcDbVertex
100
AcDb3dPolylineVertex
 10
140.114456
 20
121.656166
 30
0.0
 70
    40
  0
VERTEX
  5
29D
100
AcDbEntity
  8
0
390
0
100
AcDbVertex
100
AcDb3dPolylineVertex
 10
140.1147
 20
122.063637
 30
0.0
 70
    48
  0
VERTEX
  5
29E
100
AcDbEntity
  8
0
390
0
100
AcDbVertex
100
AcDb3dPolylineVertex
 10
140.114456
 20
121.656166
 30
0.0
 70
    48
  0
VERTEX
  5
29F
100
AcDbEntity
  8
0
390
0
100
AcDbVertex
100
AcDb3dPolylineVertex
 10
140.114456
 20
121.656166
 30
0.0
 70
    48
  0
VERTEX
  5
2A0
100
AcDbEntity
  8
0
390
0
100
AcDbVertex
100
AcDb3dPolylineVertex
 10
140.114151
 20
121.300545
 30
0.0
 70
    40
  0
VERTEX
  5
2A1
100
AcDbEntity
  8
0
390
0
100
AcDbVertex
100
AcDb3dPolylineVertex
 10
140.114456
 20
121.656166
 30
0.0
 70
    48
  0
VERTEX
  5
2A2
100
AcDbEntity
  8
0
390
0
100
AcDbVertex
100
AcDb3dPolylineVertex
 10
140.114151
 20
121.300545
 30
0.0
 70
    48
  0
VERTEX
  5
2A3
100
AcDbEntity
  8
0
390
0
100
AcDbVertex
100
AcDb3dPolylineVertex
 10
140.114151
 20
121.300545
 30
0.0
 70
    48
  0
VERTEX
  5
2A4
100
AcDbEntity
  8
0
390
0
100
AcDbVertex
100
AcDb3dPolylineVertex
 10
140.11377
 20
121.009682
 30
0.0
 70
    40
  0
VERTEX
  5
2A5
100
AcDbEntity
  8
0
390
0
100
AcDbVertex
100
AcDb3dPolylineVertex
 10
140.114151
 20
121.300545
 30
0.0
 70
    48
  0
VERTEX
  5
2A6
100
AcDbEntity
  8
0
390
0
100
AcDbVertex
100
AcDb3dPolylineVertex
 10
140.11377
 20
121.009682
 30
0.0
 70
    48
  0
VERTEX
  5
2A7
100
AcDbEntity
  8
0
390
0
100
AcDbVertex
100
AcDb3dPolylineVertex
 10
140.11377
 20
121.009682
 30
0.0
 70
    48
  0
VERTEX
  5
2A8
100
AcDbEntity
  8
0
390
0
100
AcDbVertex
100
AcDb3dPolylineVertex
 10
140.113342
 20
120.794075
 30
0.0
 70
    40
  0
VERTEX
  5
2A9
100
AcDbEntity
  8
0
390
0
100
AcDbVertex
100
AcDb3dPolylineVertex
 10
140.11377
 20
121.009682
 30
0.0
 70
    48
  0
VERTEX
  5
2AA
100
AcDbEntity
  8
0
390
0
100
AcDbVertex
100
AcDb3dPolylineVertex
 10
140.113342
 20
120.794075
 30
0.0
 70
    48
  0
VERTEX
  5
2AB
100
AcDbEntity
  8
0
390
0
100
AcDbVertex
100
AcDb3dPolylineVertex
 10
140.113342
 20
120.794075
 30
0.0
 70
    48
  0
VERTEX
  5
2AC
100
AcDbEntity
  8
0
390
0
100
AcDbVertex
100
AcDb3dPolylineVertex
 10
140.1129
 20
120.661507
 30
0.0
 70
    40
  0
VERTEX
  5
2AD
100
AcDbEntity
  8
0
390
0
100
AcDbVertex
100
AcDb3dPolylineVertex
 10
140.113342
 20
120.794075
 30
0.0
 70
    48
  0
VERTEX
  5
2AE
100
AcDbEntity
  8
0
390
0
100
AcDbVertex
100
AcDb3dPolylineVertex
 10
140.1129
 20
120.661507
 30
0.0
 70
    48
  0
VERTEX
  5
2AF
100
AcDbEntity
  8
0
390
0
100
AcDbVertex
100
AcDb3dPolylineVertex
 10
140.1129
 20
120.661507
 30
0.0
 70
    48
  0
VERTEX
  5
2B0
100
AcDbEntity
  8
0
390
0
100
AcDbVertex
100
AcDb3dPolylineVertex
 10
140.112411
 20
120.616798
 30
0.0
 70
    40
  0
VERTEX
  5
2B1
100
AcDbEntity
  8
0
390
0
100
AcDbVertex
100
AcDb3dPolylineVertex
 10
140.1129
 20
120.661507
 30
0.0
 70
    48
  0
VERTEX
  5
2B2
100
AcDbEntity
  8
0
390
0
100
AcDbVertex
100
AcDb3dPolylineVertex
 10
140.112411
 20
120.616798
 30
0.0
 70
    48
  0
VERTEX
  5
2B3
100
AcDbEntity
  8
0
390
0
100
AcDbVertex
100
AcDb3dPolylineVertex
 10
140.112411
 20
120.616798
 30
0.0
 70
    48
  0
SEQEND
  5
2B4
100
AcDbEntity
  8
0
390
0
  0
POLYLINE
  5
2B5
100
AcDbEntity
  8
ARMATUR
390
0
  6
DURCHGEHEND
 62
     7
100
AcDb3dPolyline
 66
     1
 10
0.0
 20
0.0
 30
0.0
 70
    12
 75
     5
  0
VERTEX
  5
2B6
100
AcDbEntity
  8
0
390
0
100
AcDbVertex
100
AcDb3dPolylineVertex
 10
140.112411
 20
121.467384
 30
0.0
 70
    48
  0
VERTEX
  5
2B7
100
AcDbEntity
  8
0
390
0
100
AcDbVertex
100
AcDb3dPolylineVertex
 10
140.112411
 20
121.467384
 30
0.0
 70
    40
  0
VERTEX
  5
2B8
100
AcDbEntity
  8
0
390
0
100
AcDbVertex
100
AcDb3dPolylineVertex
 10
140.112045
 20
121.511177
 30
0.0
 70
    40
  0
VERTEX
  5
2B9
100
AcDbEntity
  8
0
390
0
100
AcDbVertex
100
AcDb3dPolylineVertex
 10
140.112411
 20
121.467384
 30
0.0
 70
    48
  0
VERTEX
  5
2BA
100
AcDbEntity
  8
0
390
0
100
AcDbVertex
100
AcDb3dPolylineVertex
 10
140.112045
 20
121.511177
 30
0.0
 70
    48
  0
VERTEX
  5
2BB
100
AcDbEntity
  8
0
390
0
100
AcDbVertex
100
AcDb3dPolylineVertex
 10
140.112045
 20
121.511177
 30
0.0
 70
    48
  0
VERTEX
  5
2BC
100
AcDbEntity
  8
0
390
0
100
AcDbVertex
100
AcDb3dPolylineVertex
 10
140.111679
 20
121.640175
 30
0.0
 70
    40
  0
VERTEX
  5
2BD
100
AcDbEntity
  8
0
390
0
100
AcDbVertex
100
AcDb3dPolylineVertex
 10
140.112045
 20
121.511177
 30
0.0
 70
    48
  0
VERTEX
  5
2BE
100
AcDbEntity
  8
0
390
0
100
AcDbVertex
100
AcDb3dPolylineVertex
 10
140.111679
 20
121.640175
 30
0.0
 70
    48
  0
VERTEX
  5
2BF
100
AcDbEntity
  8
0
390
0
100
AcDbVertex
100
AcDb3dPolylineVertex
 10
140.111679
 20
121.640175
 30
0.0
 70
    48
  0
VERTEX
  5
2C0
100
AcDbEntity
  8
0
390
0
100
AcDbVertex
100
AcDb3dPolylineVertex
 10
140.111359
 20
121.84742
 30
0.0
 70
    40
  0
VERTEX
  5
2C1
100
AcDbEntity
  8
0
390
0
100
AcDbVertex
100
AcDb3dPolylineVertex
 10
140.111679
 20
121.640175
 30
0.0
 70
    48
  0
VERTEX
  5
2C2
100
AcDbEntity
  8
0
390
0
100
AcDbVertex
100
AcDb3dPolylineVertex
 10
140.111359
 20
121.84742
 30
0.0
 70
    48
  0
VERTEX
  5
2C3
100
AcDbEntity
  8
0
390
0
100
AcDbVertex
100
AcDb3dPolylineVertex
 10
140.111359
 20
121.84742
 30
0.0
 70
    48
  0
VERTEX
  5
2C4
100
AcDbEntity
  8
0
390
0
100
AcDbVertex
100
AcDb3dPolylineVertex
 10
140.111099
 20
122.121773
 30
0.0
 70
    40
  0
VERTEX
  5
2C5
100
AcDbEntity
  8
0
390
0
100
AcDbVertex
100
AcDb3dPolylineVertex
 10
140.111359
 20
121.84742
 30
0.0
 70
    48
  0
VERTEX
  5
2C6
100
AcDbEntity
  8
0
390
0
100
AcDbVertex
100
AcDb3dPolylineVertex
 10
140.111099
 20
122.121773
 30
0.0
 70
    48
  0
VERTEX
  5
2C7
100
AcDbEntity
  8
0
390
0
100
AcDbVertex
100
AcDb3dPolylineVertex
 10
140.111099
 20
122.121773
 30
0.0
 70
    48
  0
VERTEX
  5
2C8
100
AcDbEntity
  8
0
390
0
100
AcDbVertex
100
AcDb3dPolylineVertex
 10
140.110916
 20
122.448402
 30
0.0
 70
    40
  0
VERTEX
  5
2C9
100
AcDbEntity
  8
0
390
0
100
AcDbVertex
100
AcDb3dPolylineVertex
 10
140.111099
 20
122.121773
 30
0.0
 70
    48
  0
VERTEX
  5
2CA
100
AcDbEntity
  8
0
390
0
100
AcDbVertex
100
AcDb3dPolylineVertex
 10
140.110916
 20
122.448402
 30
0.0
 70
    48
  0
VERTEX
  5
2CB
100
AcDbEntity
  8
0
390
0
100
AcDbVertex
100
AcDb3dPolylineVertex
 10
140.110916
 20
122.448402
 30
0.0
 70
    48
  0
VERTEX
  5
2CC
100
AcDbEntity
  8
0
390
0
100
AcDbVertex
100
AcDb3dPolylineVertex
 10
140.110794
 20
122.809731
 30
0.0
 70
    40
  0
VERTEX
  5
2CD
100
AcDbEntity
  8
0
390
0
100
AcDbVertex
100
AcDb3dPolylineVertex
 10
140.110916
 20
122.448402
 30
0.0
 70
    48
  0
VERTEX
  5
2CE
100
AcDbEntity
  8
0
390
0
100
AcDbVertex
100
AcDb3dPolylineVertex
 10
140.110794
 20
122.809731
 30
0.0
 70
    48
  0
VERTEX
  5
2CF
100
AcDbEntity
  8
0
390
0
100
AcDbVertex
100
AcDb3dPolylineVertex
 10
140.110794
 20
122.809731
 30
0.0
 70
    48
  0
VERTEX
  5
2D0
100
AcDbEntity
  8
0
390
0
100
AcDbVertex
100
AcDb3dPolylineVertex
 10
140.110779
 20
123.186256
 30
0.0
 70
    40
  0
VERTEX
  5
2D1
100
AcDbEntity
  8
0
390
0
100
AcDbVertex
100
AcDb3dPolylineVertex
 10
140.110794
 20
122.809731
 30
0.0
 70
    48
  0
VERTEX
  5
2D2
100
AcDbEntity
  8
0
390
0
100
AcDbVertex
100
AcDb3dPolylineVertex
 10
140.110779
 20
123.186256
 30
0.0
 70
    48
  0
VERTEX
  5
2D3
100
AcDbEntity
  8
0
390
0
100
AcDbVertex
100
AcDb3dPolylineVertex
 10
140.110779
 20
123.186256
 30
0.0
 70
    48
  0
VERTEX
  5
2D4
100
AcDbEntity
  8
0
390
0
100
AcDbVertex
100
AcDb3dPolylineVertex
 10
140.11084
 20
123.557686
 30
0.0
 70
    40
  0
VERTEX
  5
2D5
100
AcDbEntity
  8
0
390
0
100
AcDbVertex
100
AcDb3dPolylineVertex
 10
140.110779
 20
123.186256
 30
0.0
 70
    48
  0
VERTEX
  5
2D6
100
AcDbEntity
  8
0
390
0
100
AcDbVertex
100
AcDb3dPolylineVertex
 10
140.11084
 20
123.557686
 30
0.0
 70
    48
  0
VERTEX
  5
2D7
100
AcDbEntity
  8
0
390
0
100
AcDbVertex
100
AcDb3dPolylineVertex
 10
140.11084
 20
123.557686
 30
0.0
 70
    48
  0
VERTEX
  5
2D8
100
AcDbEntity
  8
0
390
0
100
AcDbVertex
100
AcDb3dPolylineVertex
 10
140.110992
 20
123.903999
 30
0.0
 70
    40
  0
VERTEX
  5
2D9
100
AcDbEntity
  8
0
390
0
100
AcDbVertex
100
AcDb3dPolylineVertex
 10
140.11084
 20
123.557686
 30
0.0
 70
    48
  0
VERTEX
  5
2DA
100
AcDbEntity
  8
0
390
0
100
AcDbVertex
100
AcDb3dPolylineVertex
 10
140.110992
 20
123.903999
 30
0.0
 70
    48
  0
VERTEX
  5
2DB
100
AcDbEntity
  8
0
390
0
100
AcDbVertex
100
AcDb3dPolylineVertex
 10
140.110992
 20
123.903999
 30
0.0
 70
    48
  0
VERTEX
  5
2DC
100
AcDbEntity
  8
0
390
0
100
AcDbVertex
100
AcDb3dPolylineVertex
 10
140.111221
 20
124.20652
 30
0.0
 70
    40
  0
VERTEX
  5
2DD
100
AcDbEntity
  8
0
390
0
100
AcDbVertex
100
AcDb3dPolylineVertex
 10
140.110992
 20
123.903999
 30
0.0
 70
    48
  0
VERTEX
  5
2DE
100
AcDbEntity
  8
0
390
0
100
AcDbVertex
100
AcDb3dPolylineVertex
 10
140.111221
 20
124.20652
 30
0.0
 70
    48
  0
VERTEX
  5
2DF
100
AcDbEntity
  8
0
390
0
100
AcDbVertex
100
AcDb3dPolylineVertex
 10
140.111221
 20
124.20652
 30
0.0
 70
    48
  0
VERTEX
  5
2E0
100
AcDbEntity
  8
0
390
0
100
AcDbVertex
100
AcDb3dPolylineVertex
 10
140.111511
 20
124.448982
 30
0.0
 70
    40
  0
VERTEX
  5
2E1
100
AcDbEntity
  8
0
390
0
100
AcDbVertex
100
AcDb3dPolylineVertex
 10
140.111221
 20
124.20652
 30
0.0
 70
    48
  0
VERTEX
  5
2E2
100
AcDbEntity
  8
0
390
0
100
AcDbVertex
100
AcDb3dPolylineVertex
 10
140.111511
 20
124.448982
 30
0.0
 70
    48
  0
VERTEX
  5
2E3
100
AcDbEntity
  8
0
390
0
100
AcDbVertex
100
AcDb3dPolylineVertex
 10
140.111511
 20
124.448982
 30
0.0
 70
    48
  0
VERTEX
  5
2E4
100
AcDbEntity
  8
0
390
0
100
AcDbVertex
100
AcDb3dPolylineVertex
 10
140.111862
 20
124.618233
 30
0.0
 70
    40
  0
VERTEX
  5
2E5
100
AcDbEntity
  8
0
390
0
100
AcDbVertex
100
AcDb3dPolylineVertex
 10
140.111511
 20
124.448982
 30
0.0
 70
    48
  0
VERTEX
  5
2E6
100
AcDbEntity
  8
0
390
0
100
AcDbVertex
100
AcDb3dPolylineVertex
 10
140.111862
 20
124.618233
 30
0.0
 70
    48
  0
VERTEX
  5
2E7
100
AcDbEntity
  8
0
390
0
100
AcDbVertex
100
AcDb3dPolylineVertex
 10
140.111862
 20
124.618233
 30
0.0
 70
    48
  0
VERTEX
  5
2E8
100
AcDbEntity
  8
0
390
0
100
AcDbVertex
100
AcDb3dPolylineVertex
 10
140.112228
 20
124.705208
 30
0.0
 70
    40
  0
VERTEX
  5
2E9
100
AcDbEntity
  8
0
390
0
100
AcDbVertex
100
AcDb3dPolylineVertex
 10
140.111862
 20
124.618233
 30
0.0
 70
    48
  0
VERTEX
  5
2EA
100
AcDbEntity
  8
0
390
0
100
AcDbVertex
100
AcDb3dPolylineVertex
 10
140.112228
 20
124.705208
 30
0.0
 70
    48
  0
VERTEX
  5
2EB
100
AcDbEntity
  8
0
390
0
100
AcDbVertex
100
AcDb3dPolylineVertex
 10
140.112228
 20
124.705208
 30
0.0
 70
    48
  0
VERTEX
  5
2EC
100
AcDbEntity
  8
0
390
0
100
AcDbVertex
100
AcDb3dPolylineVertex
 10
140.11261
 20
124.705208
 30
0.0
 70
    40
  0
VERTEX
  5
2ED
100
AcDbEntity
  8
0
390
0
100
AcDbVertex
100
AcDb3dPolylineVertex
 10
140.112228
 20
124.705208
 30
0.0
 70
    48
  0
VERTEX
  5
2EE
100
AcDbEntity
  8
0
390
0
100
AcDbVertex
100
AcDb3dPolylineVertex
 10
140.11261
 20
124.705208
 30
0.0
 70
    48
  0
VERTEX
  5
2EF
100
AcDbEntity
  8
0
390
0
100
AcDbVertex
100
AcDb3dPolylineVertex
 10
140.11261
 20
124.705208
 30
0.0
 70
    48
  0
VERTEX
  5
2F0
100
AcDbEntity
  8
0
390
0
100
AcDbVertex
100
AcDb3dPolylineVertex
 10
140.112976
 20
124.618233
 30
0.0
 70
    40
  0
VERTEX
  5
2F1
100
AcDbEntity
  8
0
390
0
100
AcDbVertex
100
AcDb3dPolylineVertex
 10
140.11261
 20
124.705208
 30
0.0
 70
    48
  0
VERTEX
  5
2F2
100
AcDbEntity
  8
0
390
0
100
AcDbVertex
100
AcDb3dPolylineVertex
 10
140.112976
 20
124.618233
 30
0.0
 70
    48
  0
VERTEX
  5
2F3
100
AcDbEntity
  8
0
390
0
100
AcDbVertex
100
AcDb3dPolylineVertex
 10
140.112976
 20
124.618233
 30
0.0
 70
    48
  0
VERTEX
  5
2F4
100
AcDbEntity
  8
0
390
0
100
AcDbVertex
100
AcDb3dPolylineVertex
 10
140.113327
 20
124.448982
 30
0.0
 70
    40
  0
VERTEX
  5
2F5
100
AcDbEntity
  8
0
390
0
100
AcDbVertex
100
AcDb3dPolylineVertex
 10
140.112976
 20
124.618233
 30
0.0
 70
    48
  0
VERTEX
  5
2F6
100
AcDbEntity
  8
0
390
0
100
AcDbVertex
100
AcDb3dPolylineVertex
 10
140.113327
 20
124.448982
 30
0.0
 70
    48
  0
VERTEX
  5
2F7
100
AcDbEntity
  8
0
390
0
100
AcDbVertex
100
AcDb3dPolylineVertex
 10
140.113327
 20
124.448982
 30
0.0
 70
    48
  0
VERTEX
  5
2F8
100
AcDbEntity
  8
0
390
0
100
AcDbVertex
100
AcDb3dPolylineVertex
 10
140.113617
 20
124.20652
 30
0.0
 70
    40
  0
VERTEX
  5
2F9
100
AcDbEntity
  8
0
390
0
100
AcDbVertex
100
AcDb3dPolylineVertex
 10
140.113327
 20
124.448982
 30
0.0
 70
    48
  0
VERTEX
  5
2FA
100
AcDbEntity
  8
0
390
0
100
AcDbVertex
100
AcDb3dPolylineVertex
 10
140.113617
 20
124.20652
 30
0.0
 70
    48
  0
VERTEX
  5
2FB
100
AcDbEntity
  8
0
390
0
100
AcDbVertex
100
AcDb3dPolylineVertex
 10
140.113617
 20
124.20652
 30
0.0
 70
    48
  0
VERTEX
  5
2FC
100
AcDbEntity
  8
0
390
0
100
AcDbVertex
100
AcDb3dPolylineVertex
 10
140.113846
 20
123.903999
 30
0.0
 70
    40
  0
VERTEX
  5
2FD
100
AcDbEntity
  8
0
390
0
100
AcDbVertex
100
AcDb3dPolylineVertex
 10
140.113617
 20
124.20652
 30
0.0
 70
    48
  0
VERTEX
  5
2FE
100
AcDbEntity
  8
0
390
0
100
AcDbVertex
100
AcDb3dPolylineVertex
 10
140.113846
 20
123.903999
 30
0.0
 70
    48
  0
VERTEX
  5
2FF
100
AcDbEntity
  8
0
390
0
100
AcDbVertex
100
AcDb3dPolylineVertex
 10
140.113846
 20
123.903999
 30
0.0
 70
    48
  0
VERTEX
  5
300
100
AcDbEntity
  8
0
390
0
100
AcDbVertex
100
AcDb3dPolylineVertex
 10
140.113998
 20
123.557686
 30
0.0
 70
    40
  0
VERTEX
  5
301
100
AcDbEntity
  8
0
390
0
100
AcDbVertex
100
AcDb3dPolylineVertex
 10
140.113846
 20
123.903999
 30
0.0
 70
    48
  0
VERTEX
  5
302
100
AcDbEntity
  8
0
390
0
100
AcDbVertex
100
AcDb3dPolylineVertex
 10
140.113998
 20
123.557686
 30
0.0
 70
    48
  0
VERTEX
  5
303
100
AcDbEntity
  8
0
390
0
100
AcDbVertex
100
AcDb3dPolylineVertex
 10
140.113998
 20
123.557686
 30
0.0
 70
    48
  0
VERTEX
  5
304
100
AcDbEntity
  8
0
390
0
100
AcDbVertex
100
AcDb3dPolylineVertex
 10
140.114059
 20
123.186256
 30
0.0
 70
    40
  0
VERTEX
  5
305
100
AcDbEntity
  8
0
390
0
100
AcDbVertex
100
AcDb3dPolylineVertex
 10
140.113998
 20
123.557686
 30
0.0
 70
    48
  0
VERTEX
  5
306
100
AcDbEntity
  8
0
390
0
100
AcDbVertex
100
AcDb3dPolylineVertex
 10
140.114059
 20
123.186256
 30
0.0
 70
    48
  0
VERTEX
  5
307
100
AcDbEntity
  8
0
390
0
100
AcDbVertex
100
AcDb3dPolylineVertex
 10
140.114059
 20
123.186256
 30
0.0
 70
    48
  0
VERTEX
  5
308
100
AcDbEntity
  8
0
390
0
100
AcDbVertex
100
AcDb3dPolylineVertex
 10
140.114044
 20
122.809731
 30
0.0
 70
    40
  0
VERTEX
  5
309
100
AcDbEntity
  8
0
390
0
100
AcDbVertex
100
AcDb3dPolylineVertex
 10
140.114059
 20
123.186256
 30
0.0
 70
    48
  0
VERTEX
  5
30A
100
AcDbEntity
  8
0
390
0
100
AcDbVertex
100
AcDb3dPolylineVertex
 10
140.114044
 20
122.809731
 30
0.0
 70
    48
  0
VERTEX
  5
30B
100
AcDbEntity
  8
0
390
0
100
AcDbVertex
100
AcDb3dPolylineVertex
 10
140.114044
 20
122.809731
 30
0.0
 70
    48
  0
VERTEX
  5
30C
100
AcDbEntity
  8
0
390
0
100
AcDbVertex
100
AcDb3dPolylineVertex
 10
140.113922
 20
122.448402
 30
0.0
 70
    40
  0
VERTEX
  5
30D
100
AcDbEntity
  8
0
390
0
100
AcDbVertex
100
AcDb3dPolylineVertex
 10
140.114044
 20
122.809731
 30
0.0
 70
    48
  0
VERTEX
  5
30E
100
AcDbEntity
  8
0
390
0
100
AcDbVertex
100
AcDb3dPolylineVertex
 10
140.113922
 20
122.448402
 30
0.0
 70
    48
  0
VERTEX
  5
30F
100
AcDbEntity
  8
0
390
0
100
AcDbVertex
100
AcDb3dPolylineVertex
 10
140.113922
 20
122.448402
 30
0.0
 70
    48
  0
VERTEX
  5
310
100
AcDbEntity
  8
0
390
0
100
AcDbVertex
100
AcDb3dPolylineVertex
 10
140.113739
 20
122.121773
 30
0.0
 70
    40
  0
VERTEX
  5
311
100
AcDbEntity
  8
0
390
0
100
AcDbVertex
100
AcDb3dPolylineVertex
 10
140.113922
 20
122.448402
 30
0.0
 70
    48
  0
VERTEX
  5
312
100
AcDbEntity
  8
0
390
0
100
AcDbVertex
100
AcDb3dPolylineVertex
 10
140.113739
 20
122.121773
 30
0.0
 70
    48
  0
VERTEX
  5
313
100
AcDbEntity
  8
0
390
0
100
AcDbVertex
100
AcDb3dPolylineVertex
 10
140.113739
 20
122.121773
 30
0.0
 70
    48
  0
VERTEX
  5
314
100
AcDbEntity
  8
0
390
0
100
AcDbVertex
100
AcDb3dPolylineVertex
 10
140.11348
 20
121.84742
 30
0.0
 70
    40
  0
VERTEX
  5
315
100
AcDbEntity
  8
0
390
0
100
AcDbVertex
100
AcDb3dPolylineVertex
 10
140.113739
 20
122.121773
 30
0.0
 70
    48
  0
VERTEX
  5
316
100
AcDbEntity
  8
0
390
0
100
AcDbVertex
100
AcDb3dPolylineVertex
 10
140.11348
 20
121.84742
 30
0.0
 70
    48
  0
VERTEX
  5
317
100
AcDbEntity
  8
0
390
0
100
AcDbVertex
100
AcDb3dPolylineVertex
 10
140.11348
 20
121.84742
 30
0.0
 70
    48
  0
VERTEX
  5
318
100
AcDbEntity
  8
0
390
0
100
AcDbVertex
100
AcDb3dPolylineVertex
 10
140.113159
 20
121.640175
 30
0.0
 70
    40
  0
VERTEX
  5
319
100
AcDbEntity
  8
0
390
0
100
AcDbVertex
100
AcDb3dPolylineVertex
 10
140.11348
 20
121.84742
 30
0.0
 70
    48
  0
VERTEX
  5
31A
100
AcDbEntity
  8
0
390
0
100
AcDbVertex
100
AcDb3dPolylineVertex
 10
140.113159
 20
121.640175
 30
0.0
 70
    48
  0
VERTEX
  5
31B
100
AcDbEntity
  8
0
390
0
100
AcDbVertex
100
AcDb3dPolylineVertex
 10
140.113159
 20
121.640175
 30
0.0
 70
    48
  0
VERTEX
  5
31C
100
AcDbEntity
  8
0
390
0
100
AcDbVertex
100
AcDb3dPolylineVertex
 10
140.112793
 20
121.511177
 30
0.0
 70
    40
  0
VERTEX
  5
31D
100
AcDbEntity
  8
0
390
0
100
AcDbVertex
100
AcDb3dPolylineVertex
 10
140.113159
 20
121.640175
 30
0.0
 70
    48
  0
VERTEX
  5
31E
100
AcDbEntity
  8
0
390
0
100
AcDbVertex
100
AcDb3dPolylineVertex
 10
140.112793
 20
121.511177
 30
0.0
 70
    48
  0
VERTEX
  5
31F
100
AcDbEntity
  8
0
390
0
100
AcDbVertex
100
AcDb3dPolylineVertex
 10
140.112793
 20
121.511177
 30
0.0
 70
    48
  0
VERTEX
  5
320
100
AcDbEntity
  8
0
390
0
100
AcDbVertex
100
AcDb3dPolylineVertex
 10
140.112411
 20
121.467384
 30
0.0
 70
    40
  0
VERTEX
  5
321
100
AcDbEntity
  8
0
390
0
100
AcDbVertex
100
AcDb3dPolylineVertex
 10
140.112793
 20
121.511177
 30
0.0
 70
    48
  0
VERTEX
  5
322
100
AcDbEntity
  8
0
390
0
100
AcDbVertex
100
AcDb3dPolylineVertex
 10
140.112411
 20
121.467384
 30
0.0
 70
    48
  0
VERTEX
  5
323
100
AcDbEntity
  8
0
390
0
100
AcDbVertex
100
AcDb3dPolylineVertex
 10
140.112411
 20
121.467384
 30
0.0
 70
    48
  0
SEQEND
  5
324
100
AcDbEntity
  8
0
390
0
  0
POLYLINE
  5
325
100
AcDbEntity
  8
ARMATUR
390
0
  6
DURCHGEHEND
 62
     7
100
AcDb3dPolyline
 66
     1
 10
0.0
 20
0.0
 30
0.0
 70
    12
 75
     5
  0
VERTEX
  5
326
100
AcDbEntity
  8
0
390
0
100
AcDbVertex
100
AcDb3dPolylineVertex
 10
148.899414
 20
118.272224
 30
0.0
 70
    48
  0
VERTEX
  5
327
100
AcDbEntity
  8
0
390
0
100
AcDbVertex
100
AcDb3dPolylineVertex
 10
148.899414
 20
118.272224
 30
0.0
 70
    40
  0
VERTEX
  5
328
100
AcDbEntity
  8
0
390
0
100
AcDbVertex
100
AcDb3dPolylineVertex
 10
149.498322
 20
118.139992
 30
0.0
 70
    40
  0
VERTEX
  5
329
100
AcDbEntity
  8
0
390
0
100
AcDbVertex
100
AcDb3dPolylineVertex
 10
148.899414
 20
118.272224
 30
0.0
 70
    48
  0
VERTEX
  5
32A
100
AcDbEntity
  8
0
390
0
100
AcDbVertex
100
AcDb3dPolylineVertex
 10
149.498322
 20
118.139992
 30
0.0
 70
    48
  0
VERTEX
  5
32B
100
AcDbEntity
  8
0
390
0
100
AcDbVertex
100
AcDb3dPolylineVertex
 10
149.498322
 20
118.139992
 30
0.0
 70
    48
  0
VERTEX
  5
32C
100
AcDbEntity
  8
0
390
0
100
AcDbVertex
100
AcDb3dPolylineVertex
 10
150.115036
 20
118.091805
 30
0.0
 70
    40
  0
VERTEX
  5
32D
100
AcDbEntity
  8
0
390
0
100
AcDbVertex
100
AcDb3dPolylineVertex
 10
149.498322
 20
118.139992
 30
0.0
 70
    48
  0
VERTEX
  5
32E
100
AcDbEntity
  8
0
390
0
100
AcDbVertex
100
AcDb3dPolylineVertex
 10
150.115036
 20
118.091805
 30
0.0
 70
    48
  0
VERTEX
  5
32F
100
AcDbEntity
  8
0
390
0
100
AcDbVertex
100
AcDb3dPolylineVertex
 10
150.115036
 20
118.091805
 30
0.0
 70
    48
  0
SEQEND
  5
330
100
AcDbEntity
  8
0
390
0
  0
LINE
  5
331
100
AcDbEntity
  8
ARMATUR
390
0
  6
DURCHGEHEND
 62
     7
100
AcDbLine
 10
148.899414
 20
118.272224
 30
0.0
 11
148.332092
 21
118.272224
 31
0.0
  0
POLYLINE
  5
332
100
AcDbEntity
  8
ARMATUR
390
0
  6
DURCHGEHEND
 62
     7
100
AcDb3dPolyline
 66
     1
 10
0.0
 20
0.0
 30
0.0
 70
    12
 75
     5
  0
VERTEX
  5
333
100
AcDbEntity
  8
0
390
0
100
AcDbVertex
100
AcDb3dPolylineVertex
 10
147.115051
 20
118.091805
 30
0.0
 70
    48
  0
VERTEX
  5
334
100
AcDbEntity
  8
0
390
0
100
AcDbVertex
100
AcDb3dPolylineVertex
 10
147.115051
 20
118.091805
 30
0.0
 70
    40
  0
VERTEX
  5
335
100
AcDbEntity
  8
0
390
0
100
AcDbVertex
100
AcDb3dPolylineVertex
 10
147.446198
 20
118.105782
 30
0.0
 70
    40
  0
VERTEX
  5
336
100
AcDbEntity
  8
0
390
0
100
AcDbVertex
100
AcDb3dPolylineVertex
 10
147.115051
 20
118.091805
 30
0.0
 70
    48
  0
VERTEX
  5
337
100
AcDbEntity
  8
0
390
0
100
AcDbVertex
100
AcDb3dPolylineVertex
 10
147.446198
 20
118.105782
 30
0.0
 70
    48
  0
VERTEX
  5
338
100
AcDbEntity
  8
0
390
0
100
AcDbVertex
100
AcDb3dPolylineVertex
 10
147.446198
 20
118.105782
 30
0.0
 70
    48
  0
VERTEX
  5
339
100
AcDbEntity
  8
0
390
0
100
AcDbVertex
100
AcDb3dPolylineVertex
 10
148.332092
 20
118.272224
 30
0.0
 70
    40
  0
VERTEX
  5
33A
100
AcDbEntity
  8
0
390
0
100
AcDbVertex
100
AcDb3dPolylineVertex
 10
147.446198
 20
118.105782
 30
0.0
 70
    48
  0
VERTEX
  5
33B
100
AcDbEntity
  8
0
390
0
100
AcDbVertex
100
AcDb3dPolylineVertex
 10
148.332092
 20
118.272224
 30
0.0
 70
    48
  0
VERTEX
  5
33C
100
AcDbEntity
  8
0
390
0
100
AcDbVertex
100
AcDb3dPolylineVertex
 10
148.332092
 20
118.272224
 30
0.0
 70
    48
  0
SEQEND
  5
33D
100
AcDbEntity
  8
0
390
0
  0
LINE
  5
33E
100
AcDbEntity
  8
ARMATUR
390
0
  6
DURCHGEHEND
 62
     7
100
AcDbLine
 10
150.115036
 20
118.091805
 30
0.0
 11
147.115051
 21
118.091805
 31
0.0
  0
LINE
  5
33F
100
AcDbEntity
  8
ARMATUR
390
0
  6
DURCHGEHEND
 62
     7
100
AcDbLine
 10
148.899414
 20
119.341805
 30
0.0
 11
148.899414
 21
118.272224
 31
0.0
  0
LINE
  5
340
100
AcDbEntity
  8
ARMATUR
390
0
  6
DURCHGEHEND
 62
     7
100
AcDbLine
 10
148.332092
 20
118.272224
 30
0.0
 11
148.332092
 21
119.341805
 31
0.0
  0
POLYLINE
  5
341
100
AcDbEntity
  8
ARMATUR
390
0
  6
DURCHGEHEND
 62
     7
100
AcDb3dPolyline
 66
     1
 10
0.0
 20
0.0
 30
0.0
 70
    12
 75
     5
  0
VERTEX
  5
342
100
AcDbEntity
  8
0
390
0
100
AcDbVertex
100
AcDb3dPolylineVertex
 10
145.897995
 20
118.272224
 30
0.0
 70
    48
  0
VERTEX
  5
343
100
AcDbEntity
  8
0
390
0
100
AcDbVertex
100
AcDb3dPolylineVertex
 10
145.897995
 20
118.272224
 30
0.0
 70
    40
  0
VERTEX
  5
344
100
AcDbEntity
  8
0
390
0
100
AcDbVertex
100
AcDb3dPolylineVertex
 10
146.497604
 20
118.139992
 30
0.0
 70
    40
  0
VERTEX
  5
345
100
AcDbEntity
  8
0
390
0
100
AcDbVertex
100
AcDb3dPolylineVertex
 10
145.897995
 20
118.272224
 30
0.0
 70
    48
  0
VERTEX
  5
346
100
AcDbEntity
  8
0
390
0
100
AcDbVertex
100
AcDb3dPolylineVertex
 10
146.497604
 20
118.139992
 30
0.0
 70
    48
  0
VERTEX
  5
347
100
AcDbEntity
  8
0
390
0
100
AcDbVertex
100
AcDb3dPolylineVertex
 10
146.497604
 20
118.139992
 30
0.0
 70
    48
  0
VERTEX
  5
348
100
AcDbEntity
  8
0
390
0
100
AcDbVertex
100
AcDb3dPolylineVertex
 10
147.115051
 20
118.091805
 30
0.0
 70
    40
  0
VERTEX
  5
349
100
AcDbEntity
  8
0
390
0
100
AcDbVertex
100
AcDb3dPolylineVertex
 10
146.497604
 20
118.139992
 30
0.0
 70
    48
  0
VERTEX
  5
34A
100
AcDbEntity
  8
0
390
0
100
AcDbVertex
100
AcDb3dPolylineVertex
 10
147.115051
 20
118.091805
 30
0.0
 70
    48
  0
VERTEX
  5
34B
100
AcDbEntity
  8
0
390
0
100
AcDbVertex
100
AcDb3dPolylineVertex
 10
147.115051
 20
118.091805
 30
0.0
 70
    48
  0
SEQEND
  5
34C
100
AcDbEntity
  8
0
390
0
  0
LINE
  5
34D
100
AcDbEntity
  8
ARMATUR
390
0
  6
DURCHGEHEND
 62
     7
100
AcDbLine
 10
145.897995
 20
119.341805
 30
0.0
 11
145.897995
 21
118.272224
 31
0.0
  0
POLYLINE
  5
34E
100
AcDbEntity
  8
ARMATUR
390
0
  6
DURCHGEHEND
 62
     7
100
AcDb3dPolyline
 66
     1
 10
0.0
 20
0.0
 30
0.0
 70
    12
 75
     5
  0
VERTEX
  5
34F
100
AcDbEntity
  8
0
390
0
100
AcDbVertex
100
AcDb3dPolylineVertex
 10
150.115036
 20
118.091805
 30
0.0
 70
    48
  0
VERTEX
  5
350
100
AcDbEntity
  8
0
390
0
100
AcDbVertex
100
AcDb3dPolylineVertex
 10
150.115036
 20
118.091805
 30
0.0
 70
    40
  0
VERTEX
  5
351
100
AcDbEntity
  8
0
390
0
100
AcDbVertex
100
AcDb3dPolylineVertex
 10
150.445816
 20
118.105782
 30
0.0
 70
    40
  0
VERTEX
  5
352
100
AcDbEntity
  8
0
390
0
100
AcDbVertex
100
AcDb3dPolylineVertex
 10
150.115036
 20
118.091805
 30
0.0
 70
    48
  0
VERTEX
  5
353
100
AcDbEntity
  8
0
390
0
100
AcDbVertex
100
AcDb3dPolylineVertex
 10
150.445816
 20
118.105782
 30
0.0
 70
    48
  0
VERTEX
  5
354
100
AcDbEntity
  8
0
390
0
100
AcDbVertex
100
AcDb3dPolylineVertex
 10
150.445816
 20
118.105782
 30
0.0
 70
    48
  0
VERTEX
  5
355
100
AcDbEntity
  8
0
390
0
100
AcDbVertex
100
AcDb3dPolylineVertex
 10
151.330673
 20
118.272224
 30
0.0
 70
    40
  0
VERTEX
  5
356
100
AcDbEntity
  8
0
390
0
100
AcDbVertex
100
AcDb3dPolylineVertex
 10
150.445816
 20
118.105782
 30
0.0
 70
    48
  0
VERTEX
  5
357
100
AcDbEntity
  8
0
390
0
100
AcDbVertex
100
AcDb3dPolylineVertex
 10
151.330673
 20
118.272224
 30
0.0
 70
    48
  0
VERTEX
  5
358
100
AcDbEntity
  8
0
390
0
100
AcDbVertex
100
AcDb3dPolylineVertex
 10
151.330673
 20
118.272224
 30
0.0
 70
    48
  0
SEQEND
  5
359
100
AcDbEntity
  8
0
390
0
  0
LINE
  5
35A
100
AcDbEntity
  8
ARMATUR
390
0
  6
DURCHGEHEND
 62
     7
100
AcDbLine
 10
151.330673
 20
118.272224
 30
0.0
 11
151.330673
 21
119.341805
 31
0.0
  0
POLYLINE
  5
35B
100
AcDbEntity
  8
ARMATUR
390
0
  6
DURCHGEHEND
 62
     7
100
AcDb3dPolyline
 66
     1
 10
0.0
 20
0.0
 30
0.0
 70
    12
 75
     5
  0
VERTEX
  5
35C
100
AcDbEntity
  8
0
390
0
100
AcDbVertex
100
AcDb3dPolylineVertex
 10
145.612411
 20
118.091805
 30
0.0
 70
    48
  0
VERTEX
  5
35D
100
AcDbEntity
  8
0
390
0
100
AcDbVertex
100
AcDb3dPolylineVertex
 10
145.612411
 20
118.091805
 30
0.0
 70
    40
  0
VERTEX
  5
35E
100
AcDbEntity
  8
0
390
0
100
AcDbVertex
100
AcDb3dPolylineVertex
 10
145.6129
 20
118.113747
 30
0.0
 70
    40
  0
VERTEX
  5
35F
100
AcDbEntity
  8
0
390
0
100
AcDbVertex
100
AcDb3dPolylineVertex
 10
145.612411
 20
118.091805
 30
0.0
 70
    48
  0
VERTEX
  5
360
100
AcDbEntity
  8
0
390
0
100
AcDbVertex
100
AcDb3dPolylineVertex
 10
145.6129
 20
118.113747
 30
0.0
 70
    48
  0
VERTEX
  5
361
100
AcDbEntity
  8
0
390
0
100
AcDbVertex
100
AcDb3dPolylineVertex
 10
145.6129
 20
118.113747
 30
0.0
 70
    48
  0
VERTEX
  5
362
100
AcDbEntity
  8
0
390
0
100
AcDbVertex
100
AcDb3dPolylineVertex
 10
145.613831
 20
118.272224
 30
0.0
 70
    40
  0
VERTEX
  5
363
100
AcDbEntity
  8
0
390
0
100
AcDbVertex
100
AcDb3dPolylineVertex
 10
145.6129
 20
118.113747
 30
0.0
 70
    48
  0
VERTEX
  5
364
100
AcDbEntity
  8
0
390
0
100
AcDbVertex
100
AcDb3dPolylineVertex
 10
145.613831
 20
118.272224
 30
0.0
 70
    48
  0
VERTEX
  5
365
100
AcDbEntity
  8
0
390
0
100
AcDbVertex
100
AcDb3dPolylineVertex
 10
145.613831
 20
118.272224
 30
0.0
 70
    48
  0
SEQEND
  5
366
100
AcDbEntity
  8
0
390
0
  0
LINE
  5
367
100
AcDbEntity
  8
ARMATUR
390
0
  6
DURCHGEHEND
 62
     7
100
AcDbLine
 10
145.897995
 20
118.272224
 30
0.0
 11
145.613831
 21
118.272224
 31
0.0
  0
LINE
  5
368
100
AcDbEntity
  8
ARMATUR
390
0
  6
DURCHGEHEND
 62
     7
100
AcDbLine
 10
147.115051
 20
118.091805
 30
0.0
 11
145.612411
 21
118.091805
 31
0.0
  0
POLYLINE
  5
369
100
AcDbEntity
  8
ARMATUR
390
0
  6
DURCHGEHEND
 62
     7
100
AcDb3dPolyline
 66
     1
 10
0.0
 20
0.0
 30
0.0
 70
    12
 75
     5
  0
VERTEX
  5
36A
100
AcDbEntity
  8
0
390
0
100
AcDbVertex
100
AcDb3dPolylineVertex
 10
151.613831
 20
118.272224
 30
0.0
 70
    48
  0
VERTEX
  5
36B
100
AcDbEntity
  8
0
390
0
100
AcDbVertex
100
AcDb3dPolylineVertex
 10
151.613831
 20
118.272224
 30
0.0
 70
    40
  0
VERTEX
  5
36C
100
AcDbEntity
  8
0
390
0
100
AcDbVertex
100
AcDb3dPolylineVertex
 10
151.6129
 20
118.113747
 30
0.0
 70
    40
  0
VERTEX
  5
36D
100
AcDbEntity
  8
0
390
0
100
AcDbVertex
100
AcDb3dPolylineVertex
 10
151.613831
 20
118.272224
 30
0.0
 70
    48
  0
VERTEX
  5
36E
100
AcDbEntity
  8
0
390
0
100
AcDbVertex
100
AcDb3dPolylineVertex
 10
151.6129
 20
118.113747
 30
0.0
 70
    48
  0
VERTEX
  5
36F
100
AcDbEntity
  8
0
390
0
100
AcDbVertex
100
AcDb3dPolylineVertex
 10
151.6129
 20
118.113747
 30
0.0
 70
    48
  0
VERTEX
  5
370
100
AcDbEntity
  8
0
390
0
100
AcDbVertex
100
AcDb3dPolylineVertex
 10
151.612411
 20
118.091805
 30
0.0
 70
    40
  0
VERTEX
  5
371
100
AcDbEntity
  8
0
390
0
100
AcDbVertex
100
AcDb3dPolylineVertex
 10
151.6129
 20
118.113747
 30
0.0
 70
    48
  0
VERTEX
  5
372
100
AcDbEntity
  8
0
390
0
100
AcDbVertex
100
AcDb3dPolylineVertex
 10
151.612411
 20
118.091805
 30
0.0
 70
    48
  0
VERTEX
  5
373
100
AcDbEntity
  8
0
390
0
100
AcDbVertex
100
AcDb3dPolylineVertex
 10
151.612411
 20
118.091805
 30
0.0
 70
    48
  0
SEQEND
  5
374
100
AcDbEntity
  8
0
390
0
  0
LINE
  5
375
100
AcDbEntity
  8
ARMATUR
390
0
  6
DURCHGEHEND
 62
     7
100
AcDbLine
 10
151.613831
 20
118.272224
 30
0.0
 11
151.330673
 21
118.272224
 31
0.0
  0
LINE
  5
376
100
AcDbEntity
  8
ARMATUR
390
0
  6
DURCHGEHEND
 62
     7
100
AcDbLine
 10
151.612411
 20
118.091805
 30
0.0
 11
150.115036
 21
118.091805
 31
0.0
  0
LINE
  5
377
100
AcDbEntity
  8
ARMATUR
390
0
  6
DURCHGEHEND
 62
     7
100
AcDbLine
 10
145.613831
 20
118.272224
 30
0.0
 11
145.613831
 21
119.341805
 31
0.0
  0
LINE
  5
378
100
AcDbEntity
  8
ARMATUR
390
0
  6
DURCHGEHEND
 62
     7
100
AcDbLine
 10
151.613831
 20
119.341805
 30
0.0
 11
151.613831
 21
118.272224
 31
0.0
  0
POLYLINE
  5
379
100
AcDbEntity
  8
ARMATUR
390
0
  6
DURCHGEHEND
 62
     7
100
AcDb3dPolyline
 66
     1
 10
0.0
 20
0.0
 30
0.0
 70
    12
 75
     5
  0
VERTEX
  5
37A
100
AcDbEntity
  8
0
390
0
100
AcDbVertex
100
AcDb3dPolylineVertex
 10
145.610992
 20
118.272224
 30
0.0
 70
    48
  0
VERTEX
  5
37B
100
AcDbEntity
  8
0
390
0
100
AcDbVertex
100
AcDb3dPolylineVertex
 10
145.610992
 20
118.272224
 30
0.0
 70
    40
  0
VERTEX
  5
37C
100
AcDbEntity
  8
0
390
0
100
AcDbVertex
100
AcDb3dPolylineVertex
 10
145.611115
 20
118.243965
 30
0.0
 70
    40
  0
VERTEX
  5
37D
100
AcDbEntity
  8
0
390
0
100
AcDbVertex
100
AcDb3dPolylineVertex
 10
145.610992
 20
118.272224
 30
0.0
 70
    48
  0
VERTEX
  5
37E
100
AcDbEntity
  8
0
390
0
100
AcDbVertex
100
AcDb3dPolylineVertex
 10
145.611115
 20
118.243965
 30
0.0
 70
    48
  0
VERTEX
  5
37F
100
AcDbEntity
  8
0
390
0
100
AcDbVertex
100
AcDb3dPolylineVertex
 10
145.611115
 20
118.243965
 30
0.0
 70
    48
  0
VERTEX
  5
380
100
AcDbEntity
  8
0
390
0
100
AcDbVertex
100
AcDb3dPolylineVertex
 10
145.612411
 20
118.091805
 30
0.0
 70
    40
  0
VERTEX
  5
381
100
AcDbEntity
  8
0
390
0
100
AcDbVertex
100
AcDb3dPolylineVertex
 10
145.611115
 20
118.243965
 30
0.0
 70
    48
  0
VERTEX
  5
382
100
AcDbEntity
  8
0
390
0
100
AcDbVertex
100
AcDb3dPolylineVertex
 10
145.612411
 20
118.091805
 30
0.0
 70
    48
  0
VERTEX
  5
383
100
AcDbEntity
  8
0
390
0
100
AcDbVertex
100
AcDb3dPolylineVertex
 10
145.612411
 20
118.091805
 30
0.0
 70
    48
  0
SEQEND
  5
384
100
AcDbEntity
  8
0
390
0
  0
LINE
  5
385
100
AcDbEntity
  8
ARMATUR
390
0
  6
DURCHGEHEND
 62
     7
100
AcDbLine
 10
145.610992
 20
119.341805
 30
0.0
 11
145.610992
 21
118.272224
 31
0.0
  0
LINE
  5
386
100
AcDbEntity
  8
ARMATUR
390
0
  6
DURCHGEHEND
 62
     7
100
AcDbLine
 10
152.362411
 20
119.341805
 30
0.0
 11
144.862411
 21
119.341805
 31
0.0
  0
LINE
  5
387
100
AcDbEntity
  8
ARMATUR
390
0
  6
DURCHGEHEND
 62
     7
100
AcDbLine
 10
148.9254
 20
130.823288
 30
0.0
 11
148.9254
 21
129.323288
 31
0.0
  0
LINE
  5
388
100
AcDbEntity
  8
ARMATUR
390
0
  6
DURCHGEHEND
 62
     7
100
AcDbLine
 10
153.028214
 20
130.823288
 30
0.0
 11
153.028214
 21
129.323288
 31
0.0
  0
LINE
  5
389
100
AcDbEntity
  8
ARMATUR
390
0
  6
DURCHGEHEND
 62
     7
100
AcDbLine
 10
149.86409
 20
129.323288
 30
0.0
 11
153.107529
 21
129.323288
 31
0.0
  0
LINE
  5
38A
100
AcDbEntity
  8
ARMATUR
390
0
  6
DURCHGEHEND
 62
     7
100
AcDbLine
 10
149.86409
 20
130.823288
 30
0.0
 11
153.107529
 21
130.823288
 31
0.0
  0
LINE
  5
38B
100
AcDbEntity
  8
ARMATUR
390
0
  6
DURCHGEHEND
 62
     7
100
AcDbLine
 10
148.287369
 20
130.823288
 30
0.0
 11
148.287369
 21
129.323288
 31
0.0
  0
LINE
  5
38C
100
AcDbEntity
  8
ARMATUR
390
0
  6
DURCHGEHEND
 62
     7
100
AcDbLine
 10
149.226059
 20
129.323288
 30
0.0
 11
149.86409
 21
129.323288
 31
0.0
  0
LINE
  5
38D
100
AcDbEntity
  8
ARMATUR
390
0
  6
DURCHGEHEND
 62
     7
100
AcDbLine
 10
149.226059
 20
130.823288
 30
0.0
 11
149.86409
 21
130.823288
 31
0.0
  0
LINE
  5
38E
100
AcDbEntity
  8
ARMATUR
390
0
  6
DURCHGEHEND
 62
     7
100
AcDbLine
 10
149.226059
 20
129.323288
 30
0.0
 11
145.157898
 21
129.323288
 31
0.0
  0
LINE
  5
38F
100
AcDbEntity
  8
ARMATUR
390
0
  6
DURCHGEHEND
 62
     7
100
AcDbLine
 10
149.226059
 20
130.823288
 30
0.0
 11
145.157898
 21
130.823288
 31
0.0
  0
LINE
  5
390
100
AcDbEntity
  8
ARMATUR
390
0
  6
DURCHGEHEND
 62
     7
100
AcDbLine
 10
144.215317
 20
130.823288
 30
0.0
 11
144.215317
 21
129.323288
 31
0.0
  0
LINE
  5
391
100
AcDbEntity
  8
ARMATUR
390
0
  6
DURCHGEHEND
 62
     7
100
AcDbLine
 10
144.730942
 20
129.323288
 30
0.0
 11
145.157898
 21
129.323288
 31
0.0
  0
LINE
  5
392
100
AcDbEntity
  8
ARMATUR
390
0
  6
DURCHGEHEND
 62
     7
100
AcDbLine
 10
144.730942
 20
130.823288
 30
0.0
 11
145.157898
 21
130.823288
 31
0.0
  0
LINE
  5
393
100
AcDbEntity
  8
ARMATUR
390
0
  6
DURCHGEHEND
 62
     7
100
AcDbLine
 10
143.906235
 20
130.823288
 30
0.0
 11
143.906235
 21
129.323288
 31
0.0
  0
LINE
  5
394
100
AcDbEntity
  8
ARMATUR
390
0
  6
DURCHGEHEND
 62
     7
100
AcDbLine
 10
144.730942
 20
129.323288
 30
0.0
 11
143.906235
 21
129.323288
 31
0.0
  0
LINE
  5
395
100
AcDbEntity
  8
ARMATUR
390
0
  6
DURCHGEHEND
 62
     7
100
AcDbLine
 10
144.730942
 20
130.823288
 30
0.0
 11
143.906235
 21
130.823288
 31
0.0
  0
LINE
  5
396
100
AcDbEntity
  8
ARMATUR
390
0
  6
DURCHGEHEND
 62
     7
100
AcDbLine
 10
153.318588
 20
130.823288
 30
0.0
 11
153.318588
 21
129.323288
 31
0.0
  0
LINE
  5
397
100
AcDbEntity
  8
ARMATUR
390
0
  6
DURCHGEHEND
 62
     7
100
AcDbLine
 10
153.107529
 20
129.323288
 30
0.0
 11
153.318588
 21
129.323288
 31
0.0
  0
LINE
  5
398
100
AcDbEntity
  8
ARMATUR
390
0
  6
DURCHGEHEND
 62
     7
100
AcDbLine
 10
153.107529
 20
130.823288
 30
0.0
 11
153.318588
 21
130.823288
 31
0.0
  0
LINE
  5
399
100
AcDbEntity
  8
ARMATUR
390
0
  6
DURCHGEHEND
 62
     7
100
AcDbLine
 10
151.213654
 20
114.466805
 30
0.0
 11
146.011139
 21
114.466805
 31
0.0
  0
LINE
  5
39A
100
AcDbEntity
  8
ARMATUR
390
0
  6
DURCHGEHEND
 62
     8
100
AcDbLine
 10
151.845901
 20
143.266785
 30
0.0
 11
151.845901
 21
132.018799
 31
0.0
  0
LINE
  5
39B
100
AcDbEntity
  8
ARMATUR
390
0
  6
DURCHGEHEND
 62
     8
100
AcDbLine
 10
151.845901
 20
129.323303
 30
0.0
 11
151.845901
 21
126.127518
 31
0.0
  0
LINE
  5
39C
100
AcDbEntity
  8
ARMATUR
390
0
  6
DURCHGEHEND
 62
     8
100
AcDbLine
 10
145.417221
 20
143.266785
 30
0.0
 11
145.417221
 21
132.018799
 31
0.0
  0
LINE
  5
39D
100
AcDbEntity
  8
ARMATUR
390
0
  6
DURCHGEHEND
 62
     8
100
AcDbLine
 10
145.417221
 20
129.323364
 30
0.0
 11
145.417221
 21
126.098465
 31
0.0
  0
LINE
  5
39E
100
AcDbEntity
  8
ARMATUR
390
0
  6
DURCHGEHEND
 62
     8
100
AcDbLine
 10
150.863724
 20
118.091805
 30
0.0
 11
150.863724
 21
114.46682
 31
0.0
  0
LINE
  5
39F
100
AcDbEntity
  8
ARMATUR
390
0
  6
DURCHGEHEND
 62
     8
100
AcDbLine
 10
146.363724
 20
118.091805
 30
0.0
 11
146.363724
 21
114.46682
 31
0.0
  0
LINE
  5
3A0
100
AcDbEntity
  8
ARMATUR
390
0
  6
DURCHGEHEND
 62
     8
100
AcDbLine
 10
140.2388
 20
125.302345
 30
0.0
 11
143.1138
 21
125.302345
 31
0.0
  0
LINE
  5
3A1
100
AcDbEntity
  8
ARMATUR
390
0
  6
DURCHGEHEND
 62
     8
100
AcDbLine
 10
140.2388
 20
120.881233
 30
0.0
 11
143.1138
 21
120.881233
 31
0.0
  0
LINE
  5
3A2
100
AcDbEntity
  8
ARMATUR
390
0
  6
DURCHGEHEND
 62
     7
100
AcDbLine
 10
141.1035
 20
143.392822
 30
0.0
 11
141.1035
 21
145.296051
 31
0.0
  0
ARC
  5
3A3
100
AcDbEntity
  8
ARMATUR
390
0
  6
DURCHGEHEND
 62
     7
100
AcDbCircle
 10
155.903519
 20
145.331589
 30
0.0
 40
0.199982
100
AcDbArc
 50
0.0
 51
89.442001
  0
LINE
  5
3A4
100
AcDbEntity
  8
ARMATUR
390
0
  6
DURCHGEHEND
 62
     7
100
AcDbLine
 10
155.905457
 20
145.531616
 30
0.0
 11
148.60881
 21
145.531616
 31
0.0
  0
LINE
  5
3A5
100
AcDbEntity
  8
ARMATUR
390
0
  6
DURCHGEHEND
 62
     7
100
AcDbLine
 10
148.60881
 20
145.531586
 30
0.0
 11
141.301559
 21
145.531586
 31
0.0
  0
ARC
  5
3A6
100
AcDbEntity
  8
ARMATUR
390
0
  6
DURCHGEHEND
 62
     7
100
AcDbCircle
 10
141.303513
 20
145.331589
 30
0.0
 40
0.199997
100
AcDbArc
 50
90.558998
 51
180.001007
  0
LINE
  5
3A7
100
AcDbEntity
  8
ARMATUR
390
0
  6
DURCHGEHEND
 62
     7
100
AcDbLine
 10
156.1035
 20
145.296051
 30
0.0
 11
156.1035
 21
143.392822
 31
0.0
  0
LINE
  5
3A8
100
AcDbEntity
  8
ARMATUR
390
0
  6
DURCHGEHEND
 62
     7
100
AcDbLine
 10
141.303513
 20
143.317825
 30
0.0
 11
141.178513
 21
143.317825
 31
0.0
  0
ARC
  5
3A9
100
AcDbEntity
  8
ARMATUR
390
0
  6
DURCHGEHEND
 62
     7
100
AcDbCircle
 10
141.178513
 20
143.392822
 30
0.0
 40
0.074997
100
AcDbArc
 50
180.0
 51
270.0
  0
LINE
  5
3AA
100
AcDbEntity
  8
ARMATUR
390
0
  6
DURCHGEHEND
 62
     7
100
AcDbLine
 10
155.903519
 20
143.317825
 30
0.0
 11
141.303513
 21
143.317825
 31
0.0
  0
ARC
  5
3AB
100
AcDbEntity
  8
ARMATUR
390
0
  6
DURCHGEHEND
 62
     7
100
AcDbCircle
 10
156.028519
 20
143.392822
 30
0.0
 40
0.074982
100
AcDbArc
 50
270.0
 51
360.0
  0
LINE
  5
3AC
100
AcDbEntity
  8
ARMATUR
390
0
  6
DURCHGEHEND
 62
     7
100
AcDbLine
 10
156.028519
 20
143.317825
 30
0.0
 11
155.903519
 21
143.317825
 31
0.0
  0
LINE
  5
3AD
100
AcDbEntity
  8
ARMATUR
390
0
  6
DURCHGEHEND
 62
     7
100
AcDbLine
 10
156.1035
 20
145.331589
 30
0.0
 11
156.1035
 21
145.296051
 31
0.0
  0
LINE
  5
3AE
100
AcDbEntity
  8
ARMATUR
390
0
  6
DURCHGEHEND
 62
     7
100
AcDbLine
 10
151.791
 20
145.817123
 30
0.0
 11
151.791
 21
151.735107
 31
0.0
  0
LINE
  5
3AF
100
AcDbEntity
  8
ARMATUR
390
0
  6
DURCHGEHEND
 62
     7
100
AcDbLine
 10
145.390991
 20
151.735107
 30
0.0
 11
145.390991
 21
145.817123
 31
0.0
  0
ARC
  5
3B0
100
AcDbEntity
  8
ARMATUR
390
0
  6
DURCHGEHEND
 62
     7
100
AcDbCircle
 10
151.416
 20
151.735107
 30
0.0
 40
0.375
100
AcDbArc
 50
0.0
 51
88.700996
  0
ARC
  5
3B1
100
AcDbEntity
  8
ARMATUR
390
0
  6
DURCHGEHEND
 62
     7
100
AcDbCircle
 10
145.765991
 20
151.735107
 30
0.0
 40
0.375
100
AcDbArc
 50
91.299004
 51
180.0
  0
ARC
  5
3B2
100
AcDbEntity
  8
ARMATUR
390
0
  6
DURCHGEHEND
 62
     7
100
AcDbCircle
 10
148.591003
 20
27.142124
 30
0.0
 40
124.999969
100
AcDbArc
 50
88.700996
 51
90.0
  0
ARC
  5
3B3
100
AcDbEntity
  8
ARMATUR
390
0
  6
DURCHGEHEND
 62
     7
100
AcDbCircle
 10
148.591003
 20
27.142124
 30
0.0
 40
124.999969
100
AcDbArc
 50
90.0
 51
91.299004
  0
LINE
  5
3B4
100
AcDbEntity
  8
ARMATUR
390
0
  6
DURCHGEHEND
 62
     7
100
AcDbLine
 10
149.466675
 20
145.817123
 30
0.0
 11
151.791
 21
145.817123
 31
0.0
  0
LINE
  5
3B5
100
AcDbEntity
  8
ARMATUR
390
0
  6
DURCHGEHEND
 62
     7
100
AcDbLine
 10
145.390991
 20
145.817123
 30
0.0
 11
149.593811
 21
145.817123
 31
0.0
  0
CIRCLE
  5
3B6
100
AcDbEntity
  8
ARMATUR
390
0
  6
DURCHGEHEND
 62
     1
100
AcDbCircle
 10
148.677338
 20
65.746078
 30
0.0
 40
4.0
  0
LINE
  5
3B7
100
AcDbEntity
  8
ACHSEN
390
0
  6
_STRICHPUNKTIERT
 62
     4
100
AcDbLine
 10
145.140564
 20
123.120171
 30
0.0
 11
139.313019
 21
123.120171
 31
0.0
  0
LINE
  5
3B8
100
AcDbEntity
  8
ACHSEN
390
0
  6
STRICHPUNKTIERT-1
 62
     4
100
AcDbLine
 10
148.60881
 20
59.952866
 30
0.0
 11
148.60881
 21
152.645447
 31
0.0
  0
LINE
  5
3B9
100
AcDbEntity
  8
ACHSEN
390
0
  6
STRICHPUNKTIERT-1
 62
     4
100
AcDbLine
 10
143.768372
 20
65.746185
 30
0.0
 11
153.284302
 21
65.746185
 31
0.0
  0
POLYLINE
  5
3BA
100
AcDbEntity
  8
BEMASSUNG
390
0
  6
DURCHGEHEND
 62
     8
100
AcDb3dPolyline
 66
     1
 10
0.0
 20
0.0
 30
0.0
 70
    12
 75
     5
  0
VERTEX
  5
3BB
100
AcDbEntity
  8
0
390
0
100
AcDbVertex
100
AcDb3dPolylineVertex
 10
185.003021
 20
143.223724
 30
0.0
 70
    48
  0
VERTEX
  5
3BC
100
AcDbEntity
  8
0
390
0
100
AcDbVertex
100
AcDb3dPolylineVertex
 10
185.003021
 20
143.223724
 30
0.0
 70
    40
  0
VERTEX
  5
3BD
100
AcDbEntity
  8
0
390
0
100
AcDbVertex
100
AcDb3dPolylineVertex
 10
162.203949
 20
143.212387
 30
0.0
 70
    40
  0
VERTEX
  5
3BE
100
AcDbEntity
  8
0
390
0
100
AcDbVertex
100
AcDb3dPolylineVertex
 10
185.003021
 20
143.223724
 30
0.0
 70
    48
  0
VERTEX
  5
3BF
100
AcDbEntity
  8
0
390
0
100
AcDbVertex
100
AcDb3dPolylineVertex
 10
162.203949
 20
143.212387
 30
0.0
 70
    48
  0
VERTEX
  5
3C0
100
AcDbEntity
  8
0
390
0
100
AcDbVertex
100
AcDb3dPolylineVertex
 10
162.203949
 20
143.212387
 30
0.0
 70
    48
  0
SEQEND
  5
3C1
100
AcDbEntity
  8
0
390
0
  0
POLYLINE
  5
3C2
100
AcDbEntity
  8
BEMASSUNG
390
0
  6
DURCHGEHEND
 62
     8
100
AcDb3dPolyline
 66
     1
 10
0.0
 20
0.0
 30
0.0
 70
    12
 75
     5
  0
VERTEX
  5
3C3
100
AcDbEntity
  8
0
390
0
100
AcDbVertex
100
AcDb3dPolylineVertex
 10
141.129669
 20
165.906677
 30
0.0
 70
    48
  0
VERTEX
  5
3C4
100
AcDbEntity
  8
0
390
0
100
AcDbVertex
100
AcDb3dPolylineVertex
 10
141.129669
 20
165.906677
 30
0.0
 70
    40
  0
VERTEX
  5
3C5
100
AcDbEntity
  8
0
390
0
100
AcDbVertex
100
AcDb3dPolylineVertex
 10
141.127365
 20
164.526917
 30
0.0
 70
    40
  0
VERTEX
  5
3C6
100
AcDbEntity
  8
0
390
0
100
AcDbVertex
100
AcDb3dPolylineVertex
 10
141.121872
 20
161.052322
 30
0.0
 70
    40
  0
VERTEX
  5
3C7
100
AcDbEntity
  8
0
390
0
100
AcDbVertex
100
AcDb3dPolylineVertex
 10
141.115372
 20
156.479843
 30
0.0
 70
    40
  0
VERTEX
  5
3C8
100
AcDbEntity
  8
0
390
0
100
AcDbVertex
100
AcDb3dPolylineVertex
 10
141.110001
 20
151.806488
 30
0.0
 70
    40
  0
VERTEX
  5
3C9
100
AcDbEntity
  8
0
390
0
100
AcDbVertex
100
AcDb3dPolylineVertex
 10
141.107925
 20
148.029236
 30
0.0
 70
    40
  0
VERTEX
  5
3CA
100
AcDbEntity
  8
0
390
0
100
AcDbVertex
100
AcDb3dPolylineVertex
 10
141.111298
 20
146.145081
 30
0.0
 70
    40
  0
VERTEX
  5
3CB
100
AcDbEntity
  8
0
390
0
100
AcDbVertex
100
AcDb3dPolylineVertex
 10
141.129669
 20
165.906677
 30
0.0
 70
    48
  0
VERTEX
  5
3CC
100
AcDbEntity
  8
0
390
0
100
AcDbVertex
100
AcDb3dPolylineVertex
 10
141.097672
 20
147.355652
 30
0.0
 70
    48
  0
VERTEX
  5
3CD
100
AcDbEntity
  8
0
390
0
100
AcDbVertex
100
AcDb3dPolylineVertex
 10
141.111298
 20
146.145081
 30
0.0
 70
    48
  0
SEQEND
  5
3CE
100
AcDbEntity
  8
0
390
0
  0
POLYLINE
  5
3CF
100
AcDbEntity
  8
BEMASSUNG
390
0
  6
DURCHGEHEND
 62
     8
100
AcDb3dPolyline
 66
     1
 10
0.0
 20
0.0
 30
0.0
 70
    12
 75
     5
  0
VERTEX
  5
3D0
100
AcDbEntity
  8
0
390
0
100
AcDbVertex
100
AcDb3dPolylineVertex
 10
156.143478
 20
165.845856
 30
0.0
 70
    48
  0
VERTEX
  5
3D1
100
AcDbEntity
  8
0
390
0
100
AcDbVertex
100
AcDb3dPolylineVertex
 10
156.143478
 20
165.845856
 30
0.0
 70
    40
  0
VERTEX
  5
3D2
100
AcDbEntity
  8
0
390
0
100
AcDbVertex
100
AcDb3dPolylineVertex
 10
156.143112
 20
164.453476
 30
0.0
 70
    40
  0
VERTEX
  5
3D3
100
AcDbEntity
  8
0
390
0
100
AcDbVertex
100
AcDb3dPolylineVertex
 10
156.142563
 20
160.949844
 30
0.0
 70
    40
  0
VERTEX
  5
3D4
100
AcDbEntity
  8
0
390
0
100
AcDbVertex
100
AcDb3dPolylineVertex
 10
156.142593
 20
156.345245
 30
0.0
 70
    40
  0
VERTEX
  5
3D5
100
AcDbEntity
  8
0
390
0
100
AcDbVertex
100
AcDb3dPolylineVertex
 10
156.144012
 20
151.649963
 30
0.0
 70
    40
  0
VERTEX
  5
3D6
100
AcDbEntity
  8
0
390
0
100
AcDbVertex
100
AcDb3dPolylineVertex
 10
156.147614
 20
147.874283
 30
0.0
 70
    40
  0
VERTEX
  5
3D7
100
AcDbEntity
  8
0
390
0
100
AcDbVertex
100
AcDb3dPolylineVertex
 10
156.154175
 20
146.028473
 30
0.0
 70
    40
  0
VERTEX
  5
3D8
100
AcDbEntity
  8
0
390
0
100
AcDbVertex
100
AcDb3dPolylineVertex
 10
156.143478
 20
165.845856
 30
0.0
 70
    48
  0
VERTEX
  5
3D9
100
AcDbEntity
  8
0
390
0
100
AcDbVertex
100
AcDb3dPolylineVertex
 10
156.137543
 20
147.116699
 30
0.0
 70
    48
  0
VERTEX
  5
3DA
100
AcDbEntity
  8
0
390
0
100
AcDbVertex
100
AcDb3dPolylineVertex
 10
156.154175
 20
146.028473
 30
0.0
 70
    48
  0
SEQEND
  5
3DB
100
AcDbEntity
  8
0
390
0
  0
POLYLINE
  5
3DC
100
AcDbEntity
  8
BEMASSUNG
390
0
  6
DURCHGEHEND
 62
     8
100
AcDb3dPolyline
 66
     1
 10
0.0
 20
0.0
 30
0.0
 70
    12
 75
     5
  0
VERTEX
  5
3DD
100
AcDbEntity
  8
0
390
0
100
AcDbVertex
100
AcDb3dPolylineVertex
 10
139.519028
 20
162.809937
 30
0.0
 70
    48
  0
VERTEX
  5
3DE
100
AcDbEntity
  8
0
390
0
100
AcDbVertex
100
AcDb3dPolylineVertex
 10
139.519028
 20
162.809937
 30
0.0
 70
    40
  0
VERTEX
  5
3DF
100
AcDbEntity
  8
0
390
0
100
AcDbVertex
100
AcDb3dPolylineVertex
 10
142.4823
 20
165.773193
 30
0.0
 70
    40
  0
VERTEX
  5
3E0
100
AcDbEntity
  8
0
390
0
100
AcDbVertex
100
AcDb3dPolylineVertex
 10
139.519028
 20
162.809937
 30
0.0
 70
    48
  0
VERTEX
  5
3E1
100
AcDbEntity
  8
0
390
0
100
AcDbVertex
100
AcDb3dPolylineVertex
 10
142.4823
 20
165.773193
 30
0.0
 70
    48
  0
VERTEX
  5
3E2
100
AcDbEntity
  8
0
390
0
100
AcDbVertex
100
AcDb3dPolylineVertex
 10
142.4823
 20
165.773193
 30
0.0
 70
    48
  0
SEQEND
  5
3E3
100
AcDbEntity
  8
0
390
0
  0
LINE
  5
3E4
100
AcDbEntity
  8
BEMASSUNG
390
0
  6
DURCHGEHEND
 62
     8
100
AcDbLine
 10
157.964828
 20
164.339233
 30
0.0
 11
139.612091
 21
164.339233
 31
0.0
  0
POLYLINE
  5
3E5
100
AcDbEntity
  8
BEMASSUNG
390
0
  6
DURCHGEHEND
 62
     8
100
AcDb3dPolyline
 66
     1
 10
0.0
 20
0.0
 30
0.0
 70
    12
 75
     5
  0
VERTEX
  5
3E6
100
AcDbEntity
  8
0
390
0
100
AcDbVertex
100
AcDb3dPolylineVertex
 10
184.624115
 20
141.984924
 30
0.0
 70
    48
  0
VERTEX
  5
3E7
100
AcDbEntity
  8
0
390
0
100
AcDbVertex
100
AcDb3dPolylineVertex
 10
184.624115
 20
141.984924
 30
0.0
 70
    40
  0
VERTEX
  5
3E8
100
AcDbEntity
  8
0
390
0
100
AcDbVertex
100
AcDb3dPolylineVertex
 10
182.110657
 20
144.473114
 30
0.0
 70
    40
  0
VERTEX
  5
3E9
100
AcDbEntity
  8
0
390
0
100
AcDbVertex
100
AcDb3dPolylineVertex
 10
184.624115
 20
141.984924
 30
0.0
 70
    48
  0
VERTEX
  5
3EA
100
AcDbEntity
  8
0
390
0
100
AcDbVertex
100
AcDb3dPolylineVertex
 10
182.110657
 20
144.473114
 30
0.0
 70
    48
  0
VERTEX
  5
3EB
100
AcDbEntity
  8
0
390
0
100
AcDbVertex
100
AcDb3dPolylineVertex
 10
182.110657
 20
144.473114
 30
0.0
 70
    48
  0
SEQEND
  5
3EC
100
AcDbEntity
  8
0
390
0
  0
POLYLINE
  5
3ED
100
AcDbEntity
  8
BEMASSUNG
390
0
  6
DURCHGEHEND
 62
     8
100
AcDb3dPolyline
 66
     1
 10
0.0
 20
0.0
 30
0.0
 70
    12
 75
     5
  0
VERTEX
  5
3EE
100
AcDbEntity
  8
0
390
0
100
AcDbVertex
100
AcDb3dPolylineVertex
 10
181.948547
 20
153.556488
 30
0.0
 70
    48
  0
VERTEX
  5
3EF
100
AcDbEntity
  8
0
390
0
100
AcDbVertex
100
AcDb3dPolylineVertex
 10
181.948547
 20
153.556488
 30
0.0
 70
    40
  0
VERTEX
  5
3F0
100
AcDbEntity
  8
0
390
0
100
AcDbVertex
100
AcDb3dPolylineVertex
 10
184.911789
 20
150.593231
 30
0.0
 70
    40
  0
VERTEX
  5
3F1
100
AcDbEntity
  8
0
390
0
100
AcDbVertex
100
AcDb3dPolylineVertex
 10
181.948547
 20
153.556488
 30
0.0
 70
    48
  0
VERTEX
  5
3F2
100
AcDbEntity
  8
0
390
0
100
AcDbVertex
100
AcDb3dPolylineVertex
 10
184.911789
 20
150.593231
 30
0.0
 70
    48
  0
VERTEX
  5
3F3
100
AcDbEntity
  8
0
390
0
100
AcDbVertex
100
AcDb3dPolylineVertex
 10
184.911789
 20
150.593231
 30
0.0
 70
    48
  0
SEQEND
  5
3F4
100
AcDbEntity
  8
0
390
0
  0
LINE
  5
3F5
100
AcDbEntity
  8
BEMASSUNG
390
0
  6
DURCHGEHEND
 62
     8
100
AcDbLine
 10
185.29071
 20
152.050995
 30
0.0
 11
152.552582
 21
152.050995
 31
0.0
  0
LINE
  5
3F6
100
AcDbEntity
  8
BEMASSUNG
390
0
  6
_DURCHGEHEND
 62
     8
100
AcDbLine
 10
183.46611
 20
101.710228
 30
0.0
 11
183.46611
 21
163.419266
 31
0.0
  0
LINE
  5
3F7
100
AcDbEntity
  8
BEMASSUNG
390
0
  6
_DURCHGEHEND
 62
     8
100
AcDbLine
 10
144.708145
 20
85.940163
 30
0.0
 11
194.884445
 21
85.940163
 31
0.0
  0
LINE
  5
3F8
100
AcDbEntity
  8
BEMASSUNG
390
0
  6
_DURCHGEHEND
 62
     8
100
AcDbLine
 10
146.021255
 20
113.752464
 30
0.0
 11
146.021255
 21
84.650864
 31
0.0
  0
LINE
  5
3F9
100
AcDbEntity
  8
BEMASSUNG
390
0
  6
_DURCHGEHEND
 62
     8
100
AcDbLine
 10
184.644852
 20
132.108765
 30
0.0
 11
156.164749
 21
132.108765
 31
0.0
  0
LINE
  5
3FA
100
AcDbEntity
  8
BEMASSUNG
390
0
  6
_DURCHGEHEND
 62
     8
100
AcDbLine
 10
183.390091
 20
132.008606
 30
0.0
 11
184.614822
 21
130.920227
 31
0.0
  0
LINE
  5
3FB
100
AcDbEntity
  8
BEMASSUNG
390
0
  6
_DURCHGEHEND
 62
     8
100
AcDbLine
 10
99.524574
 20
134.613892
 30
0.0
 11
153.53685
 21
134.613892
 31
0.0
  0
POLYLINE
  5
3FC
100
AcDbEntity
  8
BEMASSUNG
390
0
  6
_DURCHGEHEND
 62
     8
100
AcDb3dPolyline
 66
     1
 10
0.0
 20
0.0
 30
0.0
 70
    12
 75
     5
  0
VERTEX
  5
3FD
100
AcDbEntity
  8
0
390
0
100
AcDbVertex
100
AcDb3dPolylineVertex
 10
147.59584
 20
87.293282
 30
0.0
 70
    48
  0
VERTEX
  5
3FE
100
AcDbEntity
  8
0
390
0
100
AcDbVertex
100
AcDb3dPolylineVertex
 10
147.59584
 20
87.293282
 30
0.0
 70
    40
  0
VERTEX
  5
3FF
100
AcDbEntity
  8
0
390
0
100
AcDbVertex
100
AcDb3dPolylineVertex
 10
144.616104
 20
84.640388
 30
0.0
 70
    40
  0
VERTEX
  5
400
100
AcDbEntity
  8
0
390
0
100
AcDbVertex
100
AcDb3dPolylineVertex
 10
147.59584
 20
87.293282
 30
0.0
 70
    48
  0
VERTEX
  5
401
100
AcDbEntity
  8
0
390
0
100
AcDbVertex
100
AcDb3dPolylineVertex
 10
144.616104
 20
84.640388
 30
0.0
 70
    48
  0
VERTEX
  5
402
100
AcDbEntity
  8
0
390
0
100
AcDbVertex
100
AcDb3dPolylineVertex
 10
144.616104
 20
84.640388
 30
0.0
 70
    48
  0
SEQEND
  5
403
100
AcDbEntity
  8
0
390
0
  0
POLYLINE
  5
404
100
AcDbEntity
  8
BEMASSUNG
390
0
  6
_DURCHGEHEND
 62
     8
100
AcDb3dPolyline
 66
     1
 10
0.0
 20
0.0
 30
0.0
 70
    12
 75
     5
  0
VERTEX
  5
405
100
AcDbEntity
  8
0
390
0
100
AcDbVertex
100
AcDb3dPolylineVertex
 10
152.70668
 20
87.293282
 30
0.0
 70
    48
  0
VERTEX
  5
406
100
AcDbEntity
  8
0
390
0
100
AcDbVertex
100
AcDb3dPolylineVertex
 10
152.70668
 20
87.293282
 30
0.0
 70
    40
  0
VERTEX
  5
407
100
AcDbEntity
  8
0
390
0
100
AcDbVertex
100
AcDb3dPolylineVertex
 10
149.726944
 20
84.640388
 30
0.0
 70
    40
  0
VERTEX
  5
408
100
AcDbEntity
  8
0
390
0
100
AcDbVertex
100
AcDb3dPolylineVertex
 10
152.70668
 20
87.293282
 30
0.0
 70
    48
  0
VERTEX
  5
409
100
AcDbEntity
  8
0
390
0
100
AcDbVertex
100
AcDb3dPolylineVertex
 10
149.726944
 20
84.640388
 30
0.0
 70
    48
  0
VERTEX
  5
40A
100
AcDbEntity
  8
0
390
0
100
AcDbVertex
100
AcDb3dPolylineVertex
 10
149.726944
 20
84.640388
 30
0.0
 70
    48
  0
SEQEND
  5
40B
100
AcDbEntity
  8
0
390
0
  0
LINE
  5
40C
100
AcDbEntity
  8
BEMASSUNG
390
0
  6
_DURCHGEHEND
 62
     8
100
AcDbLine
 10
151.216629
 20
113.943657
 30
0.0
 11
151.216629
 21
84.573257
 31
0.0
  0
LINE
  5
40D
100
AcDbEntity
  8
BEMASSUNG
390
0
  6
_DURCHGEHEND
 62
     8
100
AcDbLine
 10
139.038574
 20
120.689034
 30
0.0
 11
114.445107
 21
120.689034
 31
0.0
  0
LINE
  5
40E
100
AcDbEntity
  8
BEMASSUNG
390
0
  6
_DURCHGEHEND
 62
     8
100
AcDbLine
 10
115.695076
 20
127.046638
 30
0.0
 11
115.695076
 21
97.756447
 31
0.0
  0
POLYLINE
  5
40F
100
AcDbEntity
  8
BEMASSUNG
390
0
  6
_DURCHGEHEND
 62
     8
100
AcDb3dPolyline
 66
     1
 10
0.0
 20
0.0
 30
0.0
 70
    12
 75
     5
  0
VERTEX
  5
410
100
AcDbEntity
  8
0
390
0
100
AcDbVertex
100
AcDb3dPolylineVertex
 10
117.10154
 20
124.181953
 30
0.0
 70
    48
  0
VERTEX
  5
411
100
AcDbEntity
  8
0
390
0
100
AcDbVertex
100
AcDb3dPolylineVertex
 10
117.10154
 20
124.181953
 30
0.0
 70
    40
  0
VERTEX
  5
412
100
AcDbEntity
  8
0
390
0
100
AcDbVertex
100
AcDb3dPolylineVertex
 10
114.448677
 20
127.16169
 30
0.0
 70
    40
  0
VERTEX
  5
413
100
AcDbEntity
  8
0
390
0
100
AcDbVertex
100
AcDb3dPolylineVertex
 10
117.10154
 20
124.181953
 30
0.0
 70
    48
  0
VERTEX
  5
414
100
AcDbEntity
  8
0
390
0
100
AcDbVertex
100
AcDb3dPolylineVertex
 10
114.448677
 20
127.16169
 30
0.0
 70
    48
  0
VERTEX
  5
415
100
AcDbEntity
  8
0
390
0
100
AcDbVertex
100
AcDb3dPolylineVertex
 10
114.448677
 20
127.16169
 30
0.0
 70
    48
  0
SEQEND
  5
416
100
AcDbEntity
  8
0
390
0
  0
LINE
  5
417
100
AcDbEntity
  8
BEMASSUNG
390
0
  6
_DURCHGEHEND
 62
     8
100
AcDbLine
 10
138.922699
 20
125.69178
 30
0.0
 11
114.445076
 21
125.69178
 31
0.0
  0
POLYLINE
  5
418
100
AcDbEntity
  8
BEMASSUNG
390
0
  6
_DURCHGEHEND
 62
     8
100
AcDb3dPolyline
 66
     1
 10
0.0
 20
0.0
 30
0.0
 70
    12
 75
     5
  0
VERTEX
  5
419
100
AcDbEntity
  8
0
390
0
100
AcDbVertex
100
AcDb3dPolylineVertex
 10
117.10154
 20
119.197639
 30
0.0
 70
    48
  0
VERTEX
  5
41A
100
AcDbEntity
  8
0
390
0
100
AcDbVertex
100
AcDb3dPolylineVertex
 10
117.10154
 20
119.197639
 30
0.0
 70
    40
  0
VERTEX
  5
41B
100
AcDbEntity
  8
0
390
0
100
AcDbVertex
100
AcDb3dPolylineVertex
 10
114.448677
 20
122.177376
 30
0.0
 70
    40
  0
VERTEX
  5
41C
100
AcDbEntity
  8
0
390
0
100
AcDbVertex
100
AcDb3dPolylineVertex
 10
117.10154
 20
119.197639
 30
0.0
 70
    48
  0
VERTEX
  5
41D
100
AcDbEntity
  8
0
390
0
100
AcDbVertex
100
AcDb3dPolylineVertex
 10
114.448677
 20
122.177376
 30
0.0
 70
    48
  0
VERTEX
  5
41E
100
AcDbEntity
  8
0
390
0
100
AcDbVertex
100
AcDb3dPolylineVertex
 10
114.448677
 20
122.177376
 30
0.0
 70
    48
  0
SEQEND
  5
41F
100
AcDbEntity
  8
0
390
0
  0
LINE
  5
420
100
AcDbEntity
  8
BEMASSUNG
390
0
  6
_DURCHGEHEND
 62
     8
100
AcDbLine
 10
182.16539
 20
133.097015
 30
0.0
 11
183.390091
 21
132.008606
 31
0.0
  0
LINE
  5
421
100
AcDbEntity
  8
BEMASSUNG
390
0
  6
_DURCHGEHEND
 62
     8
100
AcDbLine
 10
144.885162
 20
134.613892
 30
0.0
 11
143.796783
 21
133.38916
 31
0.0
  0
LINE
  5
422
100
AcDbEntity
  8
BEMASSUNG
390
0
  6
_DURCHGEHEND
 62
     8
100
AcDbLine
 10
145.973572
 20
135.838593
 30
0.0
 11
144.885162
 21
134.613892
 31
0.0
  0
LINE
  5
423
100
AcDbEntity
  8
BEMASSUNG
390
0
  6
_DURCHGEHEND
 62
     8
100
AcDbLine
 10
152.568939
 20
134.613892
 30
0.0
 11
151.48056
 21
133.38916
 31
0.0
  0
LINE
  5
424
100
AcDbEntity
  8
BEMASSUNG
390
0
  6
_DURCHGEHEND
 62
     8
100
AcDbLine
 10
153.657349
 20
135.838593
 30
0.0
 11
152.568939
 21
134.613892
 31
0.0
  0
LINE
  5
425
100
AcDbEntity
  8
BEMASSUNG
390
0
  6
DURCHGEHEND
 62
     8
100
AcDbLine
 10
156.54277
 20
57.871674
 30
0.0
 11
144.857712
 21
69.55674
 31
0.0
  0
LINE
  5
426
100
AcDbEntity
  8
BEMASSUNG
390
0
  6
DURCHGEHEND
 62
     8
100
AcDbLine
 10
156.54277
 20
57.871674
 30
0.0
 11
170.505997
 21
57.871674
 31
0.0
  0
LINE
  5
427
100
AcDbEntity
  8
BEMASSUNG
390
0
  6
DURCHGEHEND
 62
     8
100
AcDbLine
 10
144.288559
 20
68.516724
 30
0.0
 11
147.56102
 21
68.516724
 31
0.0
  0
LINE
  5
428
100
AcDbEntity
  8
BEMASSUNG
390
0
  6
DURCHGEHEND
 62
     8
100
AcDbLine
 10
150.086197
 20
62.926876
 30
0.0
 11
153.358658
 21
62.926884
 31
0.0
  0
POLYLINE
  5
429
100
AcDbEntity
  8
BEMASSUNG
390
0
  6
DURCHGEHEND
 62
     8
100
AcDb3dPolyline
 66
     1
 10
0.0
 20
0.0
 30
0.0
 70
    12
 75
     5
  0
VERTEX
  5
42A
100
AcDbEntity
  8
0
390
0
100
AcDbVertex
100
AcDb3dPolylineVertex
 10
157.740479
 20
165.891068
 30
0.0
 70
    48
  0
VERTEX
  5
42B
100
AcDbEntity
  8
0
390
0
100
AcDbVertex
100
AcDb3dPolylineVertex
 10
157.740479
 20
165.891068
 30
0.0
 70
    40
  0
VERTEX
  5
42C
100
AcDbEntity
  8
0
390
0
100
AcDbVertex
100
AcDb3dPolylineVertex
 10
154.777176
 20
162.927811
 30
0.0
 70
    40
  0
VERTEX
  5
42D
100
AcDbEntity
  8
0
390
0
100
AcDbVertex
100
AcDb3dPolylineVertex
 10
157.740479
 20
165.891068
 30
0.0
 70
    48
  0
VERTEX
  5
42E
100
AcDbEntity
  8
0
390
0
100
AcDbVertex
100
AcDb3dPolylineVertex
 10
154.777176
 20
162.927811
 30
0.0
 70
    48
  0
VERTEX
  5
42F
100
AcDbEntity
  8
0
390
0
100
AcDbVertex
100
AcDb3dPolylineVertex
 10
154.777176
 20
162.927811
 30
0.0
 70
    48
  0
SEQEND
  5
430
100
AcDbEntity
  8
0
390
0
  0
TEXT
  5
431
100
AcDbEntity
  8
BEMASSUNG
390
0
100
AcDbText
 10
182.708984
 20
154.523132
 30
0.0
 40
7.055555
  1
35
 50
90.0
100
AcDbText
  0
TEXT
  5
432
100
AcDbEntity
  8
BEMASSUNG
390
0
100
AcDbText
 10
182.31868
 20
101.738358
 30
0.0
 40
7.055555
  1
max. 45
 50
90.0
100
AcDbText
  0
TEXT
  5
433
100
AcDbEntity
  8
BEMASSUNG
390
0
100
AcDbText
 10
152.70668
 20
87.293282
 30
0.0
 40
7.055555
  1
1/2-14 NPT
100
AcDbText
  0
TEXT
  5
434
100
AcDbEntity
  8
BEMASSUNG
390
0
100
AcDbText
 10
114.210548
 20
97.417366
 30
0.0
 40
7.055555
  1
G 1/2
 50
90.0
100
AcDbText
  0
TEXT
  5
435
100
AcDbEntity
  8
BEMASSUNG
390
0
100
AcDbText
 10
99.517914
 20
136.431458
 30
0.0
 40
7.055555
  1
M 30x1,5
100
AcDbText
  0
POLYLINE
  5
436
100
AcDbEntity
  8
BEMASSUNG
390
0
  6
DURCHGEHEND
 62
     9
100
AcDb2dPolyline
 66
     1
 10
0.0
 20
0.0
 30
0.0
  0
VERTEX
  5
437
100
AcDbEntity
  8
0
390
0
100
AcDbVertex
100
AcDb2dVertex
 10
141.914322
 20
167.187759
 30
0.0
  0
VERTEX
  5
438
100
AcDbEntity
  8
0
390
0
100
AcDbVertex
100
AcDb2dVertex
 10
145.414291
 20
167.187759
 30
0.0
  0
VERTEX
  5
439
100
AcDbEntity
  8
0
390
0
100
AcDbVertex
100
AcDb2dVertex
 10
145.414291
 20
170.687744
 30
0.0
  0
VERTEX
  5
43A
100
AcDbEntity
  8
0
390
0
100
AcDbVertex
100
AcDb2dVertex
 10
141.914322
 20
170.687744
 30
0.0
  0
VERTEX
  5
43B
100
AcDbEntity
  8
0
390
0
100
AcDbVertex
100
AcDb2dVertex
 10
141.914322
 20
167.187759
 30
0.0
  0
SEQEND
  5
43C
100
AcDbEntity
  8
0
390
0
  0
LINE
  5
43D
100
AcDbEntity
  8
BEMASSUNG
390
0
  6
DURCHGEHEND
 62
     9
100
AcDbLine
 10
160.797195
 20
64.184036
 30
0.0
 11
156.797195
 21
60.184002
 31
0.0
  0
CIRCLE
  5
43E
100
AcDbEntity
  8
BEMASSUNG
390
0
  6
DURCHGEHEND
 62
     9
100
AcDbCircle
 10
158.815659
 20
62.202496
 30
0.0
 40
1.875
  0
TEXT
  5
43F
100
AcDbEntity
  8
BEMASSUNG
390
0
100
AcDbText
 10
161.913528
 20
59.235229
 30
0.0
 40
7.055555
  1
32
100
AcDbText
  0
TEXT
  5
440
100
AcDbEntity
  8
BEMASSUNG
390
0
100
AcDbText
 10
146.853012
 20
166.126755
 30
0.0
 40
7.055555
  1
60
100
AcDbText
  0
POLYLINE
  5
441
100
AcDbEntity
  8
WAND
390
0
  6
DURCHGEHEND
 62
     6
100
AcDb3dPolyline
 66
     1
 10
0.0
 20
0.0
 30
0.0
 70
    12
 75
     5
  0
VERTEX
  5
442
100
AcDbEntity
  8
0
390
0
100
AcDbVertex
100
AcDb3dPolylineVertex
 10
161.125854
 20
143.317825
 30
0.0
 70
    48
  0
VERTEX
  5
443
100
AcDbEntity
  8
0
390
0
100
AcDbVertex
100
AcDb3dPolylineVertex
 10
161.125854
 20
143.317825
 30
0.0
 70
    40
  0
VERTEX
  5
444
100
AcDbEntity
  8
0
390
0
100
AcDbVertex
100
AcDb3dPolylineVertex
 10
135.590317
 20
143.317825
 30
0.0
 70
    40
  0
VERTEX
  5
445
100
AcDbEntity
  8
0
390
0
100
AcDbVertex
100
AcDb3dPolylineVertex
 10
161.125854
 20
143.317825
 30
0.0
 70
    48
  0
VERTEX
  5
446
100
AcDbEntity
  8
0
390
0
100
AcDbVertex
100
AcDb3dPolylineVertex
 10
135.590317
 20
143.317825
 30
0.0
 70
    48
  0
VERTEX
  5
447
100
AcDbEntity
  8
0
390
0
100
AcDbVertex
100
AcDb3dPolylineVertex
 10
135.590317
 20
143.317825
 30
0.0
 70
    48
  0
SEQEND
  5
448
100
AcDbEntity
  8
0
390
0
  0
CIRCLE
  5
449
100
AcDbEntity
  8
ANSICHT
390
0
  6
DURCHGEHEND
 62
     7
100
AcDbCircle
 10
148.60881
 20
34.120564
 30
0.0
 40
3.199997
  0
ARC
  5
44A
100
AcDbEntity
  8
ANSICHT
390
0
  6
DURCHGEHEND
 62
     7
100
AcDbCircle
 10
147.596313
 20
37.67934
 30
0.0
 40
0.5
100
AcDbArc
 50
285.881012
 51
360.0
  0
ARC
  5
44B
100
AcDbEntity
  8
ANSICHT
390
0
  6
DURCHGEHEND
 62
     7
100
AcDbCircle
 10
149.621307
 20
37.67934
 30
0.0
 40
0.5
100
AcDbArc
 50
180.0
 51
254.117996
  0
LINE
  5
44C
100
AcDbEntity
  8
ANSICHT
390
0
  6
DURCHGEHEND
 62
     7
100
AcDbLine
 10
148.471313
 20
40.445568
 30
0.0
 11
148.746307
 21
40.445568
 31
0.0
  0
LINE
  5
44D
100
AcDbEntity
  8
ANSICHT
390
0
  6
DURCHGEHEND
 62
     7
100
AcDbLine
 10
149.121307
 20
40.070568
 30
0.0
 11
149.121307
 21
37.67934
 31
0.0
  0
LINE
  5
44E
100
AcDbEntity
  8
ANSICHT
390
0
  6
DURCHGEHEND
 62
     7
100
AcDbLine
 10
148.096313
 20
37.67934
 30
0.0
 11
148.096313
 21
40.070568
 31
0.0
  0
ARC
  5
44F
100
AcDbEntity
  8
ANSICHT
390
0
  6
DURCHGEHEND
 62
     7
100
AcDbCircle
 10
148.471313
 20
40.070568
 30
0.0
 40
0.375
100
AcDbArc
 50
90.0
 51
180.0
  0
ARC
  5
450
100
AcDbEntity
  8
ANSICHT
390
0
  6
DURCHGEHEND
 62
     7
100
AcDbCircle
 10
148.746307
 20
40.070568
 30
0.0
 40
0.375
100
AcDbArc
 50
0.0
 51
90.0
  0
LINE
  5
451
100
AcDbEntity
  8
ANSICHT
390
0
  6
DURCHGEHEND
 62
     7
100
AcDbLine
 10
141.308807
 20
41.620564
 30
0.0
 11
155.908813
 21
41.620564
 31
0.0
  0
LINE
  5
452
100
AcDbEntity
  8
ANSICHT
390
0
  6
DURCHGEHEND
 62
     7
100
AcDbLine
 10
141.10881
 20
26.820568
 30
0.0
 11
141.10881
 21
41.420567
 31
0.0
  0
LINE
  5
453
100
AcDbEntity
  8
ANSICHT
390
0
  6
DURCHGEHEND
 62
     7
100
AcDbLine
 10
156.108826
 20
41.420563
 30
0.0
 11
156.108826
 21
26.820568
 31
0.0
  0
LINE
  5
454
100
AcDbEntity
  8
ANSICHT
390
0
  6
DURCHGEHEND
 62
     7
100
AcDbLine
 10
155.908813
 20
26.620564
 30
0.0
 11
141.308807
 21
26.620564
 31
0.0
  0
ARC
  5
455
100
AcDbEntity
  8
ANSICHT
390
0
  6
DURCHGEHEND
 62
     7
100
AcDbCircle
 10
155.908813
 20
41.420567
 30
0.0
 40
0.199997
100
AcDbArc
 50
0.0
 51
90.0
  0
ARC
  5
456
100
AcDbEntity
  8
ANSICHT
390
0
  6
DURCHGEHEND
 62
     7
100
AcDbCircle
 10
141.308807
 20
41.420567
 30
0.0
 40
0.199997
100
AcDbArc
 50
90.0
 51
180.0
  0
ARC
  5
457
100
AcDbEntity
  8
ANSICHT
390
0
  6
DURCHGEHEND
 62
     7
100
AcDbCircle
 10
155.908813
 20
26.820568
 30
0.0
 40
0.199997
100
AcDbArc
 50
270.0
 51
360.0
  0
ARC
  5
458
100
AcDbEntity
  8
ANSICHT
390
0
  6
DURCHGEHEND
 62
     7
100
AcDbCircle
 10
141.308807
 20
26.820568
 30
0.0
 40
0.199997
100
AcDbArc
 50
180.0
 51
270.0
  0
ENDSEC
  0
SECTION
  2
OBJECTS
  0
DICTIONARY
  5
19
100
AcDbDictionary
280
     0
281
     1
  3
ACAD_GROUP
350
1A
  3
ACAD_MLINESTYLE
350
1B
  3
ACAD_LAYOUT
350
1E
  3
ACAD_PLOTSETTINGS
350
22
  3
ACAD_PLOTSTYLENAME
350
1F
  3
ACAD_WIPEOUT_VARS
350
23
  0
DICTIONARY
  5
1A
102
{ACAD_REACTORS
330
19
102
}
100
AcDbDictionary
280
     0
281
     1
  0
DICTIONARY
  5
1B
102
{ACAD_REACTORS
330
19
102
}
100
AcDbDictionary
280
     0
281
     1
  3
Standard
350
1C
  0
MLINESTYLE
  5
1C
102
{ACAD_REACTORS
330
1B
102
}
100
AcDbMlineStyle
  2
Standard
 70
     0
  3

 62
     0
 51
90.0
 52
90.0
 71
     2
 49
0.5
 62
   256
  6
ByLayer
 49
-0.5
 62
   256
  6
ByLayer
  0
ACDBDICTIONARYWDFLT
  5
1F
102
{ACAD_REACTORS
330
19
102
}
100
AcDbDictionary
281
     1
  3
Normal
350
1D
100
AcDbDictionaryWithDefault
340
1D
  0
ACDBPLACEHOLDER
  5
1D
102
{ACAD_REACTORS
330
1F
102
}
  0
LAYOUT
  5
20
102
{ACAD_REACTORS
330
1E
102
}
100
AcDbPlotSettings
  1

  2

  4

  6

 40
0.0
 41
0.0
 42
0.0
 43
0.0
 44
0.0
 45
0.0
 46
0.0
 47
0.0
 48
0.0
 49
0.0
140
0.0
141
0.0
142
1.0
143
1.0
 70
  1024
 72
     0
 73
     0
 74
     0
  7

 75
     0
147
1.0
148
0.0
149
0.0
100
AcDbLayout
  1
Model
 70
     0
 71
     0
 10
0.0
 20
0.0
 11
0.0
 21
0.0
 12
0.0
 22
0.0
 32
0.0
 14
0.0
 24
0.0
 34
0.0
 15
0.0
 25
0.0
 35
0.0
146
0.0
 13
0.0
 23
0.0
 33
0.0
 16
0.0
 26
0.0
 36
0.0
 17
0.0
 27
0.0
 37
0.0
 76
     0
330
A
331
0
345
0
346
0
  0
LAYOUT
  5
21
102
{ACAD_REACTORS
330
1E
102
}
100
AcDbPlotSettings
  1

  2

  4

  6

 40
0.0
 41
0.0
 42
0.0
 43
0.0
 44
0.0
 45
0.0
 46
0.0
 47
0.0
 48
0.0
 49
0.0
140
0.0
141
0.0
142
1.0
143
1.0
 70
     0
 72
     0
 73
     0
 74
     0
  7

 75
     0
147
1.0
148
0.0
149
0.0
100
AcDbLayout
  1
Layout1
 70
     0
 71
     0
 10
0.0
 20
0.0
 11
0.0
 21
0.0
 12
0.0
 22
0.0
 32
0.0
 14
0.0
 24
0.0
 34
0.0
 15
0.0
 25
0.0
 35
0.0
146
0.0
 13
0.0
 23
0.0
 33
0.0
 16
0.0
 26
0.0
 36
0.0
 17
0.0
 27
0.0
 37
0.0
 76
     0
330
B
331
0
345
0
346
0
  0
DICTIONARY
  5
1E
102
{ACAD_REACTORS
330
19
102
}
100
AcDbDictionary
280
     0
281
     1
  3
Layout1
350
21
  3
Model
350
20
  0
DICTIONARY
  5
22
102
{ACAD_REACTORS
330
19
102
}
100
AcDbDictionary
280
     0
281
     1
  0
WIPEOUTVARIABLES
  5
23
100
AcDbWipeoutVariables
 70
     1
  0
ENDSEC
  0
EOF
