  0
SECTION
  2
HEADER
  9
$ACADVER
  1
AC1015
  9
$ACADMAINTVER
 70
     6
  9
$DWGCODEPAGE
  3
ANSI_1252
  9
$INSBASE
 10
0.0
 20
0.0
 30
0.0
  9
$EXTMIN
 10
42.798569
 20
3.180404
 30
0.0
  9
$EXTMAX
 10
293.614227
 20
192.147476
 30
0.0
  9
$LIMMIN
 10
0.0
 20
0.0
  9
$LIMMAX
 10
0.0
 20
0.0
  9
$ORTHOMODE
 70
     0
  9
$REGENMODE
 70
     1
  9
$FILLMODE
 70
     1
  9
$QTEXTMODE
 70
     0
  9
$MIRRTEXT
 70
     1
  9
$LTSCALE
 40
1.0
  9
$ATTMODE
 70
     1
  9
$TEXTSIZE
 40
0.2
  9
$TRACEWID
 40
0.05
  9
$TEXTSTYLE
  7
Standard
  9
$CLAYER
  8
0
  9
$CELTYPE
  6
Continuous
  9
$CECOLOR
 62
   256
  9
$CELTSCALE
 40
1.0
  9
$DISPSILH
 70
     0
  9
$DIMSCALE
 40
1.0
  9
$DIMASZ
 40
0.18
  9
$DIMEXO
 40
0.0625
  9
$DIMDLI
 40
0.38
  9
$DIMRND
 40
0.0
  9
$DIMDLE
 40
0.0
  9
$DIMEXE
 40
0.18
  9
$DIMTP
 40
0.0
  9
$DIMTM
 40
0.0
  9
$DIMTXT
 40
0.18
  9
$DIMCEN
 40
0.09
  9
$DIMTSZ
 40
0.0
  9
$DIMTOL
 70
     0
  9
$DIMLIM
 70
     0
  9
$DIMTIH
 70
     1
  9
$DIMTOH
 70
     1
  9
$DIMSE1
 70
     0
  9
$DIMSE2
 70
     0
  9
$DIMTAD
 70
     0
  9
$DIMZIN
 70
     0
  9
$DIMBLK
  1

  9
$DIMASO
 70
     1
  9
$DIMSHO
 70
     1
  9
$DIMPOST
  1

  9
$DIMAPOST
  1

  9
$DIMALT
 70
     0
  9
$DIMALTD
 70
     2
  9
$DIMALTF
 40
25.4
  9
$DIMLFAC
 40
1.0
  9
$DIMTOFL
 70
     0
  9
$DIMTVP
 40
0.0
  9
$DIMTIX
 70
     0
  9
$DIMSOXD
 70
     0
  9
$DIMSAH
 70
     0
  9
$DIMBLK1
  1

  9
$DIMBLK2
  1

  9
$DIMSTYLE
  2
Standard
  9
$DIMCLRD
 70
     0
  9
$DIMCLRE
 70
     0
  9
$DIMCLRT
 70
     0
  9
$DIMTFAC
 40
1.0
  9
$DIMGAP
 40
0.09
  9
$DIMJUST
 70
     0
  9
$DIMSD1
 70
     0
  9
$DIMSD2
 70
     0
  9
$DIMTOLJ
 70
     1
  9
$DIMTZIN
 70
     0
  9
$DIMALTZ
 70
     0
  9
$DIMALTTZ
 70
     0
  9
$DIMUPT
 70
     0
  9
$DIMDEC
 70
     4
  9
$DIMTDEC
 70
     4
  9
$DIMALTU
 70
     2
  9
$DIMALTTD
 70
     2
  9
$DIMTXSTY
  7
Standard
  9
$DIMAUNIT
 70
     0
  9
$DIMADEC
 70
     0
  9
$DIMALTRND
 40
0.0
  9
$DIMAZIN
 70
     0
  9
$DIMDSEP
 70
     0
  9
$DIMATFIT
 70
     3
  9
$DIMFRAC
 70
     0
  9
$DIMLDRBLK
  1

  9
$DIMLUNIT
 70
     2
  9
$DIMLWD
 70
     0
  9
$DIMLWE
 70
     0
  9
$DIMTMOVE
 70
     0
  9
$LUNITS
 70
     2
  9
$LUPREC
 70
     4
  9
$SKETCHINC
 40
0.1
  9
$FILLETRAD
 40
0.0
  9
$AUNITS
 70
     0
  9
$AUPREC
 70
     0
  9
$MENU
  1
acad
  9
$ELEVATION
 40
0.0
  9
$PELEVATION
 40
0.0
  9
$THICKNESS
 40
0.0
  9
$LIMCHECK
 70
     0
  9
$CHAMFERA
 40
0.0
  9
$CHAMFERB
 40
0.0
  9
$CHAMFERC
 40
0.0
  9
$CHAMFERD
 40
0.0
  9
$SKPOLY
 70
     0
  9
$TDCREATE
 40
0.000000000
  9
$TDUCREATE
 40
0.000000000
  9
$TDUPDATE
 40
0.000000000
  9
$TDUUPDATE
 40
0.000000000
  9
$TDINDWG
 40
0.0000000000
  9
$TDUSRTIMER
 40
0.0000000000
  9
$USRTIMER
 70
     1
  9
$ANGBASE
 50
0.0
  9
$ANGDIR
 70
     0
  9
$PDMODE
 70
     0
  9
$PDSIZE
 40
0.0
  9
$PLINEWID
 40
0.0
  9
$SPLFRAME
 70
     0
  9
$SPLINETYPE
 70
     6
  9
$SPLINESEGS
 70
     8
  9
$HANDSEED
  5
238
  9
$SURFTAB1
 70
     6
  9
$SURFTAB2
 70
     6
  9
$SURFTYPE
 70
     6
  9
$SURFU
 70
     6
  9
$SURFV
 70
     6
  9
$UCSBASE
  2

  9
$UCSNAME
  2

  9
$UCSORG
 10
0.0
 20
0.0
 30
0.0
  9
$UCSXDIR
 10
1.0
 20
0.0
 30
0.0
  9
$UCSYDIR
 10
0.0
 20
1.0
 30
0.0
  9
$UCSORTHOREF
  2

  9
$UCSORTHOVIEW
 70
     0
  9
$UCSORGTOP
 10
0.0
 20
0.0
 30
0.0
  9
$UCSORGBOTTOM
 10
0.0
 20
0.0
 30
0.0
  9
$UCSORGLEFT
 10
0.0
 20
0.0
 30
0.0
  9
$UCSORGRIGHT
 10
0.0
 20
0.0
 30
0.0
  9
$UCSORGFRONT
 10
0.0
 20
0.0
 30
0.0
  9
$UCSORGBACK
 10
0.0
 20
0.0
 30
0.0
  9
$PUCSBASE
  2

  9
$PUCSNAME
  2

  9
$PUCSORG
 10
0.0
 20
0.0
 30
0.0
  9
$PUCSXDIR
 10
1.0
 20
0.0
 30
0.0
  9
$PUCSYDIR
 10
0.0
 20
1.0
 30
0.0
  9
$PUCSORTHOREF
  2

  9
$PUCSORTHOVIEW
 70
     0
  9
$PUCSORGTOP
 10
0.0
 20
0.0
 30
0.0
  9
$PUCSORGBOTTOM
 10
0.0
 20
0.0
 30
0.0
  9
$PUCSORGLEFT
 10
0.0
 20
0.0
 30
0.0
  9
$PUCSORGRIGHT
 10
0.0
 20
0.0
 30
0.0
  9
$PUCSORGFRONT
 10
0.0
 20
0.0
 30
0.0
  9
$PUCSORGBACK
 10
0.0
 20
0.0
 30
0.0
  9
$USERI1
 70
     0
  9
$USERI2
 70
     0
  9
$USERI3
 70
     0
  9
$USERI4
 70
     0
  9
$USERI5
 70
     0
  9
$USERR1
 40
0.0
  9
$USERR2
 40
0.0
  9
$USERR3
 40
0.0
  9
$USERR4
 40
0.0
  9
$USERR5
 40
0.0
  9
$WORLDVIEW
 70
     1
  9
$SHADEDGE
 70
     3
  9
$SHADEDIF
 70
    70
  9
$TILEMODE
 70
     1
  9
$MAXACTVP
 70
    16
  9
$PINSBASE
 10
0.0
 20
0.0
 30
0.0
  9
$PLIMCHECK
 70
     0
  9
$PEXTMIN
 10
1.000000E+20
 20
1.000000E+20
 30
1.000000E+20
  9
$PEXTMAX
 10
-1.000000E+20
 20
-1.000000E+20
 30
-1.000000E+20
  9
$PLIMMIN
 10
0.0
 20
0.0
  9
$PLIMMAX
 10
12.0
 20
9.0
  9
$UNITMODE
 70
     0
  9
$VISRETAIN
 70
     0
  9
$PLINEGEN
 70
     1
  9
$PSLTSCALE
 70
     0
  9
$TREEDEPTH
 70
  3020
  9
$CMLSTYLE
  2
Standard
  9
$CMLJUST
 70
     0
  9
$CMLSCALE
 40
1.0
  9
$PROXYGRAPHICS
 70
     0
  9
$MEASUREMENT
 70
     0
  9
$CELWEIGHT
370
     0
  9
$ENDCAPS
280
     0
  9
$JOINSTYLE
280
     0
  9
$LWDISPLAY
290
     0
  9
$INSUNITS
 70
     0
  9
$HYPERLINKBASE
  1

  9
$STYLESHEET
  1

  9
$XEDIT
290
     1
  9
$CEPSNTYPE
380
     0
  9
$PSTYLEMODE
290
     1
  9
$FINGERPRINTGUID
  2

  9
$VERSIONGUID
  2

  9
$EXTNAMES
290
     1
  9
$PSVPSCALE
 40
0.0
  0
ENDSEC
  0
SECTION
  2
CLASSES
  0
CLASS
  1
LWPOLYLINE
  2
AcDbPolyline
  3
AutoCAD 2000
 90
        0
280
     0
281
     1
  0
CLASS
  1
IMAGE
  2
AcDbRasterImage
  3
ISM
 90
      127
280
     0
281
     1
  0
CLASS
  1
OLE2FRAME
  2
AcDbOle2Frame
  3
AutoCAD 2000
 90
        0
280
     0
281
     1
  0
CLASS
  1
HATCH
  2
AcDbHatch
  3
AutoCAD 2000
 90
        0
280
     0
281
     1
  0
CLASS
  1
DICTIONARYVAR
  2
AcDbDictionaryVar
  3
AutoCAD 2000
 90
        0
280
     0
281
     0
  0
CLASS
  1
RASTERVARIABLES
  2
AcDbRasterVariables
  3
ISM
 90
        0
280
     0
281
     0
  0
CLASS
  1
IMAGEDEF
  2
AcDbRasterImageDef
  3
ISM
 90
        0
280
     0
281
     0
  0
CLASS
  1
IMAGEDEF_REACTOR
  2
AcDbRasterImageDefReactor
  3
ISM
 90
        1
280
     0
281
     0
  0
CLASS
  1
IDBUFFER
  2
AcDbIdBuffer
  3
AutoCAD 2000
 90
        0
280
     0
281
     0
  0
CLASS
  1
SPATIAL_FILTER
  2
AcDbSpatialFilter
  3
AutoCAD 2000
 90
        0
280
     0
281
     0
  0
CLASS
  1
XRECORD
  2
AcDbXrecord
  3
AutoCAD 2000
 90
        0
280
     0
281
     0
  0
CLASS
  1
SORTENTSTABLE
  2
AcDbSortentsTable
  3
AutoCAD 2000
 90
        0
280
     0
281
     0
  0
CLASS
  1
LAYER_INDEX
  2
AcDbLayerIndex
  3
AutoCAD 2000
 90
        0
280
     0
281
     0
  0
CLASS
  1
SPATIAL_INDEX
  2
AcDbSpatialIndex
  3
AutoCAD 2000
 90
        0
280
     0
281
     0
  0
CLASS
  1
OBJECT_PTR
  2
CAseDLPNTableRecord
  3
"ASE-LPNTableRecord"
 90
        1
280
     0
281
     0
  0
CLASS
  1
LAYOUT
  2
AcDbLayout
  3
AutoCAD 2000
 90
        0
280
     0
281
     0
  0
CLASS
  1
PLOTSETTINGS
  2
AcDbPlotSettings
  3
AutoCAD 2000
 90
        0
280
     0
281
     0
  0
CLASS
  1
ACDBDICTIONARYWDFLT
  2
AcDbDictionaryWithDefault
  3
AutoCAD 2000
 90
        0
280
     0
281
     0
  0
CLASS
  1
ACDBPLACEHOLDER
  2
AcDbPlaceHolder
  3
AutoCAD 2000
 90
        0
280
     0
281
     0
  0
CLASS
  1
VBA_PROJECT
  2
AcDbVbaProject
  3
acadvba
 90
        0
280
     0
281
     0
  0
CLASS
  1
WIPEOUT
  2
AcDbWipeout
  3
WipeOut|AutoCAD Express Tool|expresstools@autodesk.com
 90
      127
280
     0
281
     1
  0
CLASS
  1
WIPEOUTVARIABLES
  2
AcDbWipeoutVariables
  3
WipeOut|AutoCAD Express Tool|expresstools@autodesk.com
 90
        0
280
     0
281
     0
  0
CLASS
  1
RTEXT
  2
RText
  3
RText|AutoCAD Express Tool|expresstools@autodesk.com
 90
        0
280
     0
281
     1
  0
CLASS
  1
ARCALIGNEDTEXT
  2
AcDbArcAlignedText
  3
ATEXT|AutoCAD Express Tool|expresstools@autodesk.com
 90
        0
280
     0
281
     1
  0
ENDSEC
  0
SECTION
  2
TABLES
  0
TABLE
  2
VPORT
  5
7
100
AcDbSymbolTable
 70
     1
  0
VPORT
  5
15
100
AcDbSymbolTableRecord
100
AcDbViewportTableRecord
  2
*ACTIVE
 70
     0
 10
0.0
 20
0.0
 11
1.0
 21
1.0
 12
6.591288
 22
4.579184
 13
0.0
 23
0.0
 14
1.0
 24
1.0
 15
0.0
 25
0.0
 16
0.0
 26
0.0
 36
1.0
 17
0.0
 27
0.0
 37
0.0
 40
9.158369
 41
0.688564
 42
50.0
 43
0.0
 44
0.0
 50
0.0
 51
0.0
 71
     0
 72
   100
 73
     1
 74
     1
 75
     0
 76
     0
 77
     0
 78
     0
281
     0
 65
     0
110
0.0
120
0.0
130
0.0
111
1.0
121
0.0
131
0.0
112
0.0
122
1.0
132
0.0
345
0
346
0
 79
     0
146
0.0
  0
ENDTAB
  0
TABLE
  2
LTYPE
  5
4
100
AcDbSymbolTable
 70
   201
  0
LTYPE
  5
11
100
AcDbSymbolTableRecord
100
AcDbLinetypeTableRecord
  2
ByBlock
 70
    64
  3

 72
    65
 73
     0
 40
0.0
  0
LTYPE
  5
12
100
AcDbSymbolTableRecord
100
AcDbLinetypeTableRecord
  2
ByLayer
 70
    64
  3

 72
    65
 73
     0
 40
0.0
  0
LTYPE
  5
13
100
AcDbSymbolTableRecord
100
AcDbLinetypeTableRecord
  2
Continuous
 70
    64
  3
Solid line
 72
    65
 73
     0
 40
0.0
  0
LTYPE
  5
25
100
AcDbSymbolTableRecord
100
AcDbLinetypeTableRecord
  2
DURCHGEHEND
 70
    64
  3

 72
    65
 73
     0
 40
0.0
  0
LTYPE
  5
26
100
AcDbSymbolTableRecord
100
AcDbLinetypeTableRecord
  2
GESTRICHELT
 70
    64
  3

 72
    65
 73
     2
 40
10.0
 49
5.0
 74
     0
 49
-5.0
 74
     0
  0
LTYPE
  5
27
100
AcDbSymbolTableRecord
100
AcDbLinetypeTableRecord
  2
MITTELLINIE
 70
    64
  3

 72
    65
 73
     4
 40
20.0
 49
10.0
 74
     0
 49
-2.0
 74
     0
 49
5.0
 74
     0
 49
-3.0
 74
     0
  0
LTYPE
  5
28
100
AcDbSymbolTableRecord
100
AcDbLinetypeTableRecord
  2
PUNKTIERT
 70
    64
  3

 72
    65
 73
     2
 40
0.25
 49
0.0
 74
     0
 49
-0.25
 74
     0
  0
LTYPE
  5
29
100
AcDbSymbolTableRecord
100
AcDbLinetypeTableRecord
  2
STRICHPUNKTIERT
 70
    64
  3

 72
    65
 73
     4
 40
8.0
 49
5.0
 74
     0
 49
-1.0
 74
     0
 49
1.0
 74
     0
 49
-1.0
 74
     0
  0
LTYPE
  5
2A
100
AcDbSymbolTableRecord
100
AcDbLinetypeTableRecord
  2
STRICH-PUNKT-PUNKT
 70
    64
  3

 72
    65
 73
     6
 40
10.0
 49
5.0
 74
     0
 49
-1.0
 74
     0
 49
1.0
 74
     0
 49
-1.0
 74
     0
 49
1.0
 74
     0
 49
-1.0
 74
     0
  0
LTYPE
  5
2B
100
AcDbSymbolTableRecord
100
AcDbLinetypeTableRecord
  2
STARTPFEIL
 70
    64
  3

 72
    65
 73
     0
 40
0.0
  0
LTYPE
  5
2C
100
AcDbSymbolTableRecord
100
AcDbLinetypeTableRecord
  2
ENDPFEIL
 70
    64
  3

 72
    65
 73
     0
 40
0.0
  0
LTYPE
  5
2D
100
AcDbSymbolTableRecord
100
AcDbLinetypeTableRecord
  2
ENDPUNKT
 70
    64
  3

 72
    65
 73
     0
 40
0.0
  0
LTYPE
  5
2E
100
AcDbSymbolTableRecord
100
AcDbLinetypeTableRecord
  2
PFEIL
 70
    64
  3

 72
    65
 73
     0
 40
0.0
  0
LTYPE
  5
2F
100
AcDbSymbolTableRecord
100
AcDbLinetypeTableRecord
  2
STITCHLINE
 70
    64
  3

 72
    65
 73
     2
 40
6.0
 49
3.0
 74
     0
 49
-3.0
 74
     0
  0
LTYPE
  5
30
100
AcDbSymbolTableRecord
100
AcDbLinetypeTableRecord
  2
MITTELLINIE_2
 70
    64
  3

 72
    65
 73
     4
 40
17.0
 49
10.0
 74
     0
 49
-2.0
 74
     0
 49
3.0
 74
     0
 49
-2.0
 74
     0
  0
LTYPE
  5
31
100
AcDbSymbolTableRecord
100
AcDbLinetypeTableRecord
  2
VERDECKTE_LINIE
 70
    64
  3

 72
    65
 73
     2
 40
4.0
 49
2.0
 74
     0
 49
-2.0
 74
     0
  0
LTYPE
  5
32
100
AcDbSymbolTableRecord
100
AcDbLinetypeTableRecord
  2
PHANTOMLINIE
 70
    64
  3

 72
    65
 73
     6
 40
21.0
 49
10.0
 74
     0
 49
-2.0
 74
     0
 49
3.0
 74
     0
 49
-1.0
 74
     0
 49
3.0
 74
     0
 49
-2.0
 74
     0
  0
LTYPE
  5
33
100
AcDbSymbolTableRecord
100
AcDbLinetypeTableRecord
  2
BRUCHLINIE_1
 70
    64
  3

 72
    65
 73
     0
 40
0.0
  0
LTYPE
  5
34
100
AcDbSymbolTableRecord
100
AcDbLinetypeTableRecord
  2
BRUCHLINIE_2
 70
    64
  3

 72
    65
 73
     0
 40
0.0
  0
LTYPE
  5
35
100
AcDbSymbolTableRecord
100
AcDbLinetypeTableRecord
  2
_DURCHGEHEND
 70
    64
  3

 72
    65
 73
     0
 40
0.0
  0
LTYPE
  5
36
100
AcDbSymbolTableRecord
100
AcDbLinetypeTableRecord
  2
_GESTRICHELT
 70
    64
  3

 72
    65
 73
     2
 40
10.0
 49
5.0
 74
     0
 49
-5.0
 74
     0
  0
LTYPE
  5
37
100
AcDbSymbolTableRecord
100
AcDbLinetypeTableRecord
  2
_MITTELLINIE
 70
    64
  3

 72
    65
 73
     4
 40
20.0
 49
10.0
 74
     0
 49
-2.0
 74
     0
 49
5.0
 74
     0
 49
-3.0
 74
     0
  0
LTYPE
  5
38
100
AcDbSymbolTableRecord
100
AcDbLinetypeTableRecord
  2
_PUNKTIERT
 70
    64
  3

 72
    65
 73
     2
 40
0.25
 49
0.0
 74
     0
 49
-0.25
 74
     0
  0
LTYPE
  5
39
100
AcDbSymbolTableRecord
100
AcDbLinetypeTableRecord
  2
_STRICHPUNKTIERT
 70
    64
  3

 72
    65
 73
     4
 40
8.0
 49
5.0
 74
     0
 49
-1.0
 74
     0
 49
1.0
 74
     0
 49
-1.0
 74
     0
  0
LTYPE
  5
3A
100
AcDbSymbolTableRecord
100
AcDbLinetypeTableRecord
  2
_STRICH-PUNKT-PUNKT
 70
    64
  3

 72
    65
 73
     6
 40
10.0
 49
5.0
 74
     0
 49
-1.0
 74
     0
 49
1.0
 74
     0
 49
-1.0
 74
     0
 49
1.0
 74
     0
 49
-1.0
 74
     0
  0
LTYPE
  5
3B
100
AcDbSymbolTableRecord
100
AcDbLinetypeTableRecord
  2
_STARTPFEIL
 70
    64
  3

 72
    65
 73
     0
 40
0.0
  0
LTYPE
  5
3C
100
AcDbSymbolTableRecord
100
AcDbLinetypeTableRecord
  2
_ENDPFEIL
 70
    64
  3

 72
    65
 73
     0
 40
0.0
  0
LTYPE
  5
3D
100
AcDbSymbolTableRecord
100
AcDbLinetypeTableRecord
  2
_ENDPUNKT
 70
    64
  3

 72
    65
 73
     0
 40
0.0
  0
LTYPE
  5
3E
100
AcDbSymbolTableRecord
100
AcDbLinetypeTableRecord
  2
_PFEIL
 70
    64
  3

 72
    65
 73
     0
 40
0.0
  0
LTYPE
  5
3F
100
AcDbSymbolTableRecord
100
AcDbLinetypeTableRecord
  2
_STITCHLINE
 70
    64
  3

 72
    65
 73
     2
 40
6.0
 49
3.0
 74
     0
 49
-3.0
 74
     0
  0
LTYPE
  5
40
100
AcDbSymbolTableRecord
100
AcDbLinetypeTableRecord
  2
_MITTELLINIE_2
 70
    64
  3

 72
    65
 73
     4
 40
17.0
 49
10.0
 74
     0
 49
-2.0
 74
     0
 49
3.0
 74
     0
 49
-2.0
 74
     0
  0
LTYPE
  5
41
100
AcDbSymbolTableRecord
100
AcDbLinetypeTableRecord
  2
_VERDECKTE_LINIE
 70
    64
  3

 72
    65
 73
     2
 40
4.0
 49
2.0
 74
     0
 49
-2.0
 74
     0
  0
LTYPE
  5
42
100
AcDbSymbolTableRecord
100
AcDbLinetypeTableRecord
  2
_PHANTOMLINIE
 70
    64
  3

 72
    65
 73
     6
 40
21.0
 49
10.0
 74
     0
 49
-2.0
 74
     0
 49
3.0
 74
     0
 49
-1.0
 74
     0
 49
3.0
 74
     0
 49
-2.0
 74
     0
  0
LTYPE
  5
43
100
AcDbSymbolTableRecord
100
AcDbLinetypeTableRecord
  2
_BRUCHLINIE_1
 70
    64
  3

 72
    65
 73
     0
 40
0.0
  0
LTYPE
  5
44
100
AcDbSymbolTableRecord
100
AcDbLinetypeTableRecord
  2
_BRUCHLINIE_2
 70
    64
  3

 72
    65
 73
     0
 40
0.0
  0
LTYPE
  5
45
100
AcDbSymbolTableRecord
100
AcDbLinetypeTableRecord
  2
CONTINUOUS
 70
    64
  3

 72
    65
 73
     0
 40
0.0
  0
LTYPE
  5
46
100
AcDbSymbolTableRecord
100
AcDbLinetypeTableRecord
  2
_DURCHGEHEND
 70
    64
  3

 72
    65
 73
     0
 40
0.0
  0
LTYPE
  5
47
100
AcDbSymbolTableRecord
100
AcDbLinetypeTableRecord
  2
_GESTRICHELT
 70
    64
  3

 72
    65
 73
     2
 40
10.0
 49
5.0
 74
     0
 49
-5.0
 74
     0
  0
LTYPE
  5
48
100
AcDbSymbolTableRecord
100
AcDbLinetypeTableRecord
  2
_MITTELLINIE
 70
    64
  3

 72
    65
 73
     4
 40
20.0
 49
10.0
 74
     0
 49
-2.0
 74
     0
 49
5.0
 74
     0
 49
-3.0
 74
     0
  0
LTYPE
  5
49
100
AcDbSymbolTableRecord
100
AcDbLinetypeTableRecord
  2
_PUNKTIERT
 70
    64
  3

 72
    65
 73
     2
 40
0.25
 49
0.0
 74
     0
 49
-0.25
 74
     0
  0
LTYPE
  5
4A
100
AcDbSymbolTableRecord
100
AcDbLinetypeTableRecord
  2
_STRICHPUNKTIERT
 70
    64
  3

 72
    65
 73
     4
 40
8.0
 49
5.0
 74
     0
 49
-1.0
 74
     0
 49
1.0
 74
     0
 49
-1.0
 74
     0
  0
LTYPE
  5
4B
100
AcDbSymbolTableRecord
100
AcDbLinetypeTableRecord
  2
_STRICH-PUNKT-PUNKT
 70
    64
  3

 72
    65
 73
     6
 40
10.0
 49
5.0
 74
     0
 49
-1.0
 74
     0
 49
1.0
 74
     0
 49
-1.0
 74
     0
 49
1.0
 74
     0
 49
-1.0
 74
     0
  0
LTYPE
  5
4C
100
AcDbSymbolTableRecord
100
AcDbLinetypeTableRecord
  2
_STARTPFEIL
 70
    64
  3

 72
    65
 73
     0
 40
0.0
  0
LTYPE
  5
4D
100
AcDbSymbolTableRecord
100
AcDbLinetypeTableRecord
  2
_ENDPFEIL
 70
    64
  3

 72
    65
 73
     0
 40
0.0
  0
LTYPE
  5
4E
100
AcDbSymbolTableRecord
100
AcDbLinetypeTableRecord
  2
_ENDPUNKT
 70
    64
  3

 72
    65
 73
     0
 40
0.0
  0
LTYPE
  5
4F
100
AcDbSymbolTableRecord
100
AcDbLinetypeTableRecord
  2
_PFEIL
 70
    64
  3

 72
    65
 73
     0
 40
0.0
  0
LTYPE
  5
50
100
AcDbSymbolTableRecord
100
AcDbLinetypeTableRecord
  2
_STITCHLINE
 70
    64
  3

 72
    65
 73
     2
 40
6.0
 49
3.0
 74
     0
 49
-3.0
 74
     0
  0
LTYPE
  5
51
100
AcDbSymbolTableRecord
100
AcDbLinetypeTableRecord
  2
_MITTELLINIE_2
 70
    64
  3

 72
    65
 73
     4
 40
17.0
 49
10.0
 74
     0
 49
-2.0
 74
     0
 49
3.0
 74
     0
 49
-2.0
 74
     0
  0
LTYPE
  5
52
100
AcDbSymbolTableRecord
100
AcDbLinetypeTableRecord
  2
_VERDECKTE_LINIE
 70
    64
  3

 72
    65
 73
     2
 40
4.0
 49
2.0
 74
     0
 49
-2.0
 74
     0
  0
LTYPE
  5
53
100
AcDbSymbolTableRecord
100
AcDbLinetypeTableRecord
  2
_PHANTOMLINIE
 70
    64
  3

 72
    65
 73
     6
 40
21.0
 49
10.0
 74
     0
 49
-2.0
 74
     0
 49
3.0
 74
     0
 49
-1.0
 74
     0
 49
3.0
 74
     0
 49
-2.0
 74
     0
  0
LTYPE
  5
54
100
AcDbSymbolTableRecord
100
AcDbLinetypeTableRecord
  2
_BRUCHLINIE_1
 70
    64
  3

 72
    65
 73
     0
 40
0.0
  0
LTYPE
  5
55
100
AcDbSymbolTableRecord
100
AcDbLinetypeTableRecord
  2
_BRUCHLINIE_2
 70
    64
  3

 72
    65
 73
     0
 40
0.0
  0
LTYPE
  5
56
100
AcDbSymbolTableRecord
100
AcDbLinetypeTableRecord
  2
_DURCHGEHEND
 70
    64
  3

 72
    65
 73
     0
 40
0.0
  0
LTYPE
  5
57
100
AcDbSymbolTableRecord
100
AcDbLinetypeTableRecord
  2
_GESTRICHELT
 70
    64
  3

 72
    65
 73
     2
 40
10.0
 49
5.0
 74
     0
 49
-5.0
 74
     0
  0
LTYPE
  5
58
100
AcDbSymbolTableRecord
100
AcDbLinetypeTableRecord
  2
_MITTELLINIE
 70
    64
  3

 72
    65
 73
     4
 40
20.0
 49
10.0
 74
     0
 49
-2.0
 74
     0
 49
5.0
 74
     0
 49
-3.0
 74
     0
  0
LTYPE
  5
59
100
AcDbSymbolTableRecord
100
AcDbLinetypeTableRecord
  2
_PUNKTIERT
 70
    64
  3

 72
    65
 73
     2
 40
0.25
 49
0.0
 74
     0
 49
-0.25
 74
     0
  0
LTYPE
  5
5A
100
AcDbSymbolTableRecord
100
AcDbLinetypeTableRecord
  2
_STRICHPUNKTIERT
 70
    64
  3

 72
    65
 73
     4
 40
8.0
 49
5.0
 74
     0
 49
-1.0
 74
     0
 49
1.0
 74
     0
 49
-1.0
 74
     0
  0
LTYPE
  5
5B
100
AcDbSymbolTableRecord
100
AcDbLinetypeTableRecord
  2
_STRICH-PUNKT-PUNKT
 70
    64
  3

 72
    65
 73
     6
 40
10.0
 49
5.0
 74
     0
 49
-1.0
 74
     0
 49
1.0
 74
     0
 49
-1.0
 74
     0
 49
1.0
 74
     0
 49
-1.0
 74
     0
  0
LTYPE
  5
5C
100
AcDbSymbolTableRecord
100
AcDbLinetypeTableRecord
  2
_STARTPFEIL
 70
    64
  3

 72
    65
 73
     0
 40
0.0
  0
LTYPE
  5
5D
100
AcDbSymbolTableRecord
100
AcDbLinetypeTableRecord
  2
_ENDPFEIL
 70
    64
  3

 72
    65
 73
     0
 40
0.0
  0
LTYPE
  5
5E
100
AcDbSymbolTableRecord
100
AcDbLinetypeTableRecord
  2
_ENDPUNKT
 70
    64
  3

 72
    65
 73
     0
 40
0.0
  0
LTYPE
  5
5F
100
AcDbSymbolTableRecord
100
AcDbLinetypeTableRecord
  2
_PFEIL
 70
    64
  3

 72
    65
 73
     0
 40
0.0
  0
LTYPE
  5
60
100
AcDbSymbolTableRecord
100
AcDbLinetypeTableRecord
  2
_STITCHLINE
 70
    64
  3

 72
    65
 73
     2
 40
6.0
 49
3.0
 74
     0
 49
-3.0
 74
     0
  0
LTYPE
  5
61
100
AcDbSymbolTableRecord
100
AcDbLinetypeTableRecord
  2
_MITTELLINIE_2
 70
    64
  3

 72
    65
 73
     4
 40
17.0
 49
10.0
 74
     0
 49
-2.0
 74
     0
 49
3.0
 74
     0
 49
-2.0
 74
     0
  0
LTYPE
  5
62
100
AcDbSymbolTableRecord
100
AcDbLinetypeTableRecord
  2
_VERDECKTE_LINIE
 70
    64
  3

 72
    65
 73
     2
 40
4.0
 49
2.0
 74
     0
 49
-2.0
 74
     0
  0
LTYPE
  5
63
100
AcDbSymbolTableRecord
100
AcDbLinetypeTableRecord
  2
_PHANTOMLINIE
 70
    64
  3

 72
    65
 73
     6
 40
21.0
 49
10.0
 74
     0
 49
-2.0
 74
     0
 49
3.0
 74
     0
 49
-1.0
 74
     0
 49
3.0
 74
     0
 49
-2.0
 74
     0
  0
LTYPE
  5
64
100
AcDbSymbolTableRecord
100
AcDbLinetypeTableRecord
  2
_BRUCHLINIE_1
 70
    64
  3

 72
    65
 73
     0
 40
0.0
  0
LTYPE
  5
65
100
AcDbSymbolTableRecord
100
AcDbLinetypeTableRecord
  2
_BRUCHLINIE_2
 70
    64
  3

 72
    65
 73
     0
 40
0.0
  0
LTYPE
  5
66
100
AcDbSymbolTableRecord
100
AcDbLinetypeTableRecord
  2
SLDCENTERLINES0
 70
    64
  3

 72
    65
 73
     4
 40
19.05
 49
15.24
 74
     0
 49
-1.27
 74
     0
 49
1.27
 74
     0
 49
-1.27
 74
     0
  0
LTYPE
  5
67
100
AcDbSymbolTableRecord
100
AcDbLinetypeTableRecord
  2
SLDTANVISIBLE0
 70
    64
  3

 72
    65
 73
     6
 40
12.7
 49
6.35
 74
     0
 49
-1.27
 74
     0
 49
1.27
 74
     0
 49
-1.27
 74
     0
 49
1.27
 74
     0
 49
-1.27
 74
     0
  0
LTYPE
  5
68
100
AcDbSymbolTableRecord
100
AcDbLinetypeTableRecord
  2
_DURCHGEHEND
 70
    64
  3

 72
    65
 73
     0
 40
0.0
  0
LTYPE
  5
69
100
AcDbSymbolTableRecord
100
AcDbLinetypeTableRecord
  2
_GESTRICHELT
 70
    64
  3

 72
    65
 73
     2
 40
10.0
 49
5.0
 74
     0
 49
-5.0
 74
     0
  0
LTYPE
  5
6A
100
AcDbSymbolTableRecord
100
AcDbLinetypeTableRecord
  2
_MITTELLINIE
 70
    64
  3

 72
    65
 73
     4
 40
20.0
 49
10.0
 74
     0
 49
-2.0
 74
     0
 49
5.0
 74
     0
 49
-3.0
 74
     0
  0
LTYPE
  5
6B
100
AcDbSymbolTableRecord
100
AcDbLinetypeTableRecord
  2
_PUNKTIERT
 70
    64
  3

 72
    65
 73
     2
 40
0.25
 49
0.0
 74
     0
 49
-0.25
 74
     0
  0
LTYPE
  5
6C
100
AcDbSymbolTableRecord
100
AcDbLinetypeTableRecord
  2
_STRICHPUNKTIERT
 70
    64
  3

 72
    65
 73
     4
 40
8.0
 49
5.0
 74
     0
 49
-1.0
 74
     0
 49
1.0
 74
     0
 49
-1.0
 74
     0
  0
LTYPE
  5
6D
100
AcDbSymbolTableRecord
100
AcDbLinetypeTableRecord
  2
_STRICH-PUNKT-PUNKT
 70
    64
  3

 72
    65
 73
     6
 40
10.0
 49
5.0
 74
     0
 49
-1.0
 74
     0
 49
1.0
 74
     0
 49
-1.0
 74
     0
 49
1.0
 74
     0
 49
-1.0
 74
     0
  0
LTYPE
  5
6E
100
AcDbSymbolTableRecord
100
AcDbLinetypeTableRecord
  2
_STARTPFEIL
 70
    64
  3

 72
    65
 73
     0
 40
0.0
  0
LTYPE
  5
6F
100
AcDbSymbolTableRecord
100
AcDbLinetypeTableRecord
  2
_ENDPFEIL
 70
    64
  3

 72
    65
 73
     0
 40
0.0
  0
LTYPE
  5
70
100
AcDbSymbolTableRecord
100
AcDbLinetypeTableRecord
  2
_ENDPUNKT
 70
    64
  3

 72
    65
 73
     0
 40
0.0
  0
LTYPE
  5
71
100
AcDbSymbolTableRecord
100
AcDbLinetypeTableRecord
  2
_PFEIL
 70
    64
  3

 72
    65
 73
     0
 40
0.0
  0
LTYPE
  5
72
100
AcDbSymbolTableRecord
100
AcDbLinetypeTableRecord
  2
_STITCHLINE
 70
    64
  3

 72
    65
 73
     2
 40
6.0
 49
3.0
 74
     0
 49
-3.0
 74
     0
  0
LTYPE
  5
73
100
AcDbSymbolTableRecord
100
AcDbLinetypeTableRecord
  2
_MITTELLINIE_2
 70
    64
  3

 72
    65
 73
     4
 40
17.0
 49
10.0
 74
     0
 49
-2.0
 74
     0
 49
3.0
 74
     0
 49
-2.0
 74
     0
  0
LTYPE
  5
74
100
AcDbSymbolTableRecord
100
AcDbLinetypeTableRecord
  2
_VERDECKTE_LINIE
 70
    64
  3

 72
    65
 73
     2
 40
4.0
 49
2.0
 74
     0
 49
-2.0
 74
     0
  0
LTYPE
  5
75
100
AcDbSymbolTableRecord
100
AcDbLinetypeTableRecord
  2
_PHANTOMLINIE
 70
    64
  3

 72
    65
 73
     6
 40
21.0
 49
10.0
 74
     0
 49
-2.0
 74
     0
 49
3.0
 74
     0
 49
-1.0
 74
     0
 49
3.0
 74
     0
 49
-2.0
 74
     0
  0
LTYPE
  5
76
100
AcDbSymbolTableRecord
100
AcDbLinetypeTableRecord
  2
_BRUCHLINIE_1
 70
    64
  3

 72
    65
 73
     0
 40
0.0
  0
LTYPE
  5
77
100
AcDbSymbolTableRecord
100
AcDbLinetypeTableRecord
  2
_BRUCHLINIE_2
 70
    64
  3

 72
    65
 73
     0
 40
0.0
  0
LTYPE
  5
78
100
AcDbSymbolTableRecord
100
AcDbLinetypeTableRecord
  2
_DURCHGEHEND
 70
    64
  3

 72
    65
 73
     0
 40
0.0
  0
LTYPE
  5
79
100
AcDbSymbolTableRecord
100
AcDbLinetypeTableRecord
  2
_GESTRICHELT
 70
    64
  3

 72
    65
 73
     2
 40
10.0
 49
5.0
 74
     0
 49
-5.0
 74
     0
  0
LTYPE
  5
7A
100
AcDbSymbolTableRecord
100
AcDbLinetypeTableRecord
  2
_MITTELLINIE
 70
    64
  3

 72
    65
 73
     4
 40
20.0
 49
10.0
 74
     0
 49
-2.0
 74
     0
 49
5.0
 74
     0
 49
-3.0
 74
     0
  0
LTYPE
  5
7B
100
AcDbSymbolTableRecord
100
AcDbLinetypeTableRecord
  2
_PUNKTIERT
 70
    64
  3

 72
    65
 73
     2
 40
0.25
 49
0.0
 74
     0
 49
-0.25
 74
     0
  0
LTYPE
  5
7C
100
AcDbSymbolTableRecord
100
AcDbLinetypeTableRecord
  2
_STRICHPUNKTIERT
 70
    64
  3

 72
    65
 73
     4
 40
8.0
 49
5.0
 74
     0
 49
-1.0
 74
     0
 49
1.0
 74
     0
 49
-1.0
 74
     0
  0
LTYPE
  5
7D
100
AcDbSymbolTableRecord
100
AcDbLinetypeTableRecord
  2
_STRICH-PUNKT-PUNKT
 70
    64
  3

 72
    65
 73
     6
 40
10.0
 49
5.0
 74
     0
 49
-1.0
 74
     0
 49
1.0
 74
     0
 49
-1.0
 74
     0
 49
1.0
 74
     0
 49
-1.0
 74
     0
  0
LTYPE
  5
7E
100
AcDbSymbolTableRecord
100
AcDbLinetypeTableRecord
  2
_STARTPFEIL
 70
    64
  3

 72
    65
 73
     0
 40
0.0
  0
LTYPE
  5
7F
100
AcDbSymbolTableRecord
100
AcDbLinetypeTableRecord
  2
_ENDPFEIL
 70
    64
  3

 72
    65
 73
     0
 40
0.0
  0
LTYPE
  5
80
100
AcDbSymbolTableRecord
100
AcDbLinetypeTableRecord
  2
_ENDPUNKT
 70
    64
  3

 72
    65
 73
     0
 40
0.0
  0
LTYPE
  5
81
100
AcDbSymbolTableRecord
100
AcDbLinetypeTableRecord
  2
_PFEIL
 70
    64
  3

 72
    65
 73
     0
 40
0.0
  0
LTYPE
  5
82
100
AcDbSymbolTableRecord
100
AcDbLinetypeTableRecord
  2
_STITCHLINE
 70
    64
  3

 72
    65
 73
     2
 40
6.0
 49
3.0
 74
     0
 49
-3.0
 74
     0
  0
LTYPE
  5
83
100
AcDbSymbolTableRecord
100
AcDbLinetypeTableRecord
  2
_MITTELLINIE_2
 70
    64
  3

 72
    65
 73
     4
 40
17.0
 49
10.0
 74
     0
 49
-2.0
 74
     0
 49
3.0
 74
     0
 49
-2.0
 74
     0
  0
LTYPE
  5
84
100
AcDbSymbolTableRecord
100
AcDbLinetypeTableRecord
  2
_VERDECKTE_LINIE
 70
    64
  3

 72
    65
 73
     2
 40
4.0
 49
2.0
 74
     0
 49
-2.0
 74
     0
  0
LTYPE
  5
85
100
AcDbSymbolTableRecord
100
AcDbLinetypeTableRecord
  2
_PHANTOMLINIE
 70
    64
  3

 72
    65
 73
     6
 40
21.0
 49
10.0
 74
     0
 49
-2.0
 74
     0
 49
3.0
 74
     0
 49
-1.0
 74
     0
 49
3.0
 74
     0
 49
-2.0
 74
     0
  0
LTYPE
  5
86
100
AcDbSymbolTableRecord
100
AcDbLinetypeTableRecord
  2
_BRUCHLINIE_1
 70
    64
  3

 72
    65
 73
     0
 40
0.0
  0
LTYPE
  5
87
100
AcDbSymbolTableRecord
100
AcDbLinetypeTableRecord
  2
_BRUCHLINIE_2
 70
    64
  3

 72
    65
 73
     0
 40
0.0
  0
LTYPE
  5
88
100
AcDbSymbolTableRecord
100
AcDbLinetypeTableRecord
  2
_DURCHGEHEND
 70
    64
  3

 72
    65
 73
     0
 40
0.0
  0
LTYPE
  5
89
100
AcDbSymbolTableRecord
100
AcDbLinetypeTableRecord
  2
_GESTRICHELT
 70
    64
  3

 72
    65
 73
     2
 40
10.0
 49
5.0
 74
     0
 49
-5.0
 74
     0
  0
LTYPE
  5
8A
100
AcDbSymbolTableRecord
100
AcDbLinetypeTableRecord
  2
_MITTELLINIE
 70
    64
  3

 72
    65
 73
     4
 40
20.0
 49
10.0
 74
     0
 49
-2.0
 74
     0
 49
5.0
 74
     0
 49
-3.0
 74
     0
  0
LTYPE
  5
8B
100
AcDbSymbolTableRecord
100
AcDbLinetypeTableRecord
  2
_PUNKTIERT
 70
    64
  3

 72
    65
 73
     2
 40
0.25
 49
0.0
 74
     0
 49
-0.25
 74
     0
  0
LTYPE
  5
8C
100
AcDbSymbolTableRecord
100
AcDbLinetypeTableRecord
  2
_STRICHPUNKTIERT
 70
    64
  3

 72
    65
 73
     4
 40
8.0
 49
5.0
 74
     0
 49
-1.0
 74
     0
 49
1.0
 74
     0
 49
-1.0
 74
     0
  0
LTYPE
  5
8D
100
AcDbSymbolTableRecord
100
AcDbLinetypeTableRecord
  2
_STRICH-PUNKT-PUNKT
 70
    64
  3

 72
    65
 73
     6
 40
10.0
 49
5.0
 74
     0
 49
-1.0
 74
     0
 49
1.0
 74
     0
 49
-1.0
 74
     0
 49
1.0
 74
     0
 49
-1.0
 74
     0
  0
LTYPE
  5
8E
100
AcDbSymbolTableRecord
100
AcDbLinetypeTableRecord
  2
_STARTPFEIL
 70
    64
  3

 72
    65
 73
     0
 40
0.0
  0
LTYPE
  5
8F
100
AcDbSymbolTableRecord
100
AcDbLinetypeTableRecord
  2
_ENDPFEIL
 70
    64
  3

 72
    65
 73
     0
 40
0.0
  0
LTYPE
  5
90
100
AcDbSymbolTableRecord
100
AcDbLinetypeTableRecord
  2
_ENDPUNKT
 70
    64
  3

 72
    65
 73
     0
 40
0.0
  0
LTYPE
  5
91
100
AcDbSymbolTableRecord
100
AcDbLinetypeTableRecord
  2
_PFEIL
 70
    64
  3

 72
    65
 73
     0
 40
0.0
  0
LTYPE
  5
92
100
AcDbSymbolTableRecord
100
AcDbLinetypeTableRecord
  2
_STITCHLINE
 70
    64
  3

 72
    65
 73
     2
 40
6.0
 49
3.0
 74
     0
 49
-3.0
 74
     0
  0
LTYPE
  5
93
100
AcDbSymbolTableRecord
100
AcDbLinetypeTableRecord
  2
_MITTELLINIE_2
 70
    64
  3

 72
    65
 73
     4
 40
17.0
 49
10.0
 74
     0
 49
-2.0
 74
     0
 49
3.0
 74
     0
 49
-2.0
 74
     0
  0
LTYPE
  5
94
100
AcDbSymbolTableRecord
100
AcDbLinetypeTableRecord
  2
_VERDECKTE_LINIE
 70
    64
  3

 72
    65
 73
     2
 40
4.0
 49
2.0
 74
     0
 49
-2.0
 74
     0
  0
LTYPE
  5
95
100
AcDbSymbolTableRecord
100
AcDbLinetypeTableRecord
  2
_PHANTOMLINIE
 70
    64
  3

 72
    65
 73
     6
 40
21.0
 49
10.0
 74
     0
 49
-2.0
 74
     0
 49
3.0
 74
     0
 49
-1.0
 74
     0
 49
3.0
 74
     0
 49
-2.0
 74
     0
  0
LTYPE
  5
96
100
AcDbSymbolTableRecord
100
AcDbLinetypeTableRecord
  2
_BRUCHLINIE_1
 70
    64
  3

 72
    65
 73
     0
 40
0.0
  0
LTYPE
  5
97
100
AcDbSymbolTableRecord
100
AcDbLinetypeTableRecord
  2
_BRUCHLINIE_2
 70
    64
  3

 72
    65
 73
     0
 40
0.0
  0
LTYPE
  5
98
100
AcDbSymbolTableRecord
100
AcDbLinetypeTableRecord
  2
_DURCHGEHEND
 70
    64
  3

 72
    65
 73
     0
 40
0.0
  0
LTYPE
  5
99
100
AcDbSymbolTableRecord
100
AcDbLinetypeTableRecord
  2
_GESTRICHELT
 70
    64
  3

 72
    65
 73
     2
 40
10.0
 49
5.0
 74
     0
 49
-5.0
 74
     0
  0
LTYPE
  5
9A
100
AcDbSymbolTableRecord
100
AcDbLinetypeTableRecord
  2
_MITTELLINIE
 70
    64
  3

 72
    65
 73
     4
 40
20.0
 49
10.0
 74
     0
 49
-2.0
 74
     0
 49
5.0
 74
     0
 49
-3.0
 74
     0
  0
LTYPE
  5
9B
100
AcDbSymbolTableRecord
100
AcDbLinetypeTableRecord
  2
_PUNKTIERT
 70
    64
  3

 72
    65
 73
     2
 40
0.25
 49
0.0
 74
     0
 49
-0.25
 74
     0
  0
LTYPE
  5
9C
100
AcDbSymbolTableRecord
100
AcDbLinetypeTableRecord
  2
_STRICHPUNKTIERT
 70
    64
  3

 72
    65
 73
     4
 40
8.0
 49
5.0
 74
     0
 49
-1.0
 74
     0
 49
1.0
 74
     0
 49
-1.0
 74
     0
  0
LTYPE
  5
9D
100
AcDbSymbolTableRecord
100
AcDbLinetypeTableRecord
  2
_STRICH-PUNKT-PUNKT
 70
    64
  3

 72
    65
 73
     6
 40
10.0
 49
5.0
 74
     0
 49
-1.0
 74
     0
 49
1.0
 74
     0
 49
-1.0
 74
     0
 49
1.0
 74
     0
 49
-1.0
 74
     0
  0
LTYPE
  5
9E
100
AcDbSymbolTableRecord
100
AcDbLinetypeTableRecord
  2
_STARTPFEIL
 70
    64
  3

 72
    65
 73
     0
 40
0.0
  0
LTYPE
  5
9F
100
AcDbSymbolTableRecord
100
AcDbLinetypeTableRecord
  2
_ENDPFEIL
 70
    64
  3

 72
    65
 73
     0
 40
0.0
  0
LTYPE
  5
A0
100
AcDbSymbolTableRecord
100
AcDbLinetypeTableRecord
  2
_ENDPUNKT
 70
    64
  3

 72
    65
 73
     0
 40
0.0
  0
LTYPE
  5
A1
100
AcDbSymbolTableRecord
100
AcDbLinetypeTableRecord
  2
_PFEIL
 70
    64
  3

 72
    65
 73
     0
 40
0.0
  0
LTYPE
  5
A2
100
AcDbSymbolTableRecord
100
AcDbLinetypeTableRecord
  2
_STITCHLINE
 70
    64
  3

 72
    65
 73
     2
 40
6.0
 49
3.0
 74
     0
 49
-3.0
 74
     0
  0
LTYPE
  5
A3
100
AcDbSymbolTableRecord
100
AcDbLinetypeTableRecord
  2
_MITTELLINIE_2
 70
    64
  3

 72
    65
 73
     4
 40
17.0
 49
10.0
 74
     0
 49
-2.0
 74
     0
 49
3.0
 74
     0
 49
-2.0
 74
     0
  0
LTYPE
  5
A4
100
AcDbSymbolTableRecord
100
AcDbLinetypeTableRecord
  2
_VERDECKTE_LINIE
 70
    64
  3

 72
    65
 73
     2
 40
4.0
 49
2.0
 74
     0
 49
-2.0
 74
     0
  0
LTYPE
  5
A5
100
AcDbSymbolTableRecord
100
AcDbLinetypeTableRecord
  2
_PHANTOMLINIE
 70
    64
  3

 72
    65
 73
     6
 40
21.0
 49
10.0
 74
     0
 49
-2.0
 74
     0
 49
3.0
 74
     0
 49
-1.0
 74
     0
 49
3.0
 74
     0
 49
-2.0
 74
     0
  0
LTYPE
  5
A6
100
AcDbSymbolTableRecord
100
AcDbLinetypeTableRecord
  2
_BRUCHLINIE_1
 70
    64
  3

 72
    65
 73
     0
 40
0.0
  0
LTYPE
  5
A7
100
AcDbSymbolTableRecord
100
AcDbLinetypeTableRecord
  2
_BRUCHLINIE_2
 70
    64
  3

 72
    65
 73
     0
 40
0.0
  0
LTYPE
  5
A8
100
AcDbSymbolTableRecord
100
AcDbLinetypeTableRecord
  2
_DURCHGEHEND
 70
    64
  3

 72
    65
 73
     0
 40
0.0
  0
LTYPE
  5
A9
100
AcDbSymbolTableRecord
100
AcDbLinetypeTableRecord
  2
_GESTRICHELT
 70
    64
  3

 72
    65
 73
     2
 40
10.0
 49
5.0
 74
     0
 49
-5.0
 74
     0
  0
LTYPE
  5
AA
100
AcDbSymbolTableRecord
100
AcDbLinetypeTableRecord
  2
_MITTELLINIE
 70
    64
  3

 72
    65
 73
     4
 40
20.0
 49
10.0
 74
     0
 49
-2.0
 74
     0
 49
5.0
 74
     0
 49
-3.0
 74
     0
  0
LTYPE
  5
AB
100
AcDbSymbolTableRecord
100
AcDbLinetypeTableRecord
  2
_PUNKTIERT
 70
    64
  3

 72
    65
 73
     2
 40
0.25
 49
0.0
 74
     0
 49
-0.25
 74
     0
  0
LTYPE
  5
AC
100
AcDbSymbolTableRecord
100
AcDbLinetypeTableRecord
  2
_STRICHPUNKTIERT
 70
    64
  3

 72
    65
 73
     4
 40
8.0
 49
5.0
 74
     0
 49
-1.0
 74
     0
 49
1.0
 74
     0
 49
-1.0
 74
     0
  0
LTYPE
  5
AD
100
AcDbSymbolTableRecord
100
AcDbLinetypeTableRecord
  2
_STRICH-PUNKT-PUNKT
 70
    64
  3

 72
    65
 73
     6
 40
10.0
 49
5.0
 74
     0
 49
-1.0
 74
     0
 49
1.0
 74
     0
 49
-1.0
 74
     0
 49
1.0
 74
     0
 49
-1.0
 74
     0
  0
LTYPE
  5
AE
100
AcDbSymbolTableRecord
100
AcDbLinetypeTableRecord
  2
_STARTPFEIL
 70
    64
  3

 72
    65
 73
     0
 40
0.0
  0
LTYPE
  5
AF
100
AcDbSymbolTableRecord
100
AcDbLinetypeTableRecord
  2
_ENDPFEIL
 70
    64
  3

 72
    65
 73
     0
 40
0.0
  0
LTYPE
  5
B0
100
AcDbSymbolTableRecord
100
AcDbLinetypeTableRecord
  2
_ENDPUNKT
 70
    64
  3

 72
    65
 73
     0
 40
0.0
  0
LTYPE
  5
B1
100
AcDbSymbolTableRecord
100
AcDbLinetypeTableRecord
  2
_PFEIL
 70
    64
  3

 72
    65
 73
     0
 40
0.0
  0
LTYPE
  5
B2
100
AcDbSymbolTableRecord
100
AcDbLinetypeTableRecord
  2
_STITCHLINE
 70
    64
  3

 72
    65
 73
     2
 40
6.0
 49
3.0
 74
     0
 49
-3.0
 74
     0
  0
LTYPE
  5
B3
100
AcDbSymbolTableRecord
100
AcDbLinetypeTableRecord
  2
_MITTELLINIE_2
 70
    64
  3

 72
    65
 73
     4
 40
17.0
 49
10.0
 74
     0
 49
-2.0
 74
     0
 49
3.0
 74
     0
 49
-2.0
 74
     0
  0
LTYPE
  5
B4
100
AcDbSymbolTableRecord
100
AcDbLinetypeTableRecord
  2
_VERDECKTE_LINIE
 70
    64
  3

 72
    65
 73
     2
 40
4.0
 49
2.0
 74
     0
 49
-2.0
 74
     0
  0
LTYPE
  5
B5
100
AcDbSymbolTableRecord
100
AcDbLinetypeTableRecord
  2
_PHANTOMLINIE
 70
    64
  3

 72
    65
 73
     6
 40
21.0
 49
10.0
 74
     0
 49
-2.0
 74
     0
 49
3.0
 74
     0
 49
-1.0
 74
     0
 49
3.0
 74
     0
 49
-2.0
 74
     0
  0
LTYPE
  5
B6
100
AcDbSymbolTableRecord
100
AcDbLinetypeTableRecord
  2
_BRUCHLINIE_1
 70
    64
  3

 72
    65
 73
     0
 40
0.0
  0
LTYPE
  5
B7
100
AcDbSymbolTableRecord
100
AcDbLinetypeTableRecord
  2
_BRUCHLINIE_2
 70
    64
  3

 72
    65
 73
     0
 40
0.0
  0
LTYPE
  5
B8
100
AcDbSymbolTableRecord
100
AcDbLinetypeTableRecord
  2
4_2-0_7-0_7-0_7
 70
    64
  3

 72
    65
 73
     4
 40
6.35
 49
4.233334
 74
     0
 49
-0.705556
 74
     0
 49
0.705556
 74
     0
 49
-0.705556
 74
     0
  0
LTYPE
  5
B9
100
AcDbSymbolTableRecord
100
AcDbLinetypeTableRecord
  2
0_7-0_7
 70
    64
  3

 72
    65
 73
     2
 40
1.411111
 49
0.705556
 74
     0
 49
-0.705556
 74
     0
  0
LTYPE
  5
BA
100
AcDbSymbolTableRecord
100
AcDbLinetypeTableRecord
  2
_DURCHGEHEND
 70
    64
  3

 72
    65
 73
     0
 40
0.0
  0
LTYPE
  5
BB
100
AcDbSymbolTableRecord
100
AcDbLinetypeTableRecord
  2
_GESTRICHELT
 70
    64
  3

 72
    65
 73
     2
 40
10.0
 49
5.0
 74
     0
 49
-5.0
 74
     0
  0
LTYPE
  5
BC
100
AcDbSymbolTableRecord
100
AcDbLinetypeTableRecord
  2
_MITTELLINIE
 70
    64
  3

 72
    65
 73
     4
 40
20.0
 49
10.0
 74
     0
 49
-2.0
 74
     0
 49
5.0
 74
     0
 49
-3.0
 74
     0
  0
LTYPE
  5
BD
100
AcDbSymbolTableRecord
100
AcDbLinetypeTableRecord
  2
_PUNKTIERT
 70
    64
  3

 72
    65
 73
     2
 40
0.25
 49
0.0
 74
     0
 49
-0.25
 74
     0
  0
LTYPE
  5
BE
100
AcDbSymbolTableRecord
100
AcDbLinetypeTableRecord
  2
_STRICHPUNKTIERT
 70
    64
  3

 72
    65
 73
     4
 40
8.0
 49
5.0
 74
     0
 49
-1.0
 74
     0
 49
1.0
 74
     0
 49
-1.0
 74
     0
  0
LTYPE
  5
BF
100
AcDbSymbolTableRecord
100
AcDbLinetypeTableRecord
  2
_STRICH-PUNKT-PUNKT
 70
    64
  3

 72
    65
 73
     6
 40
10.0
 49
5.0
 74
     0
 49
-1.0
 74
     0
 49
1.0
 74
     0
 49
-1.0
 74
     0
 49
1.0
 74
     0
 49
-1.0
 74
     0
  0
LTYPE
  5
C0
100
AcDbSymbolTableRecord
100
AcDbLinetypeTableRecord
  2
_STARTPFEIL
 70
    64
  3

 72
    65
 73
     0
 40
0.0
  0
LTYPE
  5
C1
100
AcDbSymbolTableRecord
100
AcDbLinetypeTableRecord
  2
_ENDPFEIL
 70
    64
  3

 72
    65
 73
     0
 40
0.0
  0
LTYPE
  5
C2
100
AcDbSymbolTableRecord
100
AcDbLinetypeTableRecord
  2
_ENDPUNKT
 70
    64
  3

 72
    65
 73
     0
 40
0.0
  0
LTYPE
  5
C3
100
AcDbSymbolTableRecord
100
AcDbLinetypeTableRecord
  2
_PFEIL
 70
    64
  3

 72
    65
 73
     0
 40
0.0
  0
LTYPE
  5
C4
100
AcDbSymbolTableRecord
100
AcDbLinetypeTableRecord
  2
_STITCHLINE
 70
    64
  3

 72
    65
 73
     2
 40
6.0
 49
3.0
 74
     0
 49
-3.0
 74
     0
  0
LTYPE
  5
C5
100
AcDbSymbolTableRecord
100
AcDbLinetypeTableRecord
  2
_MITTELLINIE_2
 70
    64
  3

 72
    65
 73
     4
 40
17.0
 49
10.0
 74
     0
 49
-2.0
 74
     0
 49
3.0
 74
     0
 49
-2.0
 74
     0
  0
LTYPE
  5
C6
100
AcDbSymbolTableRecord
100
AcDbLinetypeTableRecord
  2
_VERDECKTE_LINIE
 70
    64
  3

 72
    65
 73
     2
 40
4.0
 49
2.0
 74
     0
 49
-2.0
 74
     0
  0
LTYPE
  5
C7
100
AcDbSymbolTableRecord
100
AcDbLinetypeTableRecord
  2
_PHANTOMLINIE
 70
    64
  3

 72
    65
 73
     6
 40
21.0
 49
10.0
 74
     0
 49
-2.0
 74
     0
 49
3.0
 74
     0
 49
-1.0
 74
     0
 49
3.0
 74
     0
 49
-2.0
 74
     0
  0
LTYPE
  5
C8
100
AcDbSymbolTableRecord
100
AcDbLinetypeTableRecord
  2
_BRUCHLINIE_1
 70
    64
  3

 72
    65
 73
     0
 40
0.0
  0
LTYPE
  5
C9
100
AcDbSymbolTableRecord
100
AcDbLinetypeTableRecord
  2
_BRUCHLINIE_2
 70
    64
  3

 72
    65
 73
     0
 40
0.0
  0
LTYPE
  5
CA
100
AcDbSymbolTableRecord
100
AcDbLinetypeTableRecord
  2
_DURCHGEHEND
 70
    64
  3

 72
    65
 73
     0
 40
0.0
  0
LTYPE
  5
CB
100
AcDbSymbolTableRecord
100
AcDbLinetypeTableRecord
  2
_GESTRICHELT
 70
    64
  3

 72
    65
 73
     2
 40
10.0
 49
5.0
 74
     0
 49
-5.0
 74
     0
  0
LTYPE
  5
CC
100
AcDbSymbolTableRecord
100
AcDbLinetypeTableRecord
  2
_MITTELLINIE
 70
    64
  3

 72
    65
 73
     4
 40
20.0
 49
10.0
 74
     0
 49
-2.0
 74
     0
 49
5.0
 74
     0
 49
-3.0
 74
     0
  0
LTYPE
  5
CD
100
AcDbSymbolTableRecord
100
AcDbLinetypeTableRecord
  2
_PUNKTIERT
 70
    64
  3

 72
    65
 73
     2
 40
0.25
 49
0.0
 74
     0
 49
-0.25
 74
     0
  0
LTYPE
  5
CE
100
AcDbSymbolTableRecord
100
AcDbLinetypeTableRecord
  2
_STRICHPUNKTIERT
 70
    64
  3

 72
    65
 73
     4
 40
8.0
 49
5.0
 74
     0
 49
-1.0
 74
     0
 49
1.0
 74
     0
 49
-1.0
 74
     0
  0
LTYPE
  5
CF
100
AcDbSymbolTableRecord
100
AcDbLinetypeTableRecord
  2
_STRICH-PUNKT-PUNKT
 70
    64
  3

 72
    65
 73
     6
 40
10.0
 49
5.0
 74
     0
 49
-1.0
 74
     0
 49
1.0
 74
     0
 49
-1.0
 74
     0
 49
1.0
 74
     0
 49
-1.0
 74
     0
  0
LTYPE
  5
D0
100
AcDbSymbolTableRecord
100
AcDbLinetypeTableRecord
  2
_STARTPFEIL
 70
    64
  3

 72
    65
 73
     0
 40
0.0
  0
LTYPE
  5
D1
100
AcDbSymbolTableRecord
100
AcDbLinetypeTableRecord
  2
_ENDPFEIL
 70
    64
  3

 72
    65
 73
     0
 40
0.0
  0
LTYPE
  5
D2
100
AcDbSymbolTableRecord
100
AcDbLinetypeTableRecord
  2
_ENDPUNKT
 70
    64
  3

 72
    65
 73
     0
 40
0.0
  0
LTYPE
  5
D3
100
AcDbSymbolTableRecord
100
AcDbLinetypeTableRecord
  2
_PFEIL
 70
    64
  3

 72
    65
 73
     0
 40
0.0
  0
LTYPE
  5
D4
100
AcDbSymbolTableRecord
100
AcDbLinetypeTableRecord
  2
_STITCHLINE
 70
    64
  3

 72
    65
 73
     2
 40
6.0
 49
3.0
 74
     0
 49
-3.0
 74
     0
  0
LTYPE
  5
D5
100
AcDbSymbolTableRecord
100
AcDbLinetypeTableRecord
  2
_MITTELLINIE_2
 70
    64
  3

 72
    65
 73
     4
 40
17.0
 49
10.0
 74
     0
 49
-2.0
 74
     0
 49
3.0
 74
     0
 49
-2.0
 74
     0
  0
LTYPE
  5
D6
100
AcDbSymbolTableRecord
100
AcDbLinetypeTableRecord
  2
_VERDECKTE_LINIE
 70
    64
  3

 72
    65
 73
     2
 40
4.0
 49
2.0
 74
     0
 49
-2.0
 74
     0
  0
LTYPE
  5
D7
100
AcDbSymbolTableRecord
100
AcDbLinetypeTableRecord
  2
_PHANTOMLINIE
 70
    64
  3

 72
    65
 73
     6
 40
21.0
 49
10.0
 74
     0
 49
-2.0
 74
     0
 49
3.0
 74
     0
 49
-1.0
 74
     0
 49
3.0
 74
     0
 49
-2.0
 74
     0
  0
LTYPE
  5
D8
100
AcDbSymbolTableRecord
100
AcDbLinetypeTableRecord
  2
_BRUCHLINIE_1
 70
    64
  3

 72
    65
 73
     0
 40
0.0
  0
LTYPE
  5
D9
100
AcDbSymbolTableRecord
100
AcDbLinetypeTableRecord
  2
_BRUCHLINIE_2
 70
    64
  3

 72
    65
 73
     0
 40
0.0
  0
LTYPE
  5
DA
100
AcDbSymbolTableRecord
100
AcDbLinetypeTableRecord
  2
_DURCHGEHEND
 70
    64
  3

 72
    65
 73
     0
 40
0.0
  0
LTYPE
  5
DB
100
AcDbSymbolTableRecord
100
AcDbLinetypeTableRecord
  2
_GESTRICHELT
 70
    64
  3

 72
    65
 73
     2
 40
10.0
 49
5.0
 74
     0
 49
-5.0
 74
     0
  0
LTYPE
  5
DC
100
AcDbSymbolTableRecord
100
AcDbLinetypeTableRecord
  2
_MITTELLINIE
 70
    64
  3

 72
    65
 73
     4
 40
20.0
 49
10.0
 74
     0
 49
-2.0
 74
     0
 49
5.0
 74
     0
 49
-3.0
 74
     0
  0
LTYPE
  5
DD
100
AcDbSymbolTableRecord
100
AcDbLinetypeTableRecord
  2
_PUNKTIERT
 70
    64
  3

 72
    65
 73
     2
 40
0.25
 49
0.0
 74
     0
 49
-0.25
 74
     0
  0
LTYPE
  5
DE
100
AcDbSymbolTableRecord
100
AcDbLinetypeTableRecord
  2
_STRICHPUNKTIERT
 70
    64
  3

 72
    65
 73
     4
 40
8.0
 49
5.0
 74
     0
 49
-1.0
 74
     0
 49
1.0
 74
     0
 49
-1.0
 74
     0
  0
LTYPE
  5
DF
100
AcDbSymbolTableRecord
100
AcDbLinetypeTableRecord
  2
_STRICH-PUNKT-PUNKT
 70
    64
  3

 72
    65
 73
     6
 40
10.0
 49
5.0
 74
     0
 49
-1.0
 74
     0
 49
1.0
 74
     0
 49
-1.0
 74
     0
 49
1.0
 74
     0
 49
-1.0
 74
     0
  0
LTYPE
  5
E0
100
AcDbSymbolTableRecord
100
AcDbLinetypeTableRecord
  2
_STARTPFEIL
 70
    64
  3

 72
    65
 73
     0
 40
0.0
  0
LTYPE
  5
E1
100
AcDbSymbolTableRecord
100
AcDbLinetypeTableRecord
  2
_ENDPFEIL
 70
    64
  3

 72
    65
 73
     0
 40
0.0
  0
LTYPE
  5
E2
100
AcDbSymbolTableRecord
100
AcDbLinetypeTableRecord
  2
_ENDPUNKT
 70
    64
  3

 72
    65
 73
     0
 40
0.0
  0
LTYPE
  5
E3
100
AcDbSymbolTableRecord
100
AcDbLinetypeTableRecord
  2
_PFEIL
 70
    64
  3

 72
    65
 73
     0
 40
0.0
  0
LTYPE
  5
E4
100
AcDbSymbolTableRecord
100
AcDbLinetypeTableRecord
  2
_STITCHLINE
 70
    64
  3

 72
    65
 73
     2
 40
6.0
 49
3.0
 74
     0
 49
-3.0
 74
     0
  0
LTYPE
  5
E5
100
AcDbSymbolTableRecord
100
AcDbLinetypeTableRecord
  2
_MITTELLINIE_2
 70
    64
  3

 72
    65
 73
     4
 40
17.0
 49
10.0
 74
     0
 49
-2.0
 74
     0
 49
3.0
 74
     0
 49
-2.0
 74
     0
  0
LTYPE
  5
E6
100
AcDbSymbolTableRecord
100
AcDbLinetypeTableRecord
  2
_VERDECKTE_LINIE
 70
    64
  3

 72
    65
 73
     2
 40
4.0
 49
2.0
 74
     0
 49
-2.0
 74
     0
  0
LTYPE
  5
E7
100
AcDbSymbolTableRecord
100
AcDbLinetypeTableRecord
  2
_PHANTOMLINIE
 70
    64
  3

 72
    65
 73
     6
 40
21.0
 49
10.0
 74
     0
 49
-2.0
 74
     0
 49
3.0
 74
     0
 49
-1.0
 74
     0
 49
3.0
 74
     0
 49
-2.0
 74
     0
  0
LTYPE
  5
E8
100
AcDbSymbolTableRecord
100
AcDbLinetypeTableRecord
  2
_BRUCHLINIE_1
 70
    64
  3

 72
    65
 73
     0
 40
0.0
  0
LTYPE
  5
E9
100
AcDbSymbolTableRecord
100
AcDbLinetypeTableRecord
  2
_BRUCHLINIE_2
 70
    64
  3

 72
    65
 73
     0
 40
0.0
  0
LTYPE
  5
EA
100
AcDbSymbolTableRecord
100
AcDbLinetypeTableRecord
  2
CONTINUOUS
 70
    64
  3

 72
    65
 73
     0
 40
0.0
  0
ENDTAB
  0
TABLE
  2
LAYER
  5
2
100
AcDbSymbolTable
 70
     6
  0
LAYER
  5
14
100
AcDbSymbolTableRecord
100
AcDbLayerTableRecord
  2
0
 70
     0
 62
     7
  6
Continuous
290
     1
370
    -3
390
1D
  0
LAYER
  5
EB
100
AcDbSymbolTableRecord
100
AcDbLayerTableRecord
  2
ARMATUR
 70
     0
 62
     7
  6
Continuous
290
     1
370
    -3
390
1D
  0
LAYER
  5
EC
100
AcDbSymbolTableRecord
100
AcDbLayerTableRecord
  2
ACHSEN
 70
     0
 62
     7
  6
Continuous
290
     1
370
    -3
390
1D
  0
LAYER
  5
ED
100
AcDbSymbolTableRecord
100
AcDbLayerTableRecord
  2
BEMASSUNG
 70
     0
 62
     7
  6
Continuous
290
     1
370
    -3
390
1D
  0
LAYER
  5
EE
100
AcDbSymbolTableRecord
100
AcDbLayerTableRecord
  2
WAND
 70
     0
 62
     7
  6
Continuous
290
     1
370
    -3
390
1D
  0
LAYER
  5
EF
100
AcDbSymbolTableRecord
100
AcDbLayerTableRecord
  2
ANSICHT
 70
     0
 62
     7
  6
Continuous
290
     1
370
    -3
390
1D
  0
ENDTAB
  0
TABLE
  2
STYLE
  5
3
100
AcDbSymbolTable
 70
     1
  0
STYLE
  5
17
100
AcDbSymbolTableRecord
100
AcDbTextStyleTableRecord
  2
Standard
 70
     0
 40
0.0
 41
1.0
 50
0.0
 71
     0
 42
0.0
  3
txt
  4

  0
ENDTAB
  0
TABLE
  2
VIEW
  5
5
100
AcDbSymbolTable
 70
     0
  0
ENDTAB
  0
TABLE
  2
UCS
  5
6
100
AcDbSymbolTable
 70
     1
  0
UCS
  5
24
100
AcDbSymbolTableRecord
100
AcDbUCSTableRecord
  2
ISODRAW_6_2
 70
     0
 10
0.0
 20
0.0
 30
0.0
 11
0.0
 21
1.0
 31
0.0
 12
0.0
 22
0.0
 32
1.0
 79
     0
146
0.0
  0
ENDTAB
  0
TABLE
  2
APPID
  5
8
100
AcDbSymbolTable
 70
     1
  0
APPID
  5
16
100
AcDbSymbolTableRecord
100
AcDbRegAppTableRecord
  2
ACAD
 70
     0
  0
ENDTAB
  0
TABLE
  2
DIMSTYLE
  5
9
100
AcDbSymbolTable
 70
     1
100
AcDbDimStyleTable
 71
     0
  0
DIMSTYLE
105
18
100
AcDbSymbolTableRecord
100
AcDbDimStyleTableRecord
  2
Standard
 70
     0
  3

  4

 40
1.0
 41
0.18
 42
0.0625
 43
0.38
 44
0.18
 45
0.0
 46
0.0
 47
0.0
 48
0.0
 71
     0
 72
     0
 73
     1
 74
     1
 75
     0
 76
     0
 77
     0
 78
     0
 79
     0
140
0.18
141
0.09
142
0.0
143
25.4
144
1.0
145
0.0
146
1.0
147
0.09
148
0.0
170
     0
171
     2
172
     0
173
     0
174
     0
175
     0
176
     0
177
     0
178
     0
179
     0
271
     4
272
     4
273
     2
274
     2
275
     0
276
     0
277
     2
278
    46
279
     0
280
     0
281
     0
282
     0
283
     1
284
     0
285
     0
286
     0
288
     0
289
     3
340
17
341
0
342
0
343
0
344
0
371
    -2
372
    -2
  0
ENDTAB
  0
TABLE
  2
BLOCK_RECORD
  5
1
100
AcDbSymbolTable
 70
     0
  0
BLOCK_RECORD
  5
A
100
AcDbSymbolTableRecord
100
AcDbBlockTableRecord
  2
*MODEL_SPACE
340
20
  0
BLOCK_RECORD
  5
B
100
AcDbSymbolTableRecord
100
AcDbBlockTableRecord
  2
*PAPER_SPACE
340
21
  0
ENDTAB
  0
ENDSEC
  0
SECTION
  2
BLOCKS
  0
BLOCK
  5
D
100
AcDbEntity
  8
0
390
0
100
AcDbBlockBegin
  2
*MODEL_SPACE
 70
     0
 10
0.0
 20
0.0
 30
0.0
  3
*MODEL_SPACE
  1

  0
ENDBLK
  5
E
100
AcDbEntity
  8
0
390
0
100
AcDbBlockEnd
  0
BLOCK
  5
F
100
AcDbEntity
 67
     1
  8
0
390
0
100
AcDbBlockBegin
  2
*PAPER_SPACE
 70
     0
 10
0.0
 20
0.0
 30
0.0
  3
*PAPER_SPACE
  1

  0
ENDBLK
  5
10
100
AcDbEntity
 67
     1
  8
0
390
0
100
AcDbBlockEnd
  0
ENDSEC
  0
SECTION
  2
ENTITIES
  0
LINE
  5
F0
100
AcDbEntity
  8
ARMATUR
390
0
  6
DURCHGEHEND
 62
     1
100
AcDbLine
 10
98.725098
 20
131.894073
 30
0.0
 11
98.725098
 21
117.294083
 31
0.0
  0
LINE
  5
F1
100
AcDbEntity
  8
ARMATUR
390
0
  6
DURCHGEHEND
 62
     1
100
AcDbLine
 10
83.72509
 20
117.294083
 30
0.0
 11
83.72509
 21
131.894073
 31
0.0
  0
ARC
  5
F2
100
AcDbEntity
  8
ARMATUR
390
0
  6
DURCHGEHEND
 62
     1
100
AcDbCircle
 10
98.525085
 20
131.894073
 30
0.0
 40
0.200012
100
AcDbArc
 50
0.0
 51
90.0
  0
LINE
  5
F3
100
AcDbEntity
  8
ARMATUR
390
0
  6
DURCHGEHEND
 62
     1
100
AcDbLine
 10
98.525085
 20
117.09407
 30
0.0
 11
95.600098
 21
117.09407
 31
0.0
  0
LINE
  5
F4
100
AcDbEntity
  8
ARMATUR
390
0
  6
DURCHGEHEND
 62
     1
100
AcDbLine
 10
86.850098
 20
117.09407
 30
0.0
 11
83.92511
 21
117.09407
 31
0.0
  0
LINE
  5
F5
100
AcDbEntity
  8
ARMATUR
390
0
  6
DURCHGEHEND
 62
     1
100
AcDbLine
 10
83.92511
 20
132.09407
 30
0.0
 11
98.525085
 21
132.09407
 31
0.0
  0
ARC
  5
F6
100
AcDbEntity
  8
ARMATUR
390
0
  6
DURCHGEHEND
 62
     1
100
AcDbCircle
 10
98.525085
 20
117.294083
 30
0.0
 40
0.200012
100
AcDbArc
 50
270.0
 51
360.0
  0
ARC
  5
F7
100
AcDbEntity
  8
ARMATUR
390
0
  6
DURCHGEHEND
 62
     1
100
AcDbCircle
 10
83.92511
 20
131.894073
 30
0.0
 40
0.199982
100
AcDbArc
 50
90.0
 51
180.0
  0
ARC
  5
F8
100
AcDbEntity
  8
ARMATUR
390
0
  6
DURCHGEHEND
 62
     1
100
AcDbCircle
 10
83.92511
 20
117.294083
 30
0.0
 40
0.199982
100
AcDbArc
 50
180.0
 51
270.0
  0
LINE
  5
F9
100
AcDbEntity
  8
ARMATUR
390
0
  6
DURCHGEHEND
 62
     1
100
AcDbLine
 10
86.775101
 20
126.044052
 30
0.0
 11
95.675095
 21
126.044052
 31
0.0
  0
LINE
  5
FA
100
AcDbEntity
  8
ARMATUR
390
0
  6
DURCHGEHEND
 62
     1
100
AcDbLine
 10
86.775101
 20
123.144058
 30
0.0
 11
86.775101
 21
126.044052
 31
0.0
  0
LINE
  5
FB
100
AcDbEntity
  8
ARMATUR
390
0
  6
DURCHGEHEND
 62
     1
100
AcDbLine
 10
95.675095
 20
123.144058
 30
0.0
 11
95.600098
 21
123.144058
 31
0.0
  0
LINE
  5
FC
100
AcDbEntity
  8
ARMATUR
390
0
  6
DURCHGEHEND
 62
     1
100
AcDbLine
 10
86.850098
 20
123.144058
 30
0.0
 11
86.775101
 21
123.144058
 31
0.0
  0
LINE
  5
FD
100
AcDbEntity
  8
ARMATUR
390
0
  6
DURCHGEHEND
 62
     1
100
AcDbLine
 10
95.675095
 20
126.044052
 30
0.0
 11
95.675095
 21
123.144058
 31
0.0
  0
LINE
  5
FE
100
AcDbEntity
  8
ARMATUR
390
0
  6
DURCHGEHEND
 62
     1
100
AcDbLine
 10
95.600098
 20
125.96907
 30
0.0
 11
95.600098
 21
113.46907
 31
0.0
  0
LINE
  5
FF
100
AcDbEntity
  8
ARMATUR
390
0
  6
DURCHGEHEND
 62
     1
100
AcDbLine
 10
86.850098
 20
125.96907
 30
0.0
 11
86.850098
 21
113.46907
 31
0.0
  0
ARC
  5
100
100
AcDbEntity
  8
ARMATUR
390
0
  6
DURCHGEHEND
 62
     1
100
AcDbCircle
 10
91.225098
 20
-123.992645
 30
0.0
 40
250.0
100
AcDbArc
 50
88.997002
 51
91.001999
  0
LINE
  5
101
100
AcDbEntity
  8
ARMATUR
390
0
  6
DURCHGEHEND
 62
     1
100
AcDbLine
 10
95.600098
 20
113.46907
 30
0.0
 11
95.600098
 21
107.96907
 31
0.0
  0
LINE
  5
102
100
AcDbEntity
  8
ARMATUR
390
0
  6
DURCHGEHEND
 62
     1
100
AcDbLine
 10
86.850098
 20
113.46907
 30
0.0
 11
86.850098
 21
107.96907
 31
0.0
  0
LINE
  5
103
100
AcDbEntity
  8
ARMATUR
390
0
  6
DURCHGEHEND
 62
     1
100
AcDbLine
 10
95.600113
 20
107.96907
 30
0.0
 11
86.850098
 21
107.96907
 31
0.0
  0
LINE
  5
104
100
AcDbEntity
  8
ARMATUR
390
0
  6
DURCHGEHEND
 62
     1
100
AcDbLine
 10
218.44516
 20
111.358154
 30
0.0
 11
218.370087
 21
111.283157
 31
0.0
  0
LINE
  5
105
100
AcDbEntity
  8
ARMATUR
390
0
  6
DURCHGEHEND
 62
     1
100
AcDbLine
 10
218.370087
 20
110.683151
 30
0.0
 11
218.44516
 21
110.608154
 31
0.0
  0
LINE
  5
106
100
AcDbEntity
  8
ARMATUR
390
0
  6
DURCHGEHEND
 62
     1
100
AcDbLine
 10
218.44516
 20
110.608154
 30
0.0
 11
218.459808
 21
110.608154
 31
0.0
  0
LINE
  5
107
100
AcDbEntity
  8
ARMATUR
390
0
  6
DURCHGEHEND
 62
     1
100
AcDbLine
 10
218.459808
 20
111.358154
 30
0.0
 11
218.44516
 21
111.358154
 31
0.0
  0
LINE
  5
108
100
AcDbEntity
  8
ARMATUR
390
0
  6
DURCHGEHEND
 62
     1
100
AcDbLine
 10
161.623077
 20
127.158157
 30
0.0
 11
161.373077
 21
126.908157
 31
0.0
  0
LINE
  5
109
100
AcDbEntity
  8
ARMATUR
390
0
  6
DURCHGEHEND
 62
     1
100
AcDbLine
 10
161.373077
 20
122.20816
 30
0.0
 11
161.623077
 21
121.95816
 31
0.0
  0
LINE
  5
10A
100
AcDbEntity
  8
ARMATUR
390
0
  6
DURCHGEHEND
 62
     1
100
AcDbLine
 10
163.123077
 20
127.158157
 30
0.0
 11
161.623077
 21
127.158157
 31
0.0
  0
LINE
  5
10B
100
AcDbEntity
  8
ARMATUR
390
0
  6
DURCHGEHEND
 62
     1
100
AcDbLine
 10
161.623077
 20
121.95816
 30
0.0
 11
163.123077
 21
121.95816
 31
0.0
  0
LINE
  5
10C
100
AcDbEntity
  8
ARMATUR
390
0
  6
DURCHGEHEND
 62
     1
100
AcDbLine
 10
165.123077
 20
127.158157
 30
0.0
 11
163.623077
 21
127.158157
 31
0.0
  0
LINE
  5
10D
100
AcDbEntity
  8
ARMATUR
390
0
  6
DURCHGEHEND
 62
     1
100
AcDbLine
 10
163.623077
 20
121.95816
 30
0.0
 11
165.123077
 21
121.95816
 31
0.0
  0
LINE
  5
10E
100
AcDbEntity
  8
ARMATUR
390
0
  6
DURCHGEHEND
 62
     1
100
AcDbLine
 10
167.123077
 20
127.158157
 30
0.0
 11
165.623077
 21
127.158157
 31
0.0
  0
LINE
  5
10F
100
AcDbEntity
  8
ARMATUR
390
0
  6
DURCHGEHEND
 62
     1
100
AcDbLine
 10
165.623077
 20
121.95816
 30
0.0
 11
167.123077
 21
121.95816
 31
0.0
  0
LINE
  5
110
100
AcDbEntity
  8
ARMATUR
390
0
  6
DURCHGEHEND
 62
     1
100
AcDbLine
 10
169.623077
 20
127.158157
 30
0.0
 11
167.623077
 21
127.158157
 31
0.0
  0
LINE
  5
111
100
AcDbEntity
  8
ARMATUR
390
0
  6
DURCHGEHEND
 62
     1
100
AcDbLine
 10
167.623077
 20
121.95816
 30
0.0
 11
169.623077
 21
121.95816
 31
0.0
  0
ARC
  5
112
100
AcDbEntity
  8
ARMATUR
390
0
  6
DURCHGEHEND
 62
     1
100
AcDbCircle
 10
163.248077
 20
122.183151
 30
0.0
 40
0.125
100
AcDbArc
 50
90.0
 51
180.0
  0
ARC
  5
113
100
AcDbEntity
  8
ARMATUR
390
0
  6
DURCHGEHEND
 62
     1
100
AcDbCircle
 10
163.248077
 20
126.933151
 30
0.0
 40
0.125
100
AcDbArc
 50
180.0
 51
270.0
  0
ARC
  5
114
100
AcDbEntity
  8
ARMATUR
390
0
  6
DURCHGEHEND
 62
     1
100
AcDbCircle
 10
163.498077
 20
126.933151
 30
0.0
 40
0.125
100
AcDbArc
 50
270.0
 51
360.0
  0
ARC
  5
115
100
AcDbEntity
  8
ARMATUR
390
0
  6
DURCHGEHEND
 62
     1
100
AcDbCircle
 10
163.498077
 20
122.183151
 30
0.0
 40
0.125
100
AcDbArc
 50
0.0
 51
90.0
  0
ARC
  5
116
100
AcDbEntity
  8
ARMATUR
390
0
  6
DURCHGEHEND
 62
     1
100
AcDbCircle
 10
165.248077
 20
122.183151
 30
0.0
 40
0.125
100
AcDbArc
 50
90.0
 51
180.0
  0
ARC
  5
117
100
AcDbEntity
  8
ARMATUR
390
0
  6
DURCHGEHEND
 62
     1
100
AcDbCircle
 10
165.248077
 20
126.933151
 30
0.0
 40
0.125
100
AcDbArc
 50
180.0
 51
270.0
  0
ARC
  5
118
100
AcDbEntity
  8
ARMATUR
390
0
  6
DURCHGEHEND
 62
     1
100
AcDbCircle
 10
165.498077
 20
126.933151
 30
0.0
 40
0.125
100
AcDbArc
 50
270.0
 51
360.0
  0
ARC
  5
119
100
AcDbEntity
  8
ARMATUR
390
0
  6
DURCHGEHEND
 62
     1
100
AcDbCircle
 10
165.498077
 20
122.183151
 30
0.0
 40
0.125
100
AcDbArc
 50
0.0
 51
90.0
  0
ARC
  5
11A
100
AcDbEntity
  8
ARMATUR
390
0
  6
DURCHGEHEND
 62
     1
100
AcDbCircle
 10
167.248077
 20
122.183151
 30
0.0
 40
0.125
100
AcDbArc
 50
90.0
 51
180.0
  0
ARC
  5
11B
100
AcDbEntity
  8
ARMATUR
390
0
  6
DURCHGEHEND
 62
     1
100
AcDbCircle
 10
167.248077
 20
126.933151
 30
0.0
 40
0.125
100
AcDbArc
 50
180.0
 51
270.0
  0
ARC
  5
11C
100
AcDbEntity
  8
ARMATUR
390
0
  6
DURCHGEHEND
 62
     1
100
AcDbCircle
 10
167.498077
 20
126.933151
 30
0.0
 40
0.125
100
AcDbArc
 50
270.0
 51
360.0
  0
ARC
  5
11D
100
AcDbEntity
  8
ARMATUR
390
0
  6
DURCHGEHEND
 62
     1
100
AcDbCircle
 10
167.498077
 20
122.183151
 30
0.0
 40
0.125
100
AcDbArc
 50
0.0
 51
90.0
  0
LINE
  5
11E
100
AcDbEntity
  8
ARMATUR
390
0
  6
DURCHGEHEND
 62
     1
100
AcDbLine
 10
163.498077
 20
126.808151
 30
0.0
 11
163.248077
 21
126.808151
 31
0.0
  0
LINE
  5
11F
100
AcDbEntity
  8
ARMATUR
390
0
  6
DURCHGEHEND
 62
     1
100
AcDbLine
 10
163.248077
 20
122.308151
 30
0.0
 11
163.498077
 21
122.308151
 31
0.0
  0
LINE
  5
120
100
AcDbEntity
  8
ARMATUR
390
0
  6
DURCHGEHEND
 62
     1
100
AcDbLine
 10
165.498077
 20
126.808151
 30
0.0
 11
165.248077
 21
126.808151
 31
0.0
  0
LINE
  5
121
100
AcDbEntity
  8
ARMATUR
390
0
  6
DURCHGEHEND
 62
     1
100
AcDbLine
 10
165.248077
 20
122.308151
 30
0.0
 11
165.498077
 21
122.308151
 31
0.0
  0
LINE
  5
122
100
AcDbEntity
  8
ARMATUR
390
0
  6
DURCHGEHEND
 62
     1
100
AcDbLine
 10
167.498077
 20
126.808151
 30
0.0
 11
167.248077
 21
126.808151
 31
0.0
  0
LINE
  5
123
100
AcDbEntity
  8
ARMATUR
390
0
  6
DURCHGEHEND
 62
     1
100
AcDbLine
 10
167.248077
 20
122.308151
 30
0.0
 11
167.498077
 21
122.308151
 31
0.0
  0
LINE
  5
124
100
AcDbEntity
  8
ARMATUR
390
0
  6
DURCHGEHEND
 62
     1
100
AcDbLine
 10
208.748077
 20
125.971436
 30
0.0
 11
172.123077
 21
125.971436
 31
0.0
  0
LINE
  5
125
100
AcDbEntity
  8
ARMATUR
390
0
  6
DURCHGEHEND
 62
     1
100
AcDbLine
 10
172.123077
 20
123.144867
 30
0.0
 11
208.748077
 21
123.144867
 31
0.0
  0
ARC
  5
126
100
AcDbEntity
  8
ARMATUR
390
0
  6
DURCHGEHEND
 62
     1
100
AcDbCircle
 10
208.748077
 20
113.433151
 30
0.0
 40
12.538269
100
AcDbArc
 50
0.0
 51
90.0
  0
ARC
  5
127
100
AcDbEntity
  8
ARMATUR
390
0
  6
DURCHGEHEND
 62
     1
100
AcDbCircle
 10
208.748077
 20
113.433151
 30
0.0
 40
9.711731
100
AcDbArc
 50
0.0
 51
90.0
  0
LINE
  5
128
100
AcDbEntity
  8
ARMATUR
390
0
  6
DURCHGEHEND
 62
     1
100
AcDbLine
 10
218.459808
 20
110.594452
 30
0.0
 11
218.459808
 21
107.933151
 31
0.0
  0
LINE
  5
129
100
AcDbEntity
  8
ARMATUR
390
0
  6
DURCHGEHEND
 62
     1
100
AcDbLine
 10
218.459808
 20
113.433151
 30
0.0
 11
218.459808
 21
111.376205
 31
0.0
  0
LINE
  5
12A
100
AcDbEntity
  8
ARMATUR
390
0
  6
DURCHGEHEND
 62
     1
100
AcDbLine
 10
221.286346
 20
107.933151
 30
0.0
 11
221.286346
 21
113.433151
 31
0.0
  0
LINE
  5
12B
100
AcDbEntity
  8
ARMATUR
390
0
  6
DURCHGEHEND
 62
     1
100
AcDbLine
 10
218.370087
 20
110.683151
 30
0.0
 11
218.370087
 21
111.283157
 31
0.0
  0
LINE
  5
12C
100
AcDbEntity
  8
ARMATUR
390
0
  6
DURCHGEHEND
 62
     1
100
AcDbLine
 10
218.44516
 20
111.358154
 30
0.0
 11
218.44516
 21
110.608154
 31
0.0
  0
LINE
  5
12D
100
AcDbEntity
  8
ARMATUR
390
0
  6
DURCHGEHEND
 62
     1
100
AcDbLine
 10
169.873077
 20
131.821442
 30
0.0
 11
169.873077
 21
117.221436
 31
0.0
  0
LINE
  5
12E
100
AcDbEntity
  8
ARMATUR
390
0
  6
DURCHGEHEND
 62
     1
100
AcDbLine
 10
169.873077
 20
132.021454
 30
0.0
 11
171.923065
 21
132.021454
 31
0.0
  0
LINE
  5
12F
100
AcDbEntity
  8
ARMATUR
390
0
  6
DURCHGEHEND
 62
     1
100
AcDbLine
 10
169.873077
 20
131.821442
 30
0.0
 11
169.873077
 21
132.021454
 31
0.0
  0
LINE
  5
130
100
AcDbEntity
  8
ARMATUR
390
0
  6
DURCHGEHEND
 62
     1
100
AcDbLine
 10
172.123077
 20
131.821442
 30
0.0
 11
172.123077
 21
117.221436
 31
0.0
  0
ARC
  5
131
100
AcDbEntity
  8
ARMATUR
390
0
  6
DURCHGEHEND
 62
     1
100
AcDbCircle
 10
171.923065
 20
131.821442
 30
0.0
 40
0.200012
100
AcDbArc
 50
0.0
 51
90.0
  0
LINE
  5
132
100
AcDbEntity
  8
ARMATUR
390
0
  6
DURCHGEHEND
 62
     1
100
AcDbLine
 10
171.923065
 20
117.021439
 30
0.0
 11
169.873077
 21
117.021439
 31
0.0
  0
LINE
  5
133
100
AcDbEntity
  8
ARMATUR
390
0
  6
DURCHGEHEND
 62
     1
100
AcDbLine
 10
169.873077
 20
117.021439
 30
0.0
 11
169.873077
 21
117.221436
 31
0.0
  0
ARC
  5
134
100
AcDbEntity
  8
ARMATUR
390
0
  6
DURCHGEHEND
 62
     1
100
AcDbCircle
 10
171.923065
 20
117.221436
 30
0.0
 40
0.200012
100
AcDbArc
 50
270.0
 51
360.0
  0
LINE
  5
135
100
AcDbEntity
  8
ARMATUR
390
0
  6
DURCHGEHEND
 62
     1
100
AcDbLine
 10
161.623077
 20
124.558151
 30
0.0
 11
161.623077
 21
121.95816
 31
0.0
  0
LINE
  5
136
100
AcDbEntity
  8
ARMATUR
390
0
  6
DURCHGEHEND
 62
     1
100
AcDbLine
 10
161.623077
 20
127.158157
 30
0.0
 11
161.623077
 21
124.558151
 31
0.0
  0
LINE
  5
137
100
AcDbEntity
  8
ARMATUR
390
0
  6
DURCHGEHEND
 62
     1
100
AcDbLine
 10
161.373077
 20
124.558151
 30
0.0
 11
161.373077
 21
126.908157
 31
0.0
  0
LINE
  5
138
100
AcDbEntity
  8
ARMATUR
390
0
  6
DURCHGEHEND
 62
     1
100
AcDbLine
 10
161.373077
 20
122.20816
 30
0.0
 11
161.373077
 21
124.558151
 31
0.0
  0
LINE
  5
139
100
AcDbEntity
  8
ARMATUR
390
0
  6
DURCHGEHEND
 62
     1
100
AcDbLine
 10
163.123077
 20
124.558151
 30
0.0
 11
163.123077
 21
121.95816
 31
0.0
  0
LINE
  5
13A
100
AcDbEntity
  8
ARMATUR
390
0
  6
DURCHGEHEND
 62
     1
100
AcDbLine
 10
163.123077
 20
127.158157
 30
0.0
 11
163.123077
 21
124.558151
 31
0.0
  0
LINE
  5
13B
100
AcDbEntity
  8
ARMATUR
390
0
  6
DURCHGEHEND
 62
     1
100
AcDbLine
 10
163.623077
 20
124.558151
 30
0.0
 11
163.623077
 21
121.95816
 31
0.0
  0
LINE
  5
13C
100
AcDbEntity
  8
ARMATUR
390
0
  6
DURCHGEHEND
 62
     1
100
AcDbLine
 10
163.623077
 20
127.158157
 30
0.0
 11
163.623077
 21
124.558151
 31
0.0
  0
LINE
  5
13D
100
AcDbEntity
  8
ARMATUR
390
0
  6
DURCHGEHEND
 62
     1
100
AcDbLine
 10
165.123077
 20
124.558151
 30
0.0
 11
165.123077
 21
121.95816
 31
0.0
  0
LINE
  5
13E
100
AcDbEntity
  8
ARMATUR
390
0
  6
DURCHGEHEND
 62
     1
100
AcDbLine
 10
165.123077
 20
127.158157
 30
0.0
 11
165.123077
 21
124.558151
 31
0.0
  0
LINE
  5
13F
100
AcDbEntity
  8
ARMATUR
390
0
  6
DURCHGEHEND
 62
     1
100
AcDbLine
 10
167.123077
 20
124.558151
 30
0.0
 11
167.123077
 21
121.95816
 31
0.0
  0
LINE
  5
140
100
AcDbEntity
  8
ARMATUR
390
0
  6
DURCHGEHEND
 62
     1
100
AcDbLine
 10
167.123077
 20
127.158157
 30
0.0
 11
167.123077
 21
124.558151
 31
0.0
  0
LINE
  5
141
100
AcDbEntity
  8
ARMATUR
390
0
  6
DURCHGEHEND
 62
     1
100
AcDbLine
 10
165.623077
 20
124.558151
 30
0.0
 11
165.623077
 21
121.95816
 31
0.0
  0
LINE
  5
142
100
AcDbEntity
  8
ARMATUR
390
0
  6
DURCHGEHEND
 62
     1
100
AcDbLine
 10
165.623077
 20
127.158157
 30
0.0
 11
165.623077
 21
124.558151
 31
0.0
  0
LINE
  5
143
100
AcDbEntity
  8
ARMATUR
390
0
  6
DURCHGEHEND
 62
     1
100
AcDbLine
 10
169.623077
 20
127.158157
 30
0.0
 11
169.623077
 21
125.783157
 31
0.0
  0
POLYLINE
  5
144
100
AcDbEntity
  8
ARMATUR
390
0
  6
DURCHGEHEND
 62
     1
100
AcDb3dPolyline
 66
     1
 10
0.0
 20
0.0
 30
0.0
 70
    12
 75
     5
  0
VERTEX
  5
145
100
AcDbEntity
  8
0
390
0
100
AcDbVertex
100
AcDb3dPolylineVertex
 10
169.873077
 20
125.533157
 30
0.0
 70
    48
  0
VERTEX
  5
146
100
AcDbEntity
  8
0
390
0
100
AcDbVertex
100
AcDb3dPolylineVertex
 10
169.873077
 20
125.533157
 30
0.0
 70
    40
  0
VERTEX
  5
147
100
AcDbEntity
  8
0
390
0
100
AcDbVertex
100
AcDb3dPolylineVertex
 10
169.788422
 20
125.617859
 30
0.0
 70
    40
  0
VERTEX
  5
148
100
AcDbEntity
  8
0
390
0
100
AcDbVertex
100
AcDb3dPolylineVertex
 10
169.873077
 20
125.533157
 30
0.0
 70
    48
  0
VERTEX
  5
149
100
AcDbEntity
  8
0
390
0
100
AcDbVertex
100
AcDb3dPolylineVertex
 10
169.788422
 20
125.617859
 30
0.0
 70
    48
  0
VERTEX
  5
14A
100
AcDbEntity
  8
0
390
0
100
AcDbVertex
100
AcDb3dPolylineVertex
 10
169.788422
 20
125.617859
 30
0.0
 70
    48
  0
VERTEX
  5
14B
100
AcDbEntity
  8
0
390
0
100
AcDbVertex
100
AcDb3dPolylineVertex
 10
169.705048
 20
125.701218
 30
0.0
 70
    40
  0
VERTEX
  5
14C
100
AcDbEntity
  8
0
390
0
100
AcDbVertex
100
AcDb3dPolylineVertex
 10
169.788422
 20
125.617859
 30
0.0
 70
    48
  0
VERTEX
  5
14D
100
AcDbEntity
  8
0
390
0
100
AcDbVertex
100
AcDb3dPolylineVertex
 10
169.705048
 20
125.701218
 30
0.0
 70
    48
  0
VERTEX
  5
14E
100
AcDbEntity
  8
0
390
0
100
AcDbVertex
100
AcDb3dPolylineVertex
 10
169.705048
 20
125.701218
 30
0.0
 70
    48
  0
VERTEX
  5
14F
100
AcDbEntity
  8
0
390
0
100
AcDbVertex
100
AcDb3dPolylineVertex
 10
169.623077
 20
125.783157
 30
0.0
 70
    40
  0
VERTEX
  5
150
100
AcDbEntity
  8
0
390
0
100
AcDbVertex
100
AcDb3dPolylineVertex
 10
169.705048
 20
125.701218
 30
0.0
 70
    48
  0
VERTEX
  5
151
100
AcDbEntity
  8
0
390
0
100
AcDbVertex
100
AcDb3dPolylineVertex
 10
169.623077
 20
125.783157
 30
0.0
 70
    48
  0
VERTEX
  5
152
100
AcDbEntity
  8
0
390
0
100
AcDbVertex
100
AcDb3dPolylineVertex
 10
169.623077
 20
125.783157
 30
0.0
 70
    48
  0
SEQEND
  5
153
100
AcDbEntity
  8
0
390
0
  0
POLYLINE
  5
154
100
AcDbEntity
  8
ARMATUR
390
0
  6
DURCHGEHEND
 62
     1
100
AcDb3dPolyline
 66
     1
 10
0.0
 20
0.0
 30
0.0
 70
    12
 75
     5
  0
VERTEX
  5
155
100
AcDbEntity
  8
0
390
0
100
AcDbVertex
100
AcDb3dPolylineVertex
 10
169.873077
 20
123.58316
 30
0.0
 70
    48
  0
VERTEX
  5
156
100
AcDbEntity
  8
0
390
0
100
AcDbVertex
100
AcDb3dPolylineVertex
 10
169.873077
 20
123.58316
 30
0.0
 70
    40
  0
VERTEX
  5
157
100
AcDbEntity
  8
0
390
0
100
AcDbVertex
100
AcDb3dPolylineVertex
 10
169.788422
 20
123.498459
 30
0.0
 70
    40
  0
VERTEX
  5
158
100
AcDbEntity
  8
0
390
0
100
AcDbVertex
100
AcDb3dPolylineVertex
 10
169.873077
 20
123.58316
 30
0.0
 70
    48
  0
VERTEX
  5
159
100
AcDbEntity
  8
0
390
0
100
AcDbVertex
100
AcDb3dPolylineVertex
 10
169.788422
 20
123.498459
 30
0.0
 70
    48
  0
VERTEX
  5
15A
100
AcDbEntity
  8
0
390
0
100
AcDbVertex
100
AcDb3dPolylineVertex
 10
169.788422
 20
123.498459
 30
0.0
 70
    48
  0
VERTEX
  5
15B
100
AcDbEntity
  8
0
390
0
100
AcDbVertex
100
AcDb3dPolylineVertex
 10
169.705048
 20
123.415085
 30
0.0
 70
    40
  0
VERTEX
  5
15C
100
AcDbEntity
  8
0
390
0
100
AcDbVertex
100
AcDb3dPolylineVertex
 10
169.788422
 20
123.498459
 30
0.0
 70
    48
  0
VERTEX
  5
15D
100
AcDbEntity
  8
0
390
0
100
AcDbVertex
100
AcDb3dPolylineVertex
 10
169.705048
 20
123.415085
 30
0.0
 70
    48
  0
VERTEX
  5
15E
100
AcDbEntity
  8
0
390
0
100
AcDbVertex
100
AcDb3dPolylineVertex
 10
169.705048
 20
123.415085
 30
0.0
 70
    48
  0
VERTEX
  5
15F
100
AcDbEntity
  8
0
390
0
100
AcDbVertex
100
AcDb3dPolylineVertex
 10
169.623077
 20
123.33316
 30
0.0
 70
    40
  0
VERTEX
  5
160
100
AcDbEntity
  8
0
390
0
100
AcDbVertex
100
AcDb3dPolylineVertex
 10
169.705048
 20
123.415085
 30
0.0
 70
    48
  0
VERTEX
  5
161
100
AcDbEntity
  8
0
390
0
100
AcDbVertex
100
AcDb3dPolylineVertex
 10
169.623077
 20
123.33316
 30
0.0
 70
    48
  0
VERTEX
  5
162
100
AcDbEntity
  8
0
390
0
100
AcDbVertex
100
AcDb3dPolylineVertex
 10
169.623077
 20
123.33316
 30
0.0
 70
    48
  0
SEQEND
  5
163
100
AcDbEntity
  8
0
390
0
  0
LINE
  5
164
100
AcDbEntity
  8
ARMATUR
390
0
  6
DURCHGEHEND
 62
     1
100
AcDbLine
 10
169.623077
 20
123.33316
 30
0.0
 11
169.623077
 21
121.95816
 31
0.0
  0
LINE
  5
165
100
AcDbEntity
  8
ARMATUR
390
0
  6
DURCHGEHEND
 62
     1
100
AcDbLine
 10
167.623077
 20
124.558151
 30
0.0
 11
167.623077
 21
121.95816
 31
0.0
  0
LINE
  5
166
100
AcDbEntity
  8
ARMATUR
390
0
  6
DURCHGEHEND
 62
     1
100
AcDbLine
 10
167.623077
 20
127.158157
 30
0.0
 11
167.623077
 21
124.558151
 31
0.0
  0
LINE
  5
167
100
AcDbEntity
  8
ARMATUR
390
0
  6
DURCHGEHEND
 62
     1
100
AcDbLine
 10
208.748077
 20
125.933151
 30
0.0
 11
172.123077
 21
125.933151
 31
0.0
  0
ARC
  5
168
100
AcDbEntity
  8
ARMATUR
390
0
  6
DURCHGEHEND
 62
     1
100
AcDbCircle
 10
208.748077
 20
113.433151
 30
0.0
 40
12.5
100
AcDbArc
 50
0.0
 51
90.0
  0
LINE
  5
169
100
AcDbEntity
  8
ARMATUR
390
0
  6
DURCHGEHEND
 62
     1
100
AcDbLine
 10
221.248077
 20
113.433151
 30
0.0
 11
221.248077
 21
107.933151
 31
0.0
  0
LINE
  5
16A
100
AcDbEntity
  8
ARMATUR
390
0
  6
DURCHGEHEND
 62
     1
100
AcDbLine
 10
221.248077
 20
107.933151
 30
0.0
 11
218.498077
 21
107.933151
 31
0.0
  0
LINE
  5
16B
100
AcDbEntity
  8
ARMATUR
390
0
  6
DURCHGEHEND
 62
     1
100
AcDbLine
 10
218.498077
 20
113.433151
 30
0.0
 11
218.498077
 21
107.933151
 31
0.0
  0
ARC
  5
16C
100
AcDbEntity
  8
ARMATUR
390
0
  6
DURCHGEHEND
 62
     1
100
AcDbCircle
 10
208.748077
 20
113.433151
 30
0.0
 40
9.75
100
AcDbArc
 50
0.0
 51
90.0
  0
LINE
  5
16D
100
AcDbEntity
  8
ARMATUR
390
0
  6
DURCHGEHEND
 62
     1
100
AcDbLine
 10
208.748077
 20
123.183151
 30
0.0
 11
172.123077
 21
123.183151
 31
0.0
  0
POLYLINE
  5
16E
100
AcDbEntity
  8
ARMATUR
390
0
  6
DURCHGEHEND
 62
     1
100
AcDb3dPolyline
 66
     1
 10
0.0
 20
0.0
 30
0.0
 70
    12
 75
     5
  0
VERTEX
  5
16F
100
AcDbEntity
  8
0
390
0
100
AcDbVertex
100
AcDb3dPolylineVertex
 10
218.460114
 20
110.983154
 30
0.0
 70
    48
  0
VERTEX
  5
170
100
AcDbEntity
  8
0
390
0
100
AcDbVertex
100
AcDb3dPolylineVertex
 10
218.460114
 20
110.983154
 30
0.0
 70
    40
  0
VERTEX
  5
171
100
AcDbEntity
  8
0
390
0
100
AcDbVertex
100
AcDb3dPolylineVertex
 10
218.460114
 20
110.961037
 30
0.0
 70
    40
  0
VERTEX
  5
172
100
AcDbEntity
  8
0
390
0
100
AcDbVertex
100
AcDb3dPolylineVertex
 10
218.460098
 20
110.938995
 30
0.0
 70
    40
  0
VERTEX
  5
173
100
AcDbEntity
  8
0
390
0
100
AcDbVertex
100
AcDb3dPolylineVertex
 10
218.460083
 20
110.917084
 30
0.0
 70
    40
  0
VERTEX
  5
174
100
AcDbEntity
  8
0
390
0
100
AcDbVertex
100
AcDb3dPolylineVertex
 10
218.460068
 20
110.89537
 30
0.0
 70
    40
  0
VERTEX
  5
175
100
AcDbEntity
  8
0
390
0
100
AcDbVertex
100
AcDb3dPolylineVertex
 10
218.460052
 20
110.873932
 30
0.0
 70
    40
  0
VERTEX
  5
176
100
AcDbEntity
  8
0
390
0
100
AcDbVertex
100
AcDb3dPolylineVertex
 10
218.460052
 20
110.852829
 30
0.0
 70
    40
  0
VERTEX
  5
177
100
AcDbEntity
  8
0
390
0
100
AcDbVertex
100
AcDb3dPolylineVertex
 10
218.460114
 20
110.938904
 30
0.0
 70
    48
  0
VERTEX
  5
178
100
AcDbEntity
  8
0
390
0
100
AcDbVertex
100
AcDb3dPolylineVertex
 10
218.460052
 20
110.894653
 30
0.0
 70
    48
  0
VERTEX
  5
179
100
AcDbEntity
  8
0
390
0
100
AcDbVertex
100
AcDb3dPolylineVertex
 10
218.460052
 20
110.852829
 30
0.0
 70
    48
  0
VERTEX
  5
17A
100
AcDbEntity
  8
0
390
0
100
AcDbVertex
100
AcDb3dPolylineVertex
 10
218.460052
 20
110.832123
 30
0.0
 70
    40
  0
VERTEX
  5
17B
100
AcDbEntity
  8
0
390
0
100
AcDbVertex
100
AcDb3dPolylineVertex
 10
218.460052
 20
110.811897
 30
0.0
 70
    40
  0
VERTEX
  5
17C
100
AcDbEntity
  8
0
390
0
100
AcDbVertex
100
AcDb3dPolylineVertex
 10
218.460052
 20
110.792221
 30
0.0
 70
    40
  0
VERTEX
  5
17D
100
AcDbEntity
  8
0
390
0
100
AcDbVertex
100
AcDb3dPolylineVertex
 10
218.460037
 20
110.773163
 30
0.0
 70
    40
  0
VERTEX
  5
17E
100
AcDbEntity
  8
0
390
0
100
AcDbVertex
100
AcDb3dPolylineVertex
 10
218.460022
 20
110.754791
 30
0.0
 70
    40
  0
VERTEX
  5
17F
100
AcDbEntity
  8
0
390
0
100
AcDbVertex
100
AcDb3dPolylineVertex
 10
218.459991
 20
110.737183
 30
0.0
 70
    40
  0
VERTEX
  5
180
100
AcDbEntity
  8
0
390
0
100
AcDbVertex
100
AcDb3dPolylineVertex
 10
218.460052
 20
110.810989
 30
0.0
 70
    48
  0
VERTEX
  5
181
100
AcDbEntity
  8
0
390
0
100
AcDbVertex
100
AcDb3dPolylineVertex
 10
218.460052
 20
110.771591
 30
0.0
 70
    48
  0
VERTEX
  5
182
100
AcDbEntity
  8
0
390
0
100
AcDbVertex
100
AcDb3dPolylineVertex
 10
218.459991
 20
110.737183
 30
0.0
 70
    48
  0
VERTEX
  5
183
100
AcDbEntity
  8
0
390
0
100
AcDbVertex
100
AcDb3dPolylineVertex
 10
218.459961
 20
110.720406
 30
0.0
 70
    40
  0
VERTEX
  5
184
100
AcDbEntity
  8
0
390
0
100
AcDbVertex
100
AcDb3dPolylineVertex
 10
218.459946
 20
110.70446
 30
0.0
 70
    40
  0
VERTEX
  5
185
100
AcDbEntity
  8
0
390
0
100
AcDbVertex
100
AcDb3dPolylineVertex
 10
218.45993
 20
110.689377
 30
0.0
 70
    40
  0
VERTEX
  5
186
100
AcDbEntity
  8
0
390
0
100
AcDbVertex
100
AcDb3dPolylineVertex
 10
218.459915
 20
110.67514
 30
0.0
 70
    40
  0
VERTEX
  5
187
100
AcDbEntity
  8
0
390
0
100
AcDbVertex
100
AcDb3dPolylineVertex
 10
218.4599
 20
110.661774
 30
0.0
 70
    40
  0
VERTEX
  5
188
100
AcDbEntity
  8
0
390
0
100
AcDbVertex
100
AcDb3dPolylineVertex
 10
218.459869
 20
110.649277
 30
0.0
 70
    40
  0
VERTEX
  5
189
100
AcDbEntity
  8
0
390
0
100
AcDbVertex
100
AcDb3dPolylineVertex
 10
218.45993
 20
110.702789
 30
0.0
 70
    48
  0
VERTEX
  5
18A
100
AcDbEntity
  8
0
390
0
100
AcDbVertex
100
AcDb3dPolylineVertex
 10
218.45993
 20
110.673386
 30
0.0
 70
    48
  0
VERTEX
  5
18B
100
AcDbEntity
  8
0
390
0
100
AcDbVertex
100
AcDb3dPolylineVertex
 10
218.459869
 20
110.649277
 30
0.0
 70
    48
  0
VERTEX
  5
18C
100
AcDbEntity
  8
0
390
0
100
AcDbVertex
100
AcDb3dPolylineVertex
 10
218.459869
 20
110.637688
 30
0.0
 70
    40
  0
VERTEX
  5
18D
100
AcDbEntity
  8
0
390
0
100
AcDbVertex
100
AcDb3dPolylineVertex
 10
218.459854
 20
110.627159
 30
0.0
 70
    40
  0
VERTEX
  5
18E
100
AcDbEntity
  8
0
390
0
100
AcDbVertex
100
AcDb3dPolylineVertex
 10
218.459839
 20
110.617851
 30
0.0
 70
    40
  0
VERTEX
  5
18F
100
AcDbEntity
  8
0
390
0
100
AcDbVertex
100
AcDb3dPolylineVertex
 10
218.459824
 20
110.60994
 30
0.0
 70
    40
  0
VERTEX
  5
190
100
AcDbEntity
  8
0
390
0
100
AcDbVertex
100
AcDb3dPolylineVertex
 10
218.459808
 20
110.603607
 30
0.0
 70
    40
  0
VERTEX
  5
191
100
AcDbEntity
  8
0
390
0
100
AcDbVertex
100
AcDb3dPolylineVertex
 10
218.459808
 20
110.599014
 30
0.0
 70
    40
  0
VERTEX
  5
192
100
AcDbEntity
  8
0
390
0
100
AcDbVertex
100
AcDb3dPolylineVertex
 10
218.459869
 20
110.625168
 30
0.0
 70
    48
  0
VERTEX
  5
193
100
AcDbEntity
  8
0
390
0
100
AcDbVertex
100
AcDb3dPolylineVertex
 10
218.459808
 20
110.606339
 30
0.0
 70
    48
  0
VERTEX
  5
194
100
AcDbEntity
  8
0
390
0
100
AcDbVertex
100
AcDb3dPolylineVertex
 10
218.459808
 20
110.599014
 30
0.0
 70
    48
  0
VERTEX
  5
195
100
AcDbEntity
  8
0
390
0
100
AcDbVertex
100
AcDb3dPolylineVertex
 10
218.459808
 20
110.597
 30
0.0
 70
    40
  0
VERTEX
  5
196
100
AcDbEntity
  8
0
390
0
100
AcDbVertex
100
AcDb3dPolylineVertex
 10
218.459808
 20
110.595665
 30
0.0
 70
    40
  0
VERTEX
  5
197
100
AcDbEntity
  8
0
390
0
100
AcDbVertex
100
AcDb3dPolylineVertex
 10
218.459808
 20
110.594887
 30
0.0
 70
    40
  0
VERTEX
  5
198
100
AcDbEntity
  8
0
390
0
100
AcDbVertex
100
AcDb3dPolylineVertex
 10
218.459808
 20
110.594513
 30
0.0
 70
    40
  0
VERTEX
  5
199
100
AcDbEntity
  8
0
390
0
100
AcDbVertex
100
AcDb3dPolylineVertex
 10
218.459808
 20
110.594414
 30
0.0
 70
    40
  0
VERTEX
  5
19A
100
AcDbEntity
  8
0
390
0
100
AcDbVertex
100
AcDb3dPolylineVertex
 10
218.459808
 20
110.594452
 30
0.0
 70
    40
  0
VERTEX
  5
19B
100
AcDbEntity
  8
0
390
0
100
AcDbVertex
100
AcDb3dPolylineVertex
 10
218.459808
 20
110.594208
 30
0.0
 70
    48
  0
VERTEX
  5
19C
100
AcDbEntity
  8
0
390
0
100
AcDbVertex
100
AcDb3dPolylineVertex
 10
218.459808
 20
110.59433
 30
0.0
 70
    48
  0
VERTEX
  5
19D
100
AcDbEntity
  8
0
390
0
100
AcDbVertex
100
AcDb3dPolylineVertex
 10
218.459808
 20
110.594452
 30
0.0
 70
    48
  0
SEQEND
  5
19E
100
AcDbEntity
  8
0
390
0
  0
POLYLINE
  5
19F
100
AcDbEntity
  8
ARMATUR
390
0
  6
DURCHGEHEND
 62
     1
100
AcDb3dPolyline
 66
     1
 10
0.0
 20
0.0
 30
0.0
 70
    12
 75
     5
  0
VERTEX
  5
1A0
100
AcDbEntity
  8
0
390
0
100
AcDbVertex
100
AcDb3dPolylineVertex
 10
218.459808
 20
111.376205
 30
0.0
 70
    48
  0
VERTEX
  5
1A1
100
AcDbEntity
  8
0
390
0
100
AcDbVertex
100
AcDb3dPolylineVertex
 10
218.459808
 20
111.376205
 30
0.0
 70
    40
  0
VERTEX
  5
1A2
100
AcDbEntity
  8
0
390
0
100
AcDbVertex
100
AcDb3dPolylineVertex
 10
218.459808
 20
111.37632
 30
0.0
 70
    40
  0
VERTEX
  5
1A3
100
AcDbEntity
  8
0
390
0
100
AcDbVertex
100
AcDb3dPolylineVertex
 10
218.459808
 20
111.376434
 30
0.0
 70
    40
  0
VERTEX
  5
1A4
100
AcDbEntity
  8
0
390
0
100
AcDbVertex
100
AcDb3dPolylineVertex
 10
218.459808
 20
111.376549
 30
0.0
 70
    40
  0
VERTEX
  5
1A5
100
AcDbEntity
  8
0
390
0
100
AcDbVertex
100
AcDb3dPolylineVertex
 10
218.459808
 20
111.376663
 30
0.0
 70
    40
  0
VERTEX
  5
1A6
100
AcDbEntity
  8
0
390
0
100
AcDbVertex
100
AcDb3dPolylineVertex
 10
218.459808
 20
111.376778
 30
0.0
 70
    40
  0
VERTEX
  5
1A7
100
AcDbEntity
  8
0
390
0
100
AcDbVertex
100
AcDb3dPolylineVertex
 10
218.459808
 20
111.376877
 30
0.0
 70
    40
  0
VERTEX
  5
1A8
100
AcDbEntity
  8
0
390
0
100
AcDbVertex
100
AcDb3dPolylineVertex
 10
218.459808
 20
111.376434
 30
0.0
 70
    48
  0
VERTEX
  5
1A9
100
AcDbEntity
  8
0
390
0
100
AcDbVertex
100
AcDb3dPolylineVertex
 10
218.459808
 20
111.376678
 30
0.0
 70
    48
  0
VERTEX
  5
1AA
100
AcDbEntity
  8
0
390
0
100
AcDbVertex
100
AcDb3dPolylineVertex
 10
218.459808
 20
111.376877
 30
0.0
 70
    48
  0
VERTEX
  5
1AB
100
AcDbEntity
  8
0
390
0
100
AcDbVertex
100
AcDb3dPolylineVertex
 10
218.459808
 20
111.378563
 30
0.0
 70
    40
  0
VERTEX
  5
1AC
100
AcDbEntity
  8
0
390
0
100
AcDbVertex
100
AcDb3dPolylineVertex
 10
218.459808
 20
111.377419
 30
0.0
 70
    40
  0
VERTEX
  5
1AD
100
AcDbEntity
  8
0
390
0
100
AcDbVertex
100
AcDb3dPolylineVertex
 10
218.459808
 20
111.373886
 30
0.0
 70
    40
  0
VERTEX
  5
1AE
100
AcDbEntity
  8
0
390
0
100
AcDbVertex
100
AcDb3dPolylineVertex
 10
218.459808
 20
111.368385
 30
0.0
 70
    40
  0
VERTEX
  5
1AF
100
AcDbEntity
  8
0
390
0
100
AcDbVertex
100
AcDb3dPolylineVertex
 10
218.459808
 20
111.361374
 30
0.0
 70
    40
  0
VERTEX
  5
1B0
100
AcDbEntity
  8
0
390
0
100
AcDbVertex
100
AcDb3dPolylineVertex
 10
218.459808
 20
111.353287
 30
0.0
 70
    40
  0
VERTEX
  5
1B1
100
AcDbEntity
  8
0
390
0
100
AcDbVertex
100
AcDb3dPolylineVertex
 10
218.459808
 20
111.383377
 30
0.0
 70
    48
  0
VERTEX
  5
1B2
100
AcDbEntity
  8
0
390
0
100
AcDbVertex
100
AcDb3dPolylineVertex
 10
218.459808
 20
111.370255
 30
0.0
 70
    48
  0
VERTEX
  5
1B3
100
AcDbEntity
  8
0
390
0
100
AcDbVertex
100
AcDb3dPolylineVertex
 10
218.459808
 20
111.353287
 30
0.0
 70
    48
  0
VERTEX
  5
1B4
100
AcDbEntity
  8
0
390
0
100
AcDbVertex
100
AcDb3dPolylineVertex
 10
218.459839
 20
111.34446
 30
0.0
 70
    40
  0
VERTEX
  5
1B5
100
AcDbEntity
  8
0
390
0
100
AcDbVertex
100
AcDb3dPolylineVertex
 10
218.459869
 20
111.334915
 30
0.0
 70
    40
  0
VERTEX
  5
1B6
100
AcDbEntity
  8
0
390
0
100
AcDbVertex
100
AcDb3dPolylineVertex
 10
218.4599
 20
111.32457
 30
0.0
 70
    40
  0
VERTEX
  5
1B7
100
AcDbEntity
  8
0
390
0
100
AcDbVertex
100
AcDb3dPolylineVertex
 10
218.459915
 20
111.313354
 30
0.0
 70
    40
  0
VERTEX
  5
1B8
100
AcDbEntity
  8
0
390
0
100
AcDbVertex
100
AcDb3dPolylineVertex
 10
218.45993
 20
111.301178
 30
0.0
 70
    40
  0
VERTEX
  5
1B9
100
AcDbEntity
  8
0
390
0
100
AcDbVertex
100
AcDb3dPolylineVertex
 10
218.45993
 20
111.287964
 30
0.0
 70
    40
  0
VERTEX
  5
1BA
100
AcDbEntity
  8
0
390
0
100
AcDbVertex
100
AcDb3dPolylineVertex
 10
218.459869
 20
111.336304
 30
0.0
 70
    48
  0
VERTEX
  5
1BB
100
AcDbEntity
  8
0
390
0
100
AcDbVertex
100
AcDb3dPolylineVertex
 10
218.45993
 20
111.315475
 30
0.0
 70
    48
  0
VERTEX
  5
1BC
100
AcDbEntity
  8
0
390
0
100
AcDbVertex
100
AcDb3dPolylineVertex
 10
218.45993
 20
111.287964
 30
0.0
 70
    48
  0
VERTEX
  5
1BD
100
AcDbEntity
  8
0
390
0
100
AcDbVertex
100
AcDb3dPolylineVertex
 10
218.45993
 20
111.273659
 30
0.0
 70
    40
  0
VERTEX
  5
1BE
100
AcDbEntity
  8
0
390
0
100
AcDbVertex
100
AcDb3dPolylineVertex
 10
218.459946
 20
111.258316
 30
0.0
 70
    40
  0
VERTEX
  5
1BF
100
AcDbEntity
  8
0
390
0
100
AcDbVertex
100
AcDb3dPolylineVertex
 10
218.459976
 20
111.24202
 30
0.0
 70
    40
  0
VERTEX
  5
1C0
100
AcDbEntity
  8
0
390
0
100
AcDbVertex
100
AcDb3dPolylineVertex
 10
218.459991
 20
111.224861
 30
0.0
 70
    40
  0
VERTEX
  5
1C1
100
AcDbEntity
  8
0
390
0
100
AcDbVertex
100
AcDb3dPolylineVertex
 10
218.460022
 20
111.206917
 30
0.0
 70
    40
  0
VERTEX
  5
1C2
100
AcDbEntity
  8
0
390
0
100
AcDbVertex
100
AcDb3dPolylineVertex
 10
218.460052
 20
111.188263
 30
0.0
 70
    40
  0
VERTEX
  5
1C3
100
AcDbEntity
  8
0
390
0
100
AcDbVertex
100
AcDb3dPolylineVertex
 10
218.45993
 20
111.260437
 30
0.0
 70
    48
  0
VERTEX
  5
1C4
100
AcDbEntity
  8
0
390
0
100
AcDbVertex
100
AcDb3dPolylineVertex
 10
218.459991
 20
111.226212
 30
0.0
 70
    48
  0
VERTEX
  5
1C5
100
AcDbEntity
  8
0
390
0
100
AcDbVertex
100
AcDb3dPolylineVertex
 10
218.460052
 20
111.188263
 30
0.0
 70
    48
  0
VERTEX
  5
1C6
100
AcDbEntity
  8
0
390
0
100
AcDbVertex
100
AcDb3dPolylineVertex
 10
218.460052
 20
111.168991
 30
0.0
 70
    40
  0
VERTEX
  5
1C7
100
AcDbEntity
  8
0
390
0
100
AcDbVertex
100
AcDb3dPolylineVertex
 10
218.460052
 20
111.149155
 30
0.0
 70
    40
  0
VERTEX
  5
1C8
100
AcDbEntity
  8
0
390
0
100
AcDbVertex
100
AcDb3dPolylineVertex
 10
218.460052
 20
111.128822
 30
0.0
 70
    40
  0
VERTEX
  5
1C9
100
AcDbEntity
  8
0
390
0
100
AcDbVertex
100
AcDb3dPolylineVertex
 10
218.460068
 20
111.108055
 30
0.0
 70
    40
  0
VERTEX
  5
1CA
100
AcDbEntity
  8
0
390
0
100
AcDbVertex
100
AcDb3dPolylineVertex
 10
218.460083
 20
111.086906
 30
0.0
 70
    40
  0
VERTEX
  5
1CB
100
AcDbEntity
  8
0
390
0
100
AcDbVertex
100
AcDb3dPolylineVertex
 10
218.460114
 20
111.065445
 30
0.0
 70
    40
  0
VERTEX
  5
1CC
100
AcDbEntity
  8
0
390
0
100
AcDbVertex
100
AcDb3dPolylineVertex
 10
218.460052
 20
111.150314
 30
0.0
 70
    48
  0
VERTEX
  5
1CD
100
AcDbEntity
  8
0
390
0
100
AcDbVertex
100
AcDb3dPolylineVertex
 10
218.460052
 20
111.108643
 30
0.0
 70
    48
  0
VERTEX
  5
1CE
100
AcDbEntity
  8
0
390
0
100
AcDbVertex
100
AcDb3dPolylineVertex
 10
218.460114
 20
111.065445
 30
0.0
 70
    48
  0
VERTEX
  5
1CF
100
AcDbEntity
  8
0
390
0
100
AcDbVertex
100
AcDb3dPolylineVertex
 10
218.460114
 20
111.05188
 30
0.0
 70
    40
  0
VERTEX
  5
1D0
100
AcDbEntity
  8
0
390
0
100
AcDbVertex
100
AcDb3dPolylineVertex
 10
218.460114
 20
111.038231
 30
0.0
 70
    40
  0
VERTEX
  5
1D1
100
AcDbEntity
  8
0
390
0
100
AcDbVertex
100
AcDb3dPolylineVertex
 10
218.460114
 20
111.024521
 30
0.0
 70
    40
  0
VERTEX
  5
1D2
100
AcDbEntity
  8
0
390
0
100
AcDbVertex
100
AcDb3dPolylineVertex
 10
218.460114
 20
111.010765
 30
0.0
 70
    40
  0
VERTEX
  5
1D3
100
AcDbEntity
  8
0
390
0
100
AcDbVertex
100
AcDb3dPolylineVertex
 10
218.460114
 20
110.996964
 30
0.0
 70
    40
  0
VERTEX
  5
1D4
100
AcDbEntity
  8
0
390
0
100
AcDbVertex
100
AcDb3dPolylineVertex
 10
218.460114
 20
110.983154
 30
0.0
 70
    40
  0
VERTEX
  5
1D5
100
AcDbEntity
  8
0
390
0
100
AcDbVertex
100
AcDb3dPolylineVertex
 10
218.460114
 20
111.038406
 30
0.0
 70
    48
  0
VERTEX
  5
1D6
100
AcDbEntity
  8
0
390
0
100
AcDbVertex
100
AcDb3dPolylineVertex
 10
218.460114
 20
111.010788
 30
0.0
 70
    48
  0
VERTEX
  5
1D7
100
AcDbEntity
  8
0
390
0
100
AcDbVertex
100
AcDb3dPolylineVertex
 10
218.460114
 20
110.983154
 30
0.0
 70
    48
  0
SEQEND
  5
1D8
100
AcDbEntity
  8
0
390
0
  0
LINE
  5
1D9
100
AcDbEntity
  8
ARMATUR
390
0
  6
DURCHGEHEND
 62
     1
100
AcDbLine
 10
218.498077
 20
107.933151
 30
0.0
 11
218.459808
 21
107.933151
 31
0.0
  0
LINE
  5
1DA
100
AcDbEntity
  8
ARMATUR
390
0
  6
DURCHGEHEND
 62
     1
100
AcDbLine
 10
221.286346
 20
107.933151
 30
0.0
 11
221.248077
 21
107.933151
 31
0.0
  0
LINE
  5
1DB
100
AcDbEntity
  8
ARMATUR
390
0
  6
DURCHGEHEND
 62
     3
100
AcDbLine
 10
219.829865
 20
121.090324
 30
0.0
 11
219.829865
 21
147.421783
 31
0.0
  0
LINE
  5
1DC
100
AcDbEntity
  8
ACHSEN
390
0
  6
STRICHPUNKTIERT
 62
     4
100
AcDbLine
 10
91.303169
 20
133.59967
 30
0.0
 11
91.303169
 21
108.20105
 31
0.0
  0
LINE
  5
1DD
100
AcDbEntity
  8
ACHSEN
390
0
  6
STRICHPUNKTIERT
 62
     4
100
AcDbLine
 10
81.806633
 20
124.582367
 30
0.0
 11
99.64151
 21
124.582367
 31
0.0
  0
LINE
  5
1DE
100
AcDbEntity
  8
ACHSEN
390
0
  6
STRICHPUNKTIERT
 62
     4
100
AcDbLine
 10
161.440018
 20
124.555786
 30
0.0
 11
207.476883
 21
124.555786
 31
0.0
  0
LINE
  5
1DF
100
AcDbEntity
  8
ACHSEN
390
0
  6
STRICHPUNKTIERT
 62
     4
100
AcDbLine
 10
219.884705
 20
106.10466
 30
0.0
 11
219.884705
 21
113.369759
 31
0.0
  0
ELLIPSE
  5
1E0
100
AcDbEntity
  8
ACHSEN
390
0
  6
STRICHPUNKTIERT
 62
     4
100
AcDbEllipse
 10
208.748077
 20
113.433151
 30
0.0
 11
-7.8821172714233398
 21
-7.8509775586716319
 31
0.0
210
0.0
220
0.0
230
1.0
 40
0.999657
 41
2.3582888000812452
 42
3.9289106898298445
  0
LINE
  5
1E1
100
AcDbEntity
  8
BEMASSUNG
390
0
  6
DURCHGEHEND
 62
     3
100
AcDbLine
 10
113.462494
 20
125.777863
 30
0.0
 11
115.908661
 21
123.603973
 31
0.0
  0
LINE
  5
1E2
100
AcDbEntity
  8
BEMASSUNG
390
0
  6
DURCHGEHEND
 62
     3
100
AcDbLine
 10
113.33252
 20
109.076736
 30
0.0
 11
115.778687
 21
106.902863
 31
0.0
  0
LINE
  5
1E3
100
AcDbEntity
  8
BEMASSUNG
390
0
  6
DURCHGEHEND
 62
     3
100
AcDbLine
 10
101.530701
 20
124.591431
 30
0.0
 11
116.179321
 21
124.591431
 31
0.0
  0
LINE
  5
1E4
100
AcDbEntity
  8
BEMASSUNG
390
0
  6
DURCHGEHEND
 62
     3
100
AcDbLine
 10
114.685577
 20
106.768173
 30
0.0
 11
114.685577
 21
125.827545
 31
0.0
  0
LINE
  5
1E5
100
AcDbEntity
  8
BEMASSUNG
390
0
  6
DURCHGEHEND
 62
     3
100
AcDbLine
 10
83.708801
 20
147.530228
 30
0.0
 11
83.708801
 21
132.308151
 31
0.0
  0
LINE
  5
1E6
100
AcDbEntity
  8
BEMASSUNG
390
0
  6
DURCHGEHEND
 62
     3
100
AcDbLine
 10
98.708801
 20
147.46109
 30
0.0
 11
98.708801
 21
132.125504
 31
0.0
  0
LINE
  5
1E7
100
AcDbEntity
  8
BEMASSUNG
390
0
  6
DURCHGEHEND
 62
     3
100
AcDbLine
 10
146.345078
 20
127.194077
 30
0.0
 11
162.427811
 21
127.194077
 31
0.0
  0
LINE
  5
1E8
100
AcDbEntity
  8
BEMASSUNG
390
0
  6
DURCHGEHEND
 62
     3
100
AcDbLine
 10
146.233658
 20
121.99157
 30
0.0
 11
162.242966
 21
121.99157
 31
0.0
  0
LINE
  5
1E9
100
AcDbEntity
  8
BEMASSUNG
390
0
  6
DURCHGEHEND
 62
     3
100
AcDbLine
 10
146.372803
 20
128.308975
 30
0.0
 11
148.818939
 21
126.135086
 31
0.0
  0
LINE
  5
1EA
100
AcDbEntity
  8
BEMASSUNG
390
0
  6
DURCHGEHEND
 62
     3
100
AcDbLine
 10
146.318054
 20
123.145027
 30
0.0
 11
148.764221
 21
120.971138
 31
0.0
  0
LINE
  5
1EB
100
AcDbEntity
  8
BEMASSUNG
390
0
  6
DURCHGEHEND
 62
     3
100
AcDbLine
 10
99.787247
 20
147.50386
 30
0.0
 11
97.613358
 21
145.057693
 31
0.0
  0
LINE
  5
1EC
100
AcDbEntity
  8
BEMASSUNG
390
0
  6
DURCHGEHEND
 62
     3
100
AcDbLine
 10
82.501762
 20
146.295883
 30
0.0
 11
100.378311
 21
146.295883
 31
0.0
  0
LINE
  5
1ED
100
AcDbEntity
  8
BEMASSUNG
390
0
  6
DURCHGEHEND
 62
     3
100
AcDbLine
 10
84.712296
 20
147.558578
 30
0.0
 11
82.538406
 21
145.112411
 31
0.0
  0
LINE
  5
1EE
100
AcDbEntity
  8
BEMASSUNG
390
0
  6
DURCHGEHEND
 62
     3
100
AcDbLine
 10
169.91713
 20
137.261871
 30
0.0
 11
169.91713
 21
147.339417
 31
0.0
  0
LINE
  5
1EF
100
AcDbEntity
  8
BEMASSUNG
390
0
  6
DURCHGEHEND
 62
     3
100
AcDbLine
 10
168.94313
 20
146.295883
 30
0.0
 11
221.117416
 21
146.295883
 31
0.0
  0
LINE
  5
1F0
100
AcDbEntity
  8
BEMASSUNG
390
0
  6
DURCHGEHEND
 62
     3
100
AcDbLine
 10
147.58075
 20
120.905769
 30
0.0
 11
147.58075
 21
149.873306
 31
0.0
  0
LINE
  5
1F1
100
AcDbEntity
  8
BEMASSUNG
390
0
  6
DURCHGEHEND
 62
     3
100
AcDbLine
 10
168.656937
 20
144.893265
 30
0.0
 11
170.830826
 21
147.339432
 31
0.0
  0
LINE
  5
1F2
100
AcDbEntity
  8
BEMASSUNG
390
0
  6
DURCHGEHEND
 62
     3
100
AcDbLine
 10
218.736923
 20
145.188751
 30
0.0
 11
220.910812
 21
147.634888
 31
0.0
  0
LINE
  5
1F3
100
AcDbEntity
  8
BEMASSUNG
390
0
  6
DURCHGEHEND
 62
     3
100
AcDbLine
 10
96.392105
 20
107.987595
 30
0.0
 11
116.017181
 21
107.987595
 31
0.0
  0
TEXT
  5
1F4
100
AcDbEntity
  8
BEMASSUNG
390
0
100
AcDbText
 10
113.558426
 20
112.060532
 30
0.0
 40
7.055555
  1
67
 50
90.0
100
AcDbText
  0
TEXT
  5
1F5
100
AcDbEntity
  8
BEMASSUNG
390
0
100
AcDbText
 10
89.634094
 20
147.385544
 30
0.0
 40
7.055555
  1
60
100
AcDbText
  0
TEXT
  5
1F6
100
AcDbEntity
  8
BEMASSUNG
390
0
100
AcDbText
 10
146.372803
 20
128.42598
 30
0.0
 40
7.055555
  1
G 1/2
 50
90.0
100
AcDbText
  0
TEXT
  5
1F7
100
AcDbEntity
  8
BEMASSUNG
390
0
100
AcDbText
 10
187.908371
 20
148.073807
 30
0.0
 40
7.055555
  1
200
100
AcDbText
  0
POLYLINE
  5
1F8
100
AcDbEntity
  8
BEMASSUNG
390
0
  6
DURCHGEHEND
 62
     9
100
AcDb2dPolyline
 66
     1
 10
0.0
 20
0.0
 30
0.0
  0
VERTEX
  5
1F9
100
AcDbEntity
  8
0
390
0
100
AcDbVertex
100
AcDb2dVertex
 10
85.214386
 20
148.522858
 30
0.0
  0
VERTEX
  5
1FA
100
AcDbEntity
  8
0
390
0
100
AcDbVertex
100
AcDb2dVertex
 10
88.714386
 20
148.522858
 30
0.0
  0
VERTEX
  5
1FB
100
AcDbEntity
  8
0
390
0
100
AcDbVertex
100
AcDb2dVertex
 10
88.714386
 20
152.022873
 30
0.0
  0
VERTEX
  5
1FC
100
AcDbEntity
  8
0
390
0
100
AcDbVertex
100
AcDb2dVertex
 10
85.214386
 20
152.022873
 30
0.0
  0
VERTEX
  5
1FD
100
AcDbEntity
  8
0
390
0
100
AcDbVertex
100
AcDb2dVertex
 10
85.214386
 20
148.522858
 30
0.0
  0
SEQEND
  5
1FE
100
AcDbEntity
  8
0
390
0
  0
LINE
  5
1FF
100
AcDbEntity
  8
BEMASSUNG
390
0
  6
DURCHGEHEND
 62
     3
100
AcDbLine
 10
146.372803
 20
128.308975
 30
0.0
 11
148.818939
 21
126.135086
 31
0.0
  0
LINE
  5
200
100
AcDbEntity
  8
BEMASSUNG
390
0
  6
DURCHGEHEND
 62
     3
100
AcDbLine
 10
146.318054
 20
123.145027
 30
0.0
 11
148.764221
 21
120.971138
 31
0.0
  0
LINE
  5
201
100
AcDbEntity
  8
BEMASSUNG
390
0
  6
DURCHGEHEND
 62
     3
100
AcDbLine
 10
147.58075
 20
120.905769
 30
0.0
 11
147.58075
 21
149.873306
 31
0.0
  0
TEXT
  5
202
100
AcDbEntity
  8
BEMASSUNG
390
0
100
AcDbText
 10
146.372803
 20
128.42598
 30
0.0
 40
7.055555
  1
G 1/2
 50
90.0
100
AcDbText
  0
LINE
  5
203
100
AcDbEntity
  8
WAND
390
0
  6
DURCHGEHEND
 62
     6
100
AcDbLine
 10
169.873077
 20
135.761444
 30
0.0
 11
169.873077
 21
111.970001
 31
0.0
  0
LINE
  5
204
100
AcDbEntity
  8
ANSICHT
390
0
  6
DURCHGEHEND
 62
     1
100
AcDbLine
 10
93.964439
 20
65.904648
 30
0.0
 11
93.714439
 21
66.154648
 31
0.0
  0
LINE
  5
205
100
AcDbEntity
  8
ANSICHT
390
0
  6
DURCHGEHEND
 62
     1
100
AcDbLine
 10
89.014427
 20
66.154648
 30
0.0
 11
88.764427
 21
65.904648
 31
0.0
  0
LINE
  5
206
100
AcDbEntity
  8
ANSICHT
390
0
  6
DURCHGEHEND
 62
     1
100
AcDbLine
 10
93.964439
 20
64.404648
 30
0.0
 11
93.964439
 21
65.904648
 31
0.0
  0
LINE
  5
207
100
AcDbEntity
  8
ANSICHT
390
0
  6
DURCHGEHEND
 62
     1
100
AcDbLine
 10
88.764427
 20
65.904648
 30
0.0
 11
88.764427
 21
64.404648
 31
0.0
  0
LINE
  5
208
100
AcDbEntity
  8
ANSICHT
390
0
  6
DURCHGEHEND
 62
     1
100
AcDbLine
 10
93.964439
 20
62.404648
 30
0.0
 11
93.964439
 21
63.904648
 31
0.0
  0
LINE
  5
209
100
AcDbEntity
  8
ANSICHT
390
0
  6
DURCHGEHEND
 62
     1
100
AcDbLine
 10
88.764427
 20
63.904648
 30
0.0
 11
88.764427
 21
62.404648
 31
0.0
  0
LINE
  5
20A
100
AcDbEntity
  8
ANSICHT
390
0
  6
DURCHGEHEND
 62
     1
100
AcDbLine
 10
93.964439
 20
60.404648
 30
0.0
 11
93.964439
 21
61.904648
 31
0.0
  0
LINE
  5
20B
100
AcDbEntity
  8
ANSICHT
390
0
  6
DURCHGEHEND
 62
     1
100
AcDbLine
 10
88.764427
 20
61.904648
 30
0.0
 11
88.764427
 21
60.404648
 31
0.0
  0
LINE
  5
20C
100
AcDbEntity
  8
ANSICHT
390
0
  6
DURCHGEHEND
 62
     1
100
AcDbLine
 10
93.964439
 20
57.654663
 30
0.0
 11
93.964439
 21
59.904648
 31
0.0
  0
LINE
  5
20D
100
AcDbEntity
  8
ANSICHT
390
0
  6
DURCHGEHEND
 62
     1
100
AcDbLine
 10
88.764427
 20
59.904648
 30
0.0
 11
88.764427
 21
57.654663
 31
0.0
  0
ARC
  5
20E
100
AcDbEntity
  8
ANSICHT
390
0
  6
DURCHGEHEND
 62
     1
100
AcDbCircle
 10
88.989433
 20
64.279648
 30
0.0
 40
0.125
100
AcDbArc
 50
0.0
 51
90.0
  0
ARC
  5
20F
100
AcDbEntity
  8
ANSICHT
390
0
  6
DURCHGEHEND
 62
     1
100
AcDbCircle
 10
93.739433
 20
64.279648
 30
0.0
 40
0.125
100
AcDbArc
 50
90.0
 51
180.0
  0
ARC
  5
210
100
AcDbEntity
  8
ANSICHT
390
0
  6
DURCHGEHEND
 62
     1
100
AcDbCircle
 10
93.739433
 20
64.029648
 30
0.0
 40
0.125
100
AcDbArc
 50
180.0
 51
270.0
  0
ARC
  5
211
100
AcDbEntity
  8
ANSICHT
390
0
  6
DURCHGEHEND
 62
     1
100
AcDbCircle
 10
88.989433
 20
64.029648
 30
0.0
 40
0.125
100
AcDbArc
 50
270.0
 51
360.0
  0
ARC
  5
212
100
AcDbEntity
  8
ANSICHT
390
0
  6
DURCHGEHEND
 62
     1
100
AcDbCircle
 10
88.989433
 20
62.279648
 30
0.0
 40
0.125
100
AcDbArc
 50
0.0
 51
90.0
  0
ARC
  5
213
100
AcDbEntity
  8
ANSICHT
390
0
  6
DURCHGEHEND
 62
     1
100
AcDbCircle
 10
93.739433
 20
62.279648
 30
0.0
 40
0.125
100
AcDbArc
 50
90.0
 51
180.0
  0
ARC
  5
214
100
AcDbEntity
  8
ANSICHT
390
0
  6
DURCHGEHEND
 62
     1
100
AcDbCircle
 10
93.739433
 20
62.029648
 30
0.0
 40
0.125
100
AcDbArc
 50
180.0
 51
270.0
  0
ARC
  5
215
100
AcDbEntity
  8
ANSICHT
390
0
  6
DURCHGEHEND
 62
     1
100
AcDbCircle
 10
88.989433
 20
62.029648
 30
0.0
 40
0.125
100
AcDbArc
 50
270.0
 51
360.0
  0
ARC
  5
216
100
AcDbEntity
  8
ANSICHT
390
0
  6
DURCHGEHEND
 62
     1
100
AcDbCircle
 10
88.989433
 20
60.279648
 30
0.0
 40
0.125
100
AcDbArc
 50
0.0
 51
90.0
  0
ARC
  5
217
100
AcDbEntity
  8
ANSICHT
390
0
  6
DURCHGEHEND
 62
     1
100
AcDbCircle
 10
93.739433
 20
60.279648
 30
0.0
 40
0.125
100
AcDbArc
 50
90.0
 51
180.0
  0
ARC
  5
218
100
AcDbEntity
  8
ANSICHT
390
0
  6
DURCHGEHEND
 62
     1
100
AcDbCircle
 10
93.739433
 20
60.029648
 30
0.0
 40
0.125
100
AcDbArc
 50
180.0
 51
270.0
  0
ARC
  5
219
100
AcDbEntity
  8
ANSICHT
390
0
  6
DURCHGEHEND
 62
     1
100
AcDbCircle
 10
88.989433
 20
60.029648
 30
0.0
 40
0.125
100
AcDbArc
 50
270.0
 51
360.0
  0
LINE
  5
21A
100
AcDbEntity
  8
ANSICHT
390
0
  6
DURCHGEHEND
 62
     1
100
AcDbLine
 10
93.614433
 20
64.029648
 30
0.0
 11
93.614433
 21
64.279648
 31
0.0
  0
LINE
  5
21B
100
AcDbEntity
  8
ANSICHT
390
0
  6
DURCHGEHEND
 62
     1
100
AcDbLine
 10
89.114433
 20
64.279648
 30
0.0
 11
89.114433
 21
64.029648
 31
0.0
  0
LINE
  5
21C
100
AcDbEntity
  8
ANSICHT
390
0
  6
DURCHGEHEND
 62
     1
100
AcDbLine
 10
93.614433
 20
62.029648
 30
0.0
 11
93.614433
 21
62.279648
 31
0.0
  0
LINE
  5
21D
100
AcDbEntity
  8
ANSICHT
390
0
  6
DURCHGEHEND
 62
     1
100
AcDbLine
 10
89.114433
 20
62.279648
 30
0.0
 11
89.114433
 21
62.029648
 31
0.0
  0
LINE
  5
21E
100
AcDbEntity
  8
ANSICHT
390
0
  6
DURCHGEHEND
 62
     1
100
AcDbLine
 10
93.614433
 20
60.029648
 30
0.0
 11
93.614433
 21
60.279648
 31
0.0
  0
LINE
  5
21F
100
AcDbEntity
  8
ANSICHT
390
0
  6
DURCHGEHEND
 62
     1
100
AcDbLine
 10
89.114433
 20
60.279648
 30
0.0
 11
89.114433
 21
60.029648
 31
0.0
  0
LINE
  5
220
100
AcDbEntity
  8
ANSICHT
390
0
  6
DURCHGEHEND
 62
     1
100
AcDbLine
 10
98.864441
 20
57.654663
 30
0.0
 11
98.864441
 21
55.60466
 31
0.0
  0
LINE
  5
221
100
AcDbEntity
  8
ANSICHT
390
0
  6
DURCHGEHEND
 62
     1
100
AcDbLine
 10
98.664429
 20
57.654663
 30
0.0
 11
98.864441
 21
57.654663
 31
0.0
  0
LINE
  5
222
100
AcDbEntity
  8
ANSICHT
390
0
  6
DURCHGEHEND
 62
     1
100
AcDbLine
 10
98.664429
 20
57.654663
 30
0.0
 11
84.064445
 21
57.654663
 31
0.0
  0
LINE
  5
223
100
AcDbEntity
  8
ANSICHT
390
0
  6
DURCHGEHEND
 62
     1
100
AcDbLine
 10
98.664429
 20
55.404659
 30
0.0
 11
84.064445
 21
55.404659
 31
0.0
  0
ARC
  5
224
100
AcDbEntity
  8
ANSICHT
390
0
  6
DURCHGEHEND
 62
     1
100
AcDbCircle
 10
98.664429
 20
55.60466
 30
0.0
 40
0.200012
100
AcDbArc
 50
270.0
 51
360.0
  0
LINE
  5
225
100
AcDbEntity
  8
ANSICHT
390
0
  6
DURCHGEHEND
 62
     1
100
AcDbLine
 10
83.864433
 20
55.60466
 30
0.0
 11
83.864433
 21
57.654663
 31
0.0
  0
LINE
  5
226
100
AcDbEntity
  8
ANSICHT
390
0
  6
DURCHGEHEND
 62
     1
100
AcDbLine
 10
83.864433
 20
57.654663
 30
0.0
 11
84.064445
 21
57.654663
 31
0.0
  0
ARC
  5
227
100
AcDbEntity
  8
ANSICHT
390
0
  6
DURCHGEHEND
 62
     1
100
AcDbCircle
 10
84.064445
 20
55.60466
 30
0.0
 40
0.199982
100
AcDbArc
 50
180.0
 51
270.0
  0
LINE
  5
228
100
AcDbEntity
  8
ANSICHT
390
0
  6
DURCHGEHEND
 62
     1
100
AcDbLine
 10
93.964439
 20
65.904648
 30
0.0
 11
88.764427
 21
65.904648
 31
0.0
  0
LINE
  5
229
100
AcDbEntity
  8
ANSICHT
390
0
  6
DURCHGEHEND
 62
     1
100
AcDbLine
 10
89.014427
 20
66.154648
 30
0.0
 11
93.714439
 21
66.154648
 31
0.0
  0
LINE
  5
22A
100
AcDbEntity
  8
ANSICHT
390
0
  6
DURCHGEHEND
 62
     1
100
AcDbLine
 10
93.964439
 20
64.404648
 30
0.0
 11
88.764427
 21
64.404648
 31
0.0
  0
LINE
  5
22B
100
AcDbEntity
  8
ANSICHT
390
0
  6
DURCHGEHEND
 62
     1
100
AcDbLine
 10
93.964439
 20
63.904648
 30
0.0
 11
88.764427
 21
63.904648
 31
0.0
  0
LINE
  5
22C
100
AcDbEntity
  8
ANSICHT
390
0
  6
DURCHGEHEND
 62
     1
100
AcDbLine
 10
93.964439
 20
62.404648
 30
0.0
 11
88.764427
 21
62.404648
 31
0.0
  0
LINE
  5
22D
100
AcDbEntity
  8
ANSICHT
390
0
  6
DURCHGEHEND
 62
     1
100
AcDbLine
 10
93.964439
 20
61.904648
 30
0.0
 11
88.764427
 21
61.904648
 31
0.0
  0
LINE
  5
22E
100
AcDbEntity
  8
ANSICHT
390
0
  6
DURCHGEHEND
 62
     1
100
AcDbLine
 10
93.964439
 20
60.404648
 30
0.0
 11
88.764427
 21
60.404648
 31
0.0
  0
LINE
  5
22F
100
AcDbEntity
  8
ANSICHT
390
0
  6
DURCHGEHEND
 62
     1
100
AcDbLine
 10
93.964439
 20
59.904648
 30
0.0
 11
88.764427
 21
59.904648
 31
0.0
  0
ARC
  5
230
100
AcDbEntity
  8
ANSICHT
390
0
  6
DURCHGEHEND
 62
     1
100
AcDbCircle
 10
91.364433
 20
56.679657
 30
0.0
 40
2.600006
100
AcDbArc
 50
22.024
 51
28.108999
  0
LINE
  5
231
100
AcDbEntity
  8
ANSICHT
390
0
  6
DURCHGEHEND
 62
     1
100
AcDbLine
 10
93.657768
 20
57.904663
 30
0.0
 11
89.071098
 21
57.904663
 31
0.0
  0
ARC
  5
232
100
AcDbEntity
  8
ANSICHT
390
0
  6
DURCHGEHEND
 62
     1
100
AcDbCircle
 10
91.364433
 20
56.679657
 30
0.0
 40
2.600006
100
AcDbArc
 50
151.891006
 51
157.975998
  0
LINE
  5
233
100
AcDbEntity
  8
ANSICHT
390
0
  6
DURCHGEHEND
 62
     1
100
AcDbLine
 10
95.739433
 20
18.779657
 30
0.0
 11
95.739433
 21
55.404663
 31
0.0
  0
LINE
  5
234
100
AcDbEntity
  8
ANSICHT
390
0
  6
DURCHGEHEND
 62
     1
100
AcDbLine
 10
86.989433
 20
18.779657
 30
0.0
 11
86.989433
 21
55.404663
 31
0.0
  0
LINE
  5
235
100
AcDbEntity
  8
ANSICHT
390
0
  6
DURCHGEHEND
 62
     1
100
AcDbLine
 10
95.739433
 20
18.779657
 30
0.0
 11
95.739433
 21
6.279657
 31
0.0
  0
ARC
  5
236
100
AcDbEntity
  8
ANSICHT
390
0
  6
DURCHGEHEND
 62
     1
100
AcDbCircle
 10
91.364433
 20
256.241333
 30
0.0
 40
250.0
100
AcDbArc
 50
268.997009
 51
271.002014
  0
LINE
  5
237
100
AcDbEntity
  8
ANSICHT
390
0
  6
DURCHGEHEND
 62
     1
100
AcDbLine
 10
86.989433
 20
18.779657
 30
0.0
 11
86.989433
 21
6.279657
 31
0.0
  0
ENDSEC
  0
SECTION
  2
OBJECTS
  0
DICTIONARY
  5
19
100
AcDbDictionary
280
     0
281
     1
  3
ACAD_GROUP
350
1A
  3
ACAD_MLINESTYLE
350
1B
  3
ACAD_LAYOUT
350
1E
  3
ACAD_PLOTSETTINGS
350
22
  3
ACAD_PLOTSTYLENAME
350
1F
  3
ACAD_WIPEOUT_VARS
350
23
  0
DICTIONARY
  5
1A
102
{ACAD_REACTORS
330
19
102
}
100
AcDbDictionary
280
     0
281
     1
  0
DICTIONARY
  5
1B
102
{ACAD_REACTORS
330
19
102
}
100
AcDbDictionary
280
     0
281
     1
  3
Standard
350
1C
  0
MLINESTYLE
  5
1C
102
{ACAD_REACTORS
330
1B
102
}
100
AcDbMlineStyle
  2
Standard
 70
     0
  3

 62
     0
 51
90.0
 52
90.0
 71
     2
 49
0.5
 62
   256
  6
ByLayer
 49
-0.5
 62
   256
  6
ByLayer
  0
ACDBDICTIONARYWDFLT
  5
1F
102
{ACAD_REACTORS
330
19
102
}
100
AcDbDictionary
281
     1
  3
Normal
350
1D
100
AcDbDictionaryWithDefault
340
1D
  0
ACDBPLACEHOLDER
  5
1D
102
{ACAD_REACTORS
330
1F
102
}
  0
LAYOUT
  5
20
102
{ACAD_REACTORS
330
1E
102
}
100
AcDbPlotSettings
  1

  2

  4

  6

 40
0.0
 41
0.0
 42
0.0
 43
0.0
 44
0.0
 45
0.0
 46
0.0
 47
0.0
 48
0.0
 49
0.0
140
0.0
141
0.0
142
1.0
143
1.0
 70
  1024
 72
     0
 73
     0
 74
     0
  7

 75
     0
147
1.0
148
0.0
149
0.0
100
AcDbLayout
  1
Model
 70
     0
 71
     0
 10
0.0
 20
0.0
 11
0.0
 21
0.0
 12
0.0
 22
0.0
 32
0.0
 14
0.0
 24
0.0
 34
0.0
 15
0.0
 25
0.0
 35
0.0
146
0.0
 13
0.0
 23
0.0
 33
0.0
 16
0.0
 26
0.0
 36
0.0
 17
0.0
 27
0.0
 37
0.0
 76
     0
330
A
331
0
345
0
346
0
  0
LAYOUT
  5
21
102
{ACAD_REACTORS
330
1E
102
}
100
AcDbPlotSettings
  1

  2

  4

  6

 40
0.0
 41
0.0
 42
0.0
 43
0.0
 44
0.0
 45
0.0
 46
0.0
 47
0.0
 48
0.0
 49
0.0
140
0.0
141
0.0
142
1.0
143
1.0
 70
     0
 72
     0
 73
     0
 74
     0
  7

 75
     0
147
1.0
148
0.0
149
0.0
100
AcDbLayout
  1
Layout1
 70
     0
 71
     0
 10
0.0
 20
0.0
 11
0.0
 21
0.0
 12
0.0
 22
0.0
 32
0.0
 14
0.0
 24
0.0
 34
0.0
 15
0.0
 25
0.0
 35
0.0
146
0.0
 13
0.0
 23
0.0
 33
0.0
 16
0.0
 26
0.0
 36
0.0
 17
0.0
 27
0.0
 37
0.0
 76
     0
330
B
331
0
345
0
346
0
  0
DICTIONARY
  5
1E
102
{ACAD_REACTORS
330
19
102
}
100
AcDbDictionary
280
     0
281
     1
  3
Layout1
350
21
  3
Model
350
20
  0
DICTIONARY
  5
22
102
{ACAD_REACTORS
330
19
102
}
100
AcDbDictionary
280
     0
281
     1
  0
WIPEOUTVARIABLES
  5
23
100
AcDbWipeoutVariables
 70
     1
  0
ENDSEC
  0
EOF
