  0
SECTION
  2
HEADER
  9
$ACADVER
  1
AC1015
  9
$ACADMAINTVER
 70
     6
  9
$DWGCODEPAGE
  3
ANSI_1252
  9
$INSBASE
 10
0.0
 20
0.0
 30
0.0
  9
$EXTMIN
 10
3.752022
 20
3.541969
 30
0.0
  9
$EXTMAX
 10
290.369812
 20
194.977875
 30
0.0
  9
$LIMMIN
 10
0.0
 20
0.0
  9
$LIMMAX
 10
0.0
 20
0.0
  9
$ORTHOMODE
 70
     0
  9
$REGENMODE
 70
     1
  9
$FILLMODE
 70
     1
  9
$QTEXTMODE
 70
     0
  9
$MIRRTEXT
 70
     1
  9
$LTSCALE
 40
1.0
  9
$ATTMODE
 70
     1
  9
$TEXTSIZE
 40
0.2
  9
$TRACEWID
 40
0.05
  9
$TEXTSTYLE
  7
Standard
  9
$CLAYER
  8
0
  9
$CELTYPE
  6
Continuous
  9
$CECOLOR
 62
   256
  9
$CELTSCALE
 40
1.0
  9
$DISPSILH
 70
     0
  9
$DIMSCALE
 40
1.0
  9
$DIMASZ
 40
0.18
  9
$DIMEXO
 40
0.0625
  9
$DIMDLI
 40
0.38
  9
$DIMRND
 40
0.0
  9
$DIMDLE
 40
0.0
  9
$DIMEXE
 40
0.18
  9
$DIMTP
 40
0.0
  9
$DIMTM
 40
0.0
  9
$DIMTXT
 40
0.18
  9
$DIMCEN
 40
0.09
  9
$DIMTSZ
 40
0.0
  9
$DIMTOL
 70
     0
  9
$DIMLIM
 70
     0
  9
$DIMTIH
 70
     1
  9
$DIMTOH
 70
     1
  9
$DIMSE1
 70
     0
  9
$DIMSE2
 70
     0
  9
$DIMTAD
 70
     0
  9
$DIMZIN
 70
     0
  9
$DIMBLK
  1

  9
$DIMASO
 70
     1
  9
$DIMSHO
 70
     1
  9
$DIMPOST
  1

  9
$DIMAPOST
  1

  9
$DIMALT
 70
     0
  9
$DIMALTD
 70
     2
  9
$DIMALTF
 40
25.4
  9
$DIMLFAC
 40
1.0
  9
$DIMTOFL
 70
     0
  9
$DIMTVP
 40
0.0
  9
$DIMTIX
 70
     0
  9
$DIMSOXD
 70
     0
  9
$DIMSAH
 70
     0
  9
$DIMBLK1
  1

  9
$DIMBLK2
  1

  9
$DIMSTYLE
  2
Standard
  9
$DIMCLRD
 70
     0
  9
$DIMCLRE
 70
     0
  9
$DIMCLRT
 70
     0
  9
$DIMTFAC
 40
1.0
  9
$DIMGAP
 40
0.09
  9
$DIMJUST
 70
     0
  9
$DIMSD1
 70
     0
  9
$DIMSD2
 70
     0
  9
$DIMTOLJ
 70
     1
  9
$DIMTZIN
 70
     0
  9
$DIMALTZ
 70
     0
  9
$DIMALTTZ
 70
     0
  9
$DIMUPT
 70
     0
  9
$DIMDEC
 70
     4
  9
$DIMTDEC
 70
     4
  9
$DIMALTU
 70
     2
  9
$DIMALTTD
 70
     2
  9
$DIMTXSTY
  7
Standard
  9
$DIMAUNIT
 70
     0
  9
$DIMADEC
 70
     0
  9
$DIMALTRND
 40
0.0
  9
$DIMAZIN
 70
     0
  9
$DIMDSEP
 70
     0
  9
$DIMATFIT
 70
     3
  9
$DIMFRAC
 70
     0
  9
$DIMLDRBLK
  1

  9
$DIMLUNIT
 70
     2
  9
$DIMLWD
 70
     0
  9
$DIMLWE
 70
     0
  9
$DIMTMOVE
 70
     0
  9
$LUNITS
 70
     2
  9
$LUPREC
 70
     4
  9
$SKETCHINC
 40
0.1
  9
$FILLETRAD
 40
0.0
  9
$AUNITS
 70
     0
  9
$AUPREC
 70
     0
  9
$MENU
  1
acad
  9
$ELEVATION
 40
0.0
  9
$PELEVATION
 40
0.0
  9
$THICKNESS
 40
0.0
  9
$LIMCHECK
 70
     0
  9
$CHAMFERA
 40
0.0
  9
$CHAMFERB
 40
0.0
  9
$CHAMFERC
 40
0.0
  9
$CHAMFERD
 40
0.0
  9
$SKPOLY
 70
     0
  9
$TDCREATE
 40
0.000000000
  9
$TDUCREATE
 40
0.000000000
  9
$TDUPDATE
 40
0.000000000
  9
$TDUUPDATE
 40
0.000000000
  9
$TDINDWG
 40
0.0000000000
  9
$TDUSRTIMER
 40
0.0000000000
  9
$USRTIMER
 70
     1
  9
$ANGBASE
 50
0.0
  9
$ANGDIR
 70
     0
  9
$PDMODE
 70
     0
  9
$PDSIZE
 40
0.0
  9
$PLINEWID
 40
0.0
  9
$SPLFRAME
 70
     0
  9
$SPLINETYPE
 70
     6
  9
$SPLINESEGS
 70
     8
  9
$HANDSEED
  5
539
  9
$SURFTAB1
 70
     6
  9
$SURFTAB2
 70
     6
  9
$SURFTYPE
 70
     6
  9
$SURFU
 70
     6
  9
$SURFV
 70
     6
  9
$UCSBASE
  2

  9
$UCSNAME
  2

  9
$UCSORG
 10
0.0
 20
0.0
 30
0.0
  9
$UCSXDIR
 10
1.0
 20
0.0
 30
0.0
  9
$UCSYDIR
 10
0.0
 20
1.0
 30
0.0
  9
$UCSORTHOREF
  2

  9
$UCSORTHOVIEW
 70
     0
  9
$UCSORGTOP
 10
0.0
 20
0.0
 30
0.0
  9
$UCSORGBOTTOM
 10
0.0
 20
0.0
 30
0.0
  9
$UCSORGLEFT
 10
0.0
 20
0.0
 30
0.0
  9
$UCSORGRIGHT
 10
0.0
 20
0.0
 30
0.0
  9
$UCSORGFRONT
 10
0.0
 20
0.0
 30
0.0
  9
$UCSORGBACK
 10
0.0
 20
0.0
 30
0.0
  9
$PUCSBASE
  2

  9
$PUCSNAME
  2

  9
$PUCSORG
 10
0.0
 20
0.0
 30
0.0
  9
$PUCSXDIR
 10
1.0
 20
0.0
 30
0.0
  9
$PUCSYDIR
 10
0.0
 20
1.0
 30
0.0
  9
$PUCSORTHOREF
  2

  9
$PUCSORTHOVIEW
 70
     0
  9
$PUCSORGTOP
 10
0.0
 20
0.0
 30
0.0
  9
$PUCSORGBOTTOM
 10
0.0
 20
0.0
 30
0.0
  9
$PUCSORGLEFT
 10
0.0
 20
0.0
 30
0.0
  9
$PUCSORGRIGHT
 10
0.0
 20
0.0
 30
0.0
  9
$PUCSORGFRONT
 10
0.0
 20
0.0
 30
0.0
  9
$PUCSORGBACK
 10
0.0
 20
0.0
 30
0.0
  9
$USERI1
 70
     0
  9
$USERI2
 70
     0
  9
$USERI3
 70
     0
  9
$USERI4
 70
     0
  9
$USERI5
 70
     0
  9
$USERR1
 40
0.0
  9
$USERR2
 40
0.0
  9
$USERR3
 40
0.0
  9
$USERR4
 40
0.0
  9
$USERR5
 40
0.0
  9
$WORLDVIEW
 70
     1
  9
$SHADEDGE
 70
     3
  9
$SHADEDIF
 70
    70
  9
$TILEMODE
 70
     1
  9
$MAXACTVP
 70
    16
  9
$PINSBASE
 10
0.0
 20
0.0
 30
0.0
  9
$PLIMCHECK
 70
     0
  9
$PEXTMIN
 10
1.000000E+20
 20
1.000000E+20
 30
1.000000E+20
  9
$PEXTMAX
 10
-1.000000E+20
 20
-1.000000E+20
 30
-1.000000E+20
  9
$PLIMMIN
 10
0.0
 20
0.0
  9
$PLIMMAX
 10
12.0
 20
9.0
  9
$UNITMODE
 70
     0
  9
$VISRETAIN
 70
     0
  9
$PLINEGEN
 70
     1
  9
$PSLTSCALE
 70
     0
  9
$TREEDEPTH
 70
  3020
  9
$CMLSTYLE
  2
Standard
  9
$CMLJUST
 70
     0
  9
$CMLSCALE
 40
1.0
  9
$PROXYGRAPHICS
 70
     0
  9
$MEASUREMENT
 70
     0
  9
$CELWEIGHT
370
     0
  9
$ENDCAPS
280
     0
  9
$JOINSTYLE
280
     0
  9
$LWDISPLAY
290
     0
  9
$INSUNITS
 70
     0
  9
$HYPERLINKBASE
  1

  9
$STYLESHEET
  1

  9
$XEDIT
290
     1
  9
$CEPSNTYPE
380
     0
  9
$PSTYLEMODE
290
     1
  9
$FINGERPRINTGUID
  2

  9
$VERSIONGUID
  2

  9
$EXTNAMES
290
     1
  9
$PSVPSCALE
 40
0.0
  0
ENDSEC
  0
SECTION
  2
CLASSES
  0
CLASS
  1
LWPOLYLINE
  2
AcDbPolyline
  3
AutoCAD 2000
 90
        0
280
     0
281
     1
  0
CLASS
  1
IMAGE
  2
AcDbRasterImage
  3
ISM
 90
      127
280
     0
281
     1
  0
CLASS
  1
OLE2FRAME
  2
AcDbOle2Frame
  3
AutoCAD 2000
 90
        0
280
     0
281
     1
  0
CLASS
  1
HATCH
  2
AcDbHatch
  3
AutoCAD 2000
 90
        0
280
     0
281
     1
  0
CLASS
  1
DICTIONARYVAR
  2
AcDbDictionaryVar
  3
AutoCAD 2000
 90
        0
280
     0
281
     0
  0
CLASS
  1
RASTERVARIABLES
  2
AcDbRasterVariables
  3
ISM
 90
        0
280
     0
281
     0
  0
CLASS
  1
IMAGEDEF
  2
AcDbRasterImageDef
  3
ISM
 90
        0
280
     0
281
     0
  0
CLASS
  1
IMAGEDEF_REACTOR
  2
AcDbRasterImageDefReactor
  3
ISM
 90
        1
280
     0
281
     0
  0
CLASS
  1
IDBUFFER
  2
AcDbIdBuffer
  3
AutoCAD 2000
 90
        0
280
     0
281
     0
  0
CLASS
  1
SPATIAL_FILTER
  2
AcDbSpatialFilter
  3
AutoCAD 2000
 90
        0
280
     0
281
     0
  0
CLASS
  1
XRECORD
  2
AcDbXrecord
  3
AutoCAD 2000
 90
        0
280
     0
281
     0
  0
CLASS
  1
SORTENTSTABLE
  2
AcDbSortentsTable
  3
AutoCAD 2000
 90
        0
280
     0
281
     0
  0
CLASS
  1
LAYER_INDEX
  2
AcDbLayerIndex
  3
AutoCAD 2000
 90
        0
280
     0
281
     0
  0
CLASS
  1
SPATIAL_INDEX
  2
AcDbSpatialIndex
  3
AutoCAD 2000
 90
        0
280
     0
281
     0
  0
CLASS
  1
OBJECT_PTR
  2
CAseDLPNTableRecord
  3
"ASE-LPNTableRecord"
 90
        1
280
     0
281
     0
  0
CLASS
  1
LAYOUT
  2
AcDbLayout
  3
AutoCAD 2000
 90
        0
280
     0
281
     0
  0
CLASS
  1
PLOTSETTINGS
  2
AcDbPlotSettings
  3
AutoCAD 2000
 90
        0
280
     0
281
     0
  0
CLASS
  1
ACDBDICTIONARYWDFLT
  2
AcDbDictionaryWithDefault
  3
AutoCAD 2000
 90
        0
280
     0
281
     0
  0
CLASS
  1
ACDBPLACEHOLDER
  2
AcDbPlaceHolder
  3
AutoCAD 2000
 90
        0
280
     0
281
     0
  0
CLASS
  1
VBA_PROJECT
  2
AcDbVbaProject
  3
acadvba
 90
        0
280
     0
281
     0
  0
CLASS
  1
WIPEOUT
  2
AcDbWipeout
  3
WipeOut|AutoCAD Express Tool|expresstools@autodesk.com
 90
      127
280
     0
281
     1
  0
CLASS
  1
WIPEOUTVARIABLES
  2
AcDbWipeoutVariables
  3
WipeOut|AutoCAD Express Tool|expresstools@autodesk.com
 90
        0
280
     0
281
     0
  0
CLASS
  1
RTEXT
  2
RText
  3
RText|AutoCAD Express Tool|expresstools@autodesk.com
 90
        0
280
     0
281
     1
  0
CLASS
  1
ARCALIGNEDTEXT
  2
AcDbArcAlignedText
  3
ATEXT|AutoCAD Express Tool|expresstools@autodesk.com
 90
        0
280
     0
281
     1
  0
ENDSEC
  0
SECTION
  2
TABLES
  0
TABLE
  2
VPORT
  5
7
100
AcDbSymbolTable
 70
     1
  0
VPORT
  5
15
100
AcDbSymbolTableRecord
100
AcDbViewportTableRecord
  2
*ACTIVE
 70
     0
 10
0.0
 20
0.0
 11
1.0
 21
1.0
 12
6.591288
 22
4.579184
 13
0.0
 23
0.0
 14
1.0
 24
1.0
 15
0.0
 25
0.0
 16
0.0
 26
0.0
 36
1.0
 17
0.0
 27
0.0
 37
0.0
 40
9.158369
 41
0.688564
 42
50.0
 43
0.0
 44
0.0
 50
0.0
 51
0.0
 71
     0
 72
   100
 73
     1
 74
     1
 75
     0
 76
     0
 77
     0
 78
     0
281
     0
 65
     0
110
0.0
120
0.0
130
0.0
111
1.0
121
0.0
131
0.0
112
0.0
122
1.0
132
0.0
345
0
346
0
 79
     0
146
0.0
  0
ENDTAB
  0
TABLE
  2
LTYPE
  5
4
100
AcDbSymbolTable
 70
   201
  0
LTYPE
  5
11
100
AcDbSymbolTableRecord
100
AcDbLinetypeTableRecord
  2
ByBlock
 70
    64
  3

 72
    65
 73
     0
 40
0.0
  0
LTYPE
  5
12
100
AcDbSymbolTableRecord
100
AcDbLinetypeTableRecord
  2
ByLayer
 70
    64
  3

 72
    65
 73
     0
 40
0.0
  0
LTYPE
  5
13
100
AcDbSymbolTableRecord
100
AcDbLinetypeTableRecord
  2
Continuous
 70
    64
  3
Solid line
 72
    65
 73
     0
 40
0.0
  0
LTYPE
  5
25
100
AcDbSymbolTableRecord
100
AcDbLinetypeTableRecord
  2
DURCHGEHEND
 70
    64
  3

 72
    65
 73
     0
 40
0.0
  0
LTYPE
  5
26
100
AcDbSymbolTableRecord
100
AcDbLinetypeTableRecord
  2
GESTRICHELT
 70
    64
  3

 72
    65
 73
     2
 40
10.0
 49
5.0
 74
     0
 49
-5.0
 74
     0
  0
LTYPE
  5
27
100
AcDbSymbolTableRecord
100
AcDbLinetypeTableRecord
  2
MITTELLINIE
 70
    64
  3

 72
    65
 73
     4
 40
20.0
 49
10.0
 74
     0
 49
-2.0
 74
     0
 49
5.0
 74
     0
 49
-3.0
 74
     0
  0
LTYPE
  5
28
100
AcDbSymbolTableRecord
100
AcDbLinetypeTableRecord
  2
PUNKTIERT
 70
    64
  3

 72
    65
 73
     2
 40
0.25
 49
0.0
 74
     0
 49
-0.25
 74
     0
  0
LTYPE
  5
29
100
AcDbSymbolTableRecord
100
AcDbLinetypeTableRecord
  2
STRICHPUNKTIERT
 70
    64
  3

 72
    65
 73
     4
 40
8.0
 49
5.0
 74
     0
 49
-1.0
 74
     0
 49
1.0
 74
     0
 49
-1.0
 74
     0
  0
LTYPE
  5
2A
100
AcDbSymbolTableRecord
100
AcDbLinetypeTableRecord
  2
STRICH-PUNKT-PUNKT
 70
    64
  3

 72
    65
 73
     6
 40
10.0
 49
5.0
 74
     0
 49
-1.0
 74
     0
 49
1.0
 74
     0
 49
-1.0
 74
     0
 49
1.0
 74
     0
 49
-1.0
 74
     0
  0
LTYPE
  5
2B
100
AcDbSymbolTableRecord
100
AcDbLinetypeTableRecord
  2
STARTPFEIL
 70
    64
  3

 72
    65
 73
     0
 40
0.0
  0
LTYPE
  5
2C
100
AcDbSymbolTableRecord
100
AcDbLinetypeTableRecord
  2
ENDPFEIL
 70
    64
  3

 72
    65
 73
     0
 40
0.0
  0
LTYPE
  5
2D
100
AcDbSymbolTableRecord
100
AcDbLinetypeTableRecord
  2
ENDPUNKT
 70
    64
  3

 72
    65
 73
     0
 40
0.0
  0
LTYPE
  5
2E
100
AcDbSymbolTableRecord
100
AcDbLinetypeTableRecord
  2
PFEIL
 70
    64
  3

 72
    65
 73
     0
 40
0.0
  0
LTYPE
  5
2F
100
AcDbSymbolTableRecord
100
AcDbLinetypeTableRecord
  2
STITCHLINE
 70
    64
  3

 72
    65
 73
     2
 40
6.0
 49
3.0
 74
     0
 49
-3.0
 74
     0
  0
LTYPE
  5
30
100
AcDbSymbolTableRecord
100
AcDbLinetypeTableRecord
  2
MITTELLINIE_2
 70
    64
  3

 72
    65
 73
     4
 40
17.0
 49
10.0
 74
     0
 49
-2.0
 74
     0
 49
3.0
 74
     0
 49
-2.0
 74
     0
  0
LTYPE
  5
31
100
AcDbSymbolTableRecord
100
AcDbLinetypeTableRecord
  2
VERDECKTE_LINIE
 70
    64
  3

 72
    65
 73
     2
 40
4.0
 49
2.0
 74
     0
 49
-2.0
 74
     0
  0
LTYPE
  5
32
100
AcDbSymbolTableRecord
100
AcDbLinetypeTableRecord
  2
PHANTOMLINIE
 70
    64
  3

 72
    65
 73
     6
 40
21.0
 49
10.0
 74
     0
 49
-2.0
 74
     0
 49
3.0
 74
     0
 49
-1.0
 74
     0
 49
3.0
 74
     0
 49
-2.0
 74
     0
  0
LTYPE
  5
33
100
AcDbSymbolTableRecord
100
AcDbLinetypeTableRecord
  2
BRUCHLINIE_1
 70
    64
  3

 72
    65
 73
     0
 40
0.0
  0
LTYPE
  5
34
100
AcDbSymbolTableRecord
100
AcDbLinetypeTableRecord
  2
BRUCHLINIE_2
 70
    64
  3

 72
    65
 73
     0
 40
0.0
  0
LTYPE
  5
35
100
AcDbSymbolTableRecord
100
AcDbLinetypeTableRecord
  2
_DURCHGEHEND
 70
    64
  3

 72
    65
 73
     0
 40
0.0
  0
LTYPE
  5
36
100
AcDbSymbolTableRecord
100
AcDbLinetypeTableRecord
  2
_GESTRICHELT
 70
    64
  3

 72
    65
 73
     2
 40
10.0
 49
5.0
 74
     0
 49
-5.0
 74
     0
  0
LTYPE
  5
37
100
AcDbSymbolTableRecord
100
AcDbLinetypeTableRecord
  2
_MITTELLINIE
 70
    64
  3

 72
    65
 73
     4
 40
20.0
 49
10.0
 74
     0
 49
-2.0
 74
     0
 49
5.0
 74
     0
 49
-3.0
 74
     0
  0
LTYPE
  5
38
100
AcDbSymbolTableRecord
100
AcDbLinetypeTableRecord
  2
_PUNKTIERT
 70
    64
  3

 72
    65
 73
     2
 40
0.25
 49
0.0
 74
     0
 49
-0.25
 74
     0
  0
LTYPE
  5
39
100
AcDbSymbolTableRecord
100
AcDbLinetypeTableRecord
  2
_STRICHPUNKTIERT
 70
    64
  3

 72
    65
 73
     4
 40
8.0
 49
5.0
 74
     0
 49
-1.0
 74
     0
 49
1.0
 74
     0
 49
-1.0
 74
     0
  0
LTYPE
  5
3A
100
AcDbSymbolTableRecord
100
AcDbLinetypeTableRecord
  2
_STRICH-PUNKT-PUNKT
 70
    64
  3

 72
    65
 73
     6
 40
10.0
 49
5.0
 74
     0
 49
-1.0
 74
     0
 49
1.0
 74
     0
 49
-1.0
 74
     0
 49
1.0
 74
     0
 49
-1.0
 74
     0
  0
LTYPE
  5
3B
100
AcDbSymbolTableRecord
100
AcDbLinetypeTableRecord
  2
_STARTPFEIL
 70
    64
  3

 72
    65
 73
     0
 40
0.0
  0
LTYPE
  5
3C
100
AcDbSymbolTableRecord
100
AcDbLinetypeTableRecord
  2
_ENDPFEIL
 70
    64
  3

 72
    65
 73
     0
 40
0.0
  0
LTYPE
  5
3D
100
AcDbSymbolTableRecord
100
AcDbLinetypeTableRecord
  2
_ENDPUNKT
 70
    64
  3

 72
    65
 73
     0
 40
0.0
  0
LTYPE
  5
3E
100
AcDbSymbolTableRecord
100
AcDbLinetypeTableRecord
  2
_PFEIL
 70
    64
  3

 72
    65
 73
     0
 40
0.0
  0
LTYPE
  5
3F
100
AcDbSymbolTableRecord
100
AcDbLinetypeTableRecord
  2
_STITCHLINE
 70
    64
  3

 72
    65
 73
     2
 40
6.0
 49
3.0
 74
     0
 49
-3.0
 74
     0
  0
LTYPE
  5
40
100
AcDbSymbolTableRecord
100
AcDbLinetypeTableRecord
  2
_MITTELLINIE_2
 70
    64
  3

 72
    65
 73
     4
 40
17.0
 49
10.0
 74
     0
 49
-2.0
 74
     0
 49
3.0
 74
     0
 49
-2.0
 74
     0
  0
LTYPE
  5
41
100
AcDbSymbolTableRecord
100
AcDbLinetypeTableRecord
  2
_VERDECKTE_LINIE
 70
    64
  3

 72
    65
 73
     2
 40
4.0
 49
2.0
 74
     0
 49
-2.0
 74
     0
  0
LTYPE
  5
42
100
AcDbSymbolTableRecord
100
AcDbLinetypeTableRecord
  2
_PHANTOMLINIE
 70
    64
  3

 72
    65
 73
     6
 40
21.0
 49
10.0
 74
     0
 49
-2.0
 74
     0
 49
3.0
 74
     0
 49
-1.0
 74
     0
 49
3.0
 74
     0
 49
-2.0
 74
     0
  0
LTYPE
  5
43
100
AcDbSymbolTableRecord
100
AcDbLinetypeTableRecord
  2
_BRUCHLINIE_1
 70
    64
  3

 72
    65
 73
     0
 40
0.0
  0
LTYPE
  5
44
100
AcDbSymbolTableRecord
100
AcDbLinetypeTableRecord
  2
_BRUCHLINIE_2
 70
    64
  3

 72
    65
 73
     0
 40
0.0
  0
LTYPE
  5
45
100
AcDbSymbolTableRecord
100
AcDbLinetypeTableRecord
  2
CONTINUOUS
 70
    64
  3

 72
    65
 73
     0
 40
0.0
  0
LTYPE
  5
46
100
AcDbSymbolTableRecord
100
AcDbLinetypeTableRecord
  2
_DURCHGEHEND
 70
    64
  3

 72
    65
 73
     0
 40
0.0
  0
LTYPE
  5
47
100
AcDbSymbolTableRecord
100
AcDbLinetypeTableRecord
  2
_GESTRICHELT
 70
    64
  3

 72
    65
 73
     2
 40
10.0
 49
5.0
 74
     0
 49
-5.0
 74
     0
  0
LTYPE
  5
48
100
AcDbSymbolTableRecord
100
AcDbLinetypeTableRecord
  2
_MITTELLINIE
 70
    64
  3

 72
    65
 73
     4
 40
20.0
 49
10.0
 74
     0
 49
-2.0
 74
     0
 49
5.0
 74
     0
 49
-3.0
 74
     0
  0
LTYPE
  5
49
100
AcDbSymbolTableRecord
100
AcDbLinetypeTableRecord
  2
_PUNKTIERT
 70
    64
  3

 72
    65
 73
     2
 40
0.25
 49
0.0
 74
     0
 49
-0.25
 74
     0
  0
LTYPE
  5
4A
100
AcDbSymbolTableRecord
100
AcDbLinetypeTableRecord
  2
_STRICHPUNKTIERT
 70
    64
  3

 72
    65
 73
     4
 40
8.0
 49
5.0
 74
     0
 49
-1.0
 74
     0
 49
1.0
 74
     0
 49
-1.0
 74
     0
  0
LTYPE
  5
4B
100
AcDbSymbolTableRecord
100
AcDbLinetypeTableRecord
  2
_STRICH-PUNKT-PUNKT
 70
    64
  3

 72
    65
 73
     6
 40
10.0
 49
5.0
 74
     0
 49
-1.0
 74
     0
 49
1.0
 74
     0
 49
-1.0
 74
     0
 49
1.0
 74
     0
 49
-1.0
 74
     0
  0
LTYPE
  5
4C
100
AcDbSymbolTableRecord
100
AcDbLinetypeTableRecord
  2
_STARTPFEIL
 70
    64
  3

 72
    65
 73
     0
 40
0.0
  0
LTYPE
  5
4D
100
AcDbSymbolTableRecord
100
AcDbLinetypeTableRecord
  2
_ENDPFEIL
 70
    64
  3

 72
    65
 73
     0
 40
0.0
  0
LTYPE
  5
4E
100
AcDbSymbolTableRecord
100
AcDbLinetypeTableRecord
  2
_ENDPUNKT
 70
    64
  3

 72
    65
 73
     0
 40
0.0
  0
LTYPE
  5
4F
100
AcDbSymbolTableRecord
100
AcDbLinetypeTableRecord
  2
_PFEIL
 70
    64
  3

 72
    65
 73
     0
 40
0.0
  0
LTYPE
  5
50
100
AcDbSymbolTableRecord
100
AcDbLinetypeTableRecord
  2
_STITCHLINE
 70
    64
  3

 72
    65
 73
     2
 40
6.0
 49
3.0
 74
     0
 49
-3.0
 74
     0
  0
LTYPE
  5
51
100
AcDbSymbolTableRecord
100
AcDbLinetypeTableRecord
  2
_MITTELLINIE_2
 70
    64
  3

 72
    65
 73
     4
 40
17.0
 49
10.0
 74
     0
 49
-2.0
 74
     0
 49
3.0
 74
     0
 49
-2.0
 74
     0
  0
LTYPE
  5
52
100
AcDbSymbolTableRecord
100
AcDbLinetypeTableRecord
  2
_VERDECKTE_LINIE
 70
    64
  3

 72
    65
 73
     2
 40
4.0
 49
2.0
 74
     0
 49
-2.0
 74
     0
  0
LTYPE
  5
53
100
AcDbSymbolTableRecord
100
AcDbLinetypeTableRecord
  2
_PHANTOMLINIE
 70
    64
  3

 72
    65
 73
     6
 40
21.0
 49
10.0
 74
     0
 49
-2.0
 74
     0
 49
3.0
 74
     0
 49
-1.0
 74
     0
 49
3.0
 74
     0
 49
-2.0
 74
     0
  0
LTYPE
  5
54
100
AcDbSymbolTableRecord
100
AcDbLinetypeTableRecord
  2
_BRUCHLINIE_1
 70
    64
  3

 72
    65
 73
     0
 40
0.0
  0
LTYPE
  5
55
100
AcDbSymbolTableRecord
100
AcDbLinetypeTableRecord
  2
_BRUCHLINIE_2
 70
    64
  3

 72
    65
 73
     0
 40
0.0
  0
LTYPE
  5
56
100
AcDbSymbolTableRecord
100
AcDbLinetypeTableRecord
  2
_DURCHGEHEND
 70
    64
  3

 72
    65
 73
     0
 40
0.0
  0
LTYPE
  5
57
100
AcDbSymbolTableRecord
100
AcDbLinetypeTableRecord
  2
_GESTRICHELT
 70
    64
  3

 72
    65
 73
     2
 40
10.0
 49
5.0
 74
     0
 49
-5.0
 74
     0
  0
LTYPE
  5
58
100
AcDbSymbolTableRecord
100
AcDbLinetypeTableRecord
  2
_MITTELLINIE
 70
    64
  3

 72
    65
 73
     4
 40
20.0
 49
10.0
 74
     0
 49
-2.0
 74
     0
 49
5.0
 74
     0
 49
-3.0
 74
     0
  0
LTYPE
  5
59
100
AcDbSymbolTableRecord
100
AcDbLinetypeTableRecord
  2
_PUNKTIERT
 70
    64
  3

 72
    65
 73
     2
 40
0.25
 49
0.0
 74
     0
 49
-0.25
 74
     0
  0
LTYPE
  5
5A
100
AcDbSymbolTableRecord
100
AcDbLinetypeTableRecord
  2
_STRICHPUNKTIERT
 70
    64
  3

 72
    65
 73
     4
 40
8.0
 49
5.0
 74
     0
 49
-1.0
 74
     0
 49
1.0
 74
     0
 49
-1.0
 74
     0
  0
LTYPE
  5
5B
100
AcDbSymbolTableRecord
100
AcDbLinetypeTableRecord
  2
_STRICH-PUNKT-PUNKT
 70
    64
  3

 72
    65
 73
     6
 40
10.0
 49
5.0
 74
     0
 49
-1.0
 74
     0
 49
1.0
 74
     0
 49
-1.0
 74
     0
 49
1.0
 74
     0
 49
-1.0
 74
     0
  0
LTYPE
  5
5C
100
AcDbSymbolTableRecord
100
AcDbLinetypeTableRecord
  2
_STARTPFEIL
 70
    64
  3

 72
    65
 73
     0
 40
0.0
  0
LTYPE
  5
5D
100
AcDbSymbolTableRecord
100
AcDbLinetypeTableRecord
  2
_ENDPFEIL
 70
    64
  3

 72
    65
 73
     0
 40
0.0
  0
LTYPE
  5
5E
100
AcDbSymbolTableRecord
100
AcDbLinetypeTableRecord
  2
_ENDPUNKT
 70
    64
  3

 72
    65
 73
     0
 40
0.0
  0
LTYPE
  5
5F
100
AcDbSymbolTableRecord
100
AcDbLinetypeTableRecord
  2
_PFEIL
 70
    64
  3

 72
    65
 73
     0
 40
0.0
  0
LTYPE
  5
60
100
AcDbSymbolTableRecord
100
AcDbLinetypeTableRecord
  2
_STITCHLINE
 70
    64
  3

 72
    65
 73
     2
 40
6.0
 49
3.0
 74
     0
 49
-3.0
 74
     0
  0
LTYPE
  5
61
100
AcDbSymbolTableRecord
100
AcDbLinetypeTableRecord
  2
_MITTELLINIE_2
 70
    64
  3

 72
    65
 73
     4
 40
17.0
 49
10.0
 74
     0
 49
-2.0
 74
     0
 49
3.0
 74
     0
 49
-2.0
 74
     0
  0
LTYPE
  5
62
100
AcDbSymbolTableRecord
100
AcDbLinetypeTableRecord
  2
_VERDECKTE_LINIE
 70
    64
  3

 72
    65
 73
     2
 40
4.0
 49
2.0
 74
     0
 49
-2.0
 74
     0
  0
LTYPE
  5
63
100
AcDbSymbolTableRecord
100
AcDbLinetypeTableRecord
  2
_PHANTOMLINIE
 70
    64
  3

 72
    65
 73
     6
 40
21.0
 49
10.0
 74
     0
 49
-2.0
 74
     0
 49
3.0
 74
     0
 49
-1.0
 74
     0
 49
3.0
 74
     0
 49
-2.0
 74
     0
  0
LTYPE
  5
64
100
AcDbSymbolTableRecord
100
AcDbLinetypeTableRecord
  2
_BRUCHLINIE_1
 70
    64
  3

 72
    65
 73
     0
 40
0.0
  0
LTYPE
  5
65
100
AcDbSymbolTableRecord
100
AcDbLinetypeTableRecord
  2
_BRUCHLINIE_2
 70
    64
  3

 72
    65
 73
     0
 40
0.0
  0
LTYPE
  5
66
100
AcDbSymbolTableRecord
100
AcDbLinetypeTableRecord
  2
SLDCENTERLINES0
 70
    64
  3

 72
    65
 73
     4
 40
19.05
 49
15.24
 74
     0
 49
-1.27
 74
     0
 49
1.27
 74
     0
 49
-1.27
 74
     0
  0
LTYPE
  5
67
100
AcDbSymbolTableRecord
100
AcDbLinetypeTableRecord
  2
SLDTANVISIBLE0
 70
    64
  3

 72
    65
 73
     6
 40
12.7
 49
6.35
 74
     0
 49
-1.27
 74
     0
 49
1.27
 74
     0
 49
-1.27
 74
     0
 49
1.27
 74
     0
 49
-1.27
 74
     0
  0
LTYPE
  5
68
100
AcDbSymbolTableRecord
100
AcDbLinetypeTableRecord
  2
_DURCHGEHEND
 70
    64
  3

 72
    65
 73
     0
 40
0.0
  0
LTYPE
  5
69
100
AcDbSymbolTableRecord
100
AcDbLinetypeTableRecord
  2
_GESTRICHELT
 70
    64
  3

 72
    65
 73
     2
 40
10.0
 49
5.0
 74
     0
 49
-5.0
 74
     0
  0
LTYPE
  5
6A
100
AcDbSymbolTableRecord
100
AcDbLinetypeTableRecord
  2
_MITTELLINIE
 70
    64
  3

 72
    65
 73
     4
 40
20.0
 49
10.0
 74
     0
 49
-2.0
 74
     0
 49
5.0
 74
     0
 49
-3.0
 74
     0
  0
LTYPE
  5
6B
100
AcDbSymbolTableRecord
100
AcDbLinetypeTableRecord
  2
_PUNKTIERT
 70
    64
  3

 72
    65
 73
     2
 40
0.25
 49
0.0
 74
     0
 49
-0.25
 74
     0
  0
LTYPE
  5
6C
100
AcDbSymbolTableRecord
100
AcDbLinetypeTableRecord
  2
_STRICHPUNKTIERT
 70
    64
  3

 72
    65
 73
     4
 40
8.0
 49
5.0
 74
     0
 49
-1.0
 74
     0
 49
1.0
 74
     0
 49
-1.0
 74
     0
  0
LTYPE
  5
6D
100
AcDbSymbolTableRecord
100
AcDbLinetypeTableRecord
  2
_STRICH-PUNKT-PUNKT
 70
    64
  3

 72
    65
 73
     6
 40
10.0
 49
5.0
 74
     0
 49
-1.0
 74
     0
 49
1.0
 74
     0
 49
-1.0
 74
     0
 49
1.0
 74
     0
 49
-1.0
 74
     0
  0
LTYPE
  5
6E
100
AcDbSymbolTableRecord
100
AcDbLinetypeTableRecord
  2
_STARTPFEIL
 70
    64
  3

 72
    65
 73
     0
 40
0.0
  0
LTYPE
  5
6F
100
AcDbSymbolTableRecord
100
AcDbLinetypeTableRecord
  2
_ENDPFEIL
 70
    64
  3

 72
    65
 73
     0
 40
0.0
  0
LTYPE
  5
70
100
AcDbSymbolTableRecord
100
AcDbLinetypeTableRecord
  2
_ENDPUNKT
 70
    64
  3

 72
    65
 73
     0
 40
0.0
  0
LTYPE
  5
71
100
AcDbSymbolTableRecord
100
AcDbLinetypeTableRecord
  2
_PFEIL
 70
    64
  3

 72
    65
 73
     0
 40
0.0
  0
LTYPE
  5
72
100
AcDbSymbolTableRecord
100
AcDbLinetypeTableRecord
  2
_STITCHLINE
 70
    64
  3

 72
    65
 73
     2
 40
6.0
 49
3.0
 74
     0
 49
-3.0
 74
     0
  0
LTYPE
  5
73
100
AcDbSymbolTableRecord
100
AcDbLinetypeTableRecord
  2
_MITTELLINIE_2
 70
    64
  3

 72
    65
 73
     4
 40
17.0
 49
10.0
 74
     0
 49
-2.0
 74
     0
 49
3.0
 74
     0
 49
-2.0
 74
     0
  0
LTYPE
  5
74
100
AcDbSymbolTableRecord
100
AcDbLinetypeTableRecord
  2
_VERDECKTE_LINIE
 70
    64
  3

 72
    65
 73
     2
 40
4.0
 49
2.0
 74
     0
 49
-2.0
 74
     0
  0
LTYPE
  5
75
100
AcDbSymbolTableRecord
100
AcDbLinetypeTableRecord
  2
_PHANTOMLINIE
 70
    64
  3

 72
    65
 73
     6
 40
21.0
 49
10.0
 74
     0
 49
-2.0
 74
     0
 49
3.0
 74
     0
 49
-1.0
 74
     0
 49
3.0
 74
     0
 49
-2.0
 74
     0
  0
LTYPE
  5
76
100
AcDbSymbolTableRecord
100
AcDbLinetypeTableRecord
  2
_BRUCHLINIE_1
 70
    64
  3

 72
    65
 73
     0
 40
0.0
  0
LTYPE
  5
77
100
AcDbSymbolTableRecord
100
AcDbLinetypeTableRecord
  2
_BRUCHLINIE_2
 70
    64
  3

 72
    65
 73
     0
 40
0.0
  0
LTYPE
  5
78
100
AcDbSymbolTableRecord
100
AcDbLinetypeTableRecord
  2
_DURCHGEHEND
 70
    64
  3

 72
    65
 73
     0
 40
0.0
  0
LTYPE
  5
79
100
AcDbSymbolTableRecord
100
AcDbLinetypeTableRecord
  2
_GESTRICHELT
 70
    64
  3

 72
    65
 73
     2
 40
10.0
 49
5.0
 74
     0
 49
-5.0
 74
     0
  0
LTYPE
  5
7A
100
AcDbSymbolTableRecord
100
AcDbLinetypeTableRecord
  2
_MITTELLINIE
 70
    64
  3

 72
    65
 73
     4
 40
20.0
 49
10.0
 74
     0
 49
-2.0
 74
     0
 49
5.0
 74
     0
 49
-3.0
 74
     0
  0
LTYPE
  5
7B
100
AcDbSymbolTableRecord
100
AcDbLinetypeTableRecord
  2
_PUNKTIERT
 70
    64
  3

 72
    65
 73
     2
 40
0.25
 49
0.0
 74
     0
 49
-0.25
 74
     0
  0
LTYPE
  5
7C
100
AcDbSymbolTableRecord
100
AcDbLinetypeTableRecord
  2
_STRICHPUNKTIERT
 70
    64
  3

 72
    65
 73
     4
 40
8.0
 49
5.0
 74
     0
 49
-1.0
 74
     0
 49
1.0
 74
     0
 49
-1.0
 74
     0
  0
LTYPE
  5
7D
100
AcDbSymbolTableRecord
100
AcDbLinetypeTableRecord
  2
_STRICH-PUNKT-PUNKT
 70
    64
  3

 72
    65
 73
     6
 40
10.0
 49
5.0
 74
     0
 49
-1.0
 74
     0
 49
1.0
 74
     0
 49
-1.0
 74
     0
 49
1.0
 74
     0
 49
-1.0
 74
     0
  0
LTYPE
  5
7E
100
AcDbSymbolTableRecord
100
AcDbLinetypeTableRecord
  2
_STARTPFEIL
 70
    64
  3

 72
    65
 73
     0
 40
0.0
  0
LTYPE
  5
7F
100
AcDbSymbolTableRecord
100
AcDbLinetypeTableRecord
  2
_ENDPFEIL
 70
    64
  3

 72
    65
 73
     0
 40
0.0
  0
LTYPE
  5
80
100
AcDbSymbolTableRecord
100
AcDbLinetypeTableRecord
  2
_ENDPUNKT
 70
    64
  3

 72
    65
 73
     0
 40
0.0
  0
LTYPE
  5
81
100
AcDbSymbolTableRecord
100
AcDbLinetypeTableRecord
  2
_PFEIL
 70
    64
  3

 72
    65
 73
     0
 40
0.0
  0
LTYPE
  5
82
100
AcDbSymbolTableRecord
100
AcDbLinetypeTableRecord
  2
_STITCHLINE
 70
    64
  3

 72
    65
 73
     2
 40
6.0
 49
3.0
 74
     0
 49
-3.0
 74
     0
  0
LTYPE
  5
83
100
AcDbSymbolTableRecord
100
AcDbLinetypeTableRecord
  2
_MITTELLINIE_2
 70
    64
  3

 72
    65
 73
     4
 40
17.0
 49
10.0
 74
     0
 49
-2.0
 74
     0
 49
3.0
 74
     0
 49
-2.0
 74
     0
  0
LTYPE
  5
84
100
AcDbSymbolTableRecord
100
AcDbLinetypeTableRecord
  2
_VERDECKTE_LINIE
 70
    64
  3

 72
    65
 73
     2
 40
4.0
 49
2.0
 74
     0
 49
-2.0
 74
     0
  0
LTYPE
  5
85
100
AcDbSymbolTableRecord
100
AcDbLinetypeTableRecord
  2
_PHANTOMLINIE
 70
    64
  3

 72
    65
 73
     6
 40
21.0
 49
10.0
 74
     0
 49
-2.0
 74
     0
 49
3.0
 74
     0
 49
-1.0
 74
     0
 49
3.0
 74
     0
 49
-2.0
 74
     0
  0
LTYPE
  5
86
100
AcDbSymbolTableRecord
100
AcDbLinetypeTableRecord
  2
_BRUCHLINIE_1
 70
    64
  3

 72
    65
 73
     0
 40
0.0
  0
LTYPE
  5
87
100
AcDbSymbolTableRecord
100
AcDbLinetypeTableRecord
  2
_BRUCHLINIE_2
 70
    64
  3

 72
    65
 73
     0
 40
0.0
  0
LTYPE
  5
88
100
AcDbSymbolTableRecord
100
AcDbLinetypeTableRecord
  2
_DURCHGEHEND
 70
    64
  3

 72
    65
 73
     0
 40
0.0
  0
LTYPE
  5
89
100
AcDbSymbolTableRecord
100
AcDbLinetypeTableRecord
  2
_GESTRICHELT
 70
    64
  3

 72
    65
 73
     2
 40
10.0
 49
5.0
 74
     0
 49
-5.0
 74
     0
  0
LTYPE
  5
8A
100
AcDbSymbolTableRecord
100
AcDbLinetypeTableRecord
  2
_MITTELLINIE
 70
    64
  3

 72
    65
 73
     4
 40
20.0
 49
10.0
 74
     0
 49
-2.0
 74
     0
 49
5.0
 74
     0
 49
-3.0
 74
     0
  0
LTYPE
  5
8B
100
AcDbSymbolTableRecord
100
AcDbLinetypeTableRecord
  2
_PUNKTIERT
 70
    64
  3

 72
    65
 73
     2
 40
0.25
 49
0.0
 74
     0
 49
-0.25
 74
     0
  0
LTYPE
  5
8C
100
AcDbSymbolTableRecord
100
AcDbLinetypeTableRecord
  2
_STRICHPUNKTIERT
 70
    64
  3

 72
    65
 73
     4
 40
8.0
 49
5.0
 74
     0
 49
-1.0
 74
     0
 49
1.0
 74
     0
 49
-1.0
 74
     0
  0
LTYPE
  5
8D
100
AcDbSymbolTableRecord
100
AcDbLinetypeTableRecord
  2
_STRICH-PUNKT-PUNKT
 70
    64
  3

 72
    65
 73
     6
 40
10.0
 49
5.0
 74
     0
 49
-1.0
 74
     0
 49
1.0
 74
     0
 49
-1.0
 74
     0
 49
1.0
 74
     0
 49
-1.0
 74
     0
  0
LTYPE
  5
8E
100
AcDbSymbolTableRecord
100
AcDbLinetypeTableRecord
  2
_STARTPFEIL
 70
    64
  3

 72
    65
 73
     0
 40
0.0
  0
LTYPE
  5
8F
100
AcDbSymbolTableRecord
100
AcDbLinetypeTableRecord
  2
_ENDPFEIL
 70
    64
  3

 72
    65
 73
     0
 40
0.0
  0
LTYPE
  5
90
100
AcDbSymbolTableRecord
100
AcDbLinetypeTableRecord
  2
_ENDPUNKT
 70
    64
  3

 72
    65
 73
     0
 40
0.0
  0
LTYPE
  5
91
100
AcDbSymbolTableRecord
100
AcDbLinetypeTableRecord
  2
_PFEIL
 70
    64
  3

 72
    65
 73
     0
 40
0.0
  0
LTYPE
  5
92
100
AcDbSymbolTableRecord
100
AcDbLinetypeTableRecord
  2
_STITCHLINE
 70
    64
  3

 72
    65
 73
     2
 40
6.0
 49
3.0
 74
     0
 49
-3.0
 74
     0
  0
LTYPE
  5
93
100
AcDbSymbolTableRecord
100
AcDbLinetypeTableRecord
  2
_MITTELLINIE_2
 70
    64
  3

 72
    65
 73
     4
 40
17.0
 49
10.0
 74
     0
 49
-2.0
 74
     0
 49
3.0
 74
     0
 49
-2.0
 74
     0
  0
LTYPE
  5
94
100
AcDbSymbolTableRecord
100
AcDbLinetypeTableRecord
  2
_VERDECKTE_LINIE
 70
    64
  3

 72
    65
 73
     2
 40
4.0
 49
2.0
 74
     0
 49
-2.0
 74
     0
  0
LTYPE
  5
95
100
AcDbSymbolTableRecord
100
AcDbLinetypeTableRecord
  2
_PHANTOMLINIE
 70
    64
  3

 72
    65
 73
     6
 40
21.0
 49
10.0
 74
     0
 49
-2.0
 74
     0
 49
3.0
 74
     0
 49
-1.0
 74
     0
 49
3.0
 74
     0
 49
-2.0
 74
     0
  0
LTYPE
  5
96
100
AcDbSymbolTableRecord
100
AcDbLinetypeTableRecord
  2
_BRUCHLINIE_1
 70
    64
  3

 72
    65
 73
     0
 40
0.0
  0
LTYPE
  5
97
100
AcDbSymbolTableRecord
100
AcDbLinetypeTableRecord
  2
_BRUCHLINIE_2
 70
    64
  3

 72
    65
 73
     0
 40
0.0
  0
LTYPE
  5
98
100
AcDbSymbolTableRecord
100
AcDbLinetypeTableRecord
  2
_DURCHGEHEND
 70
    64
  3

 72
    65
 73
     0
 40
0.0
  0
LTYPE
  5
99
100
AcDbSymbolTableRecord
100
AcDbLinetypeTableRecord
  2
_GESTRICHELT
 70
    64
  3

 72
    65
 73
     2
 40
10.0
 49
5.0
 74
     0
 49
-5.0
 74
     0
  0
LTYPE
  5
9A
100
AcDbSymbolTableRecord
100
AcDbLinetypeTableRecord
  2
_MITTELLINIE
 70
    64
  3

 72
    65
 73
     4
 40
20.0
 49
10.0
 74
     0
 49
-2.0
 74
     0
 49
5.0
 74
     0
 49
-3.0
 74
     0
  0
LTYPE
  5
9B
100
AcDbSymbolTableRecord
100
AcDbLinetypeTableRecord
  2
_PUNKTIERT
 70
    64
  3

 72
    65
 73
     2
 40
0.25
 49
0.0
 74
     0
 49
-0.25
 74
     0
  0
LTYPE
  5
9C
100
AcDbSymbolTableRecord
100
AcDbLinetypeTableRecord
  2
_STRICHPUNKTIERT
 70
    64
  3

 72
    65
 73
     4
 40
8.0
 49
5.0
 74
     0
 49
-1.0
 74
     0
 49
1.0
 74
     0
 49
-1.0
 74
     0
  0
LTYPE
  5
9D
100
AcDbSymbolTableRecord
100
AcDbLinetypeTableRecord
  2
_STRICH-PUNKT-PUNKT
 70
    64
  3

 72
    65
 73
     6
 40
10.0
 49
5.0
 74
     0
 49
-1.0
 74
     0
 49
1.0
 74
     0
 49
-1.0
 74
     0
 49
1.0
 74
     0
 49
-1.0
 74
     0
  0
LTYPE
  5
9E
100
AcDbSymbolTableRecord
100
AcDbLinetypeTableRecord
  2
_STARTPFEIL
 70
    64
  3

 72
    65
 73
     0
 40
0.0
  0
LTYPE
  5
9F
100
AcDbSymbolTableRecord
100
AcDbLinetypeTableRecord
  2
_ENDPFEIL
 70
    64
  3

 72
    65
 73
     0
 40
0.0
  0
LTYPE
  5
A0
100
AcDbSymbolTableRecord
100
AcDbLinetypeTableRecord
  2
_ENDPUNKT
 70
    64
  3

 72
    65
 73
     0
 40
0.0
  0
LTYPE
  5
A1
100
AcDbSymbolTableRecord
100
AcDbLinetypeTableRecord
  2
_PFEIL
 70
    64
  3

 72
    65
 73
     0
 40
0.0
  0
LTYPE
  5
A2
100
AcDbSymbolTableRecord
100
AcDbLinetypeTableRecord
  2
_STITCHLINE
 70
    64
  3

 72
    65
 73
     2
 40
6.0
 49
3.0
 74
     0
 49
-3.0
 74
     0
  0
LTYPE
  5
A3
100
AcDbSymbolTableRecord
100
AcDbLinetypeTableRecord
  2
_MITTELLINIE_2
 70
    64
  3

 72
    65
 73
     4
 40
17.0
 49
10.0
 74
     0
 49
-2.0
 74
     0
 49
3.0
 74
     0
 49
-2.0
 74
     0
  0
LTYPE
  5
A4
100
AcDbSymbolTableRecord
100
AcDbLinetypeTableRecord
  2
_VERDECKTE_LINIE
 70
    64
  3

 72
    65
 73
     2
 40
4.0
 49
2.0
 74
     0
 49
-2.0
 74
     0
  0
LTYPE
  5
A5
100
AcDbSymbolTableRecord
100
AcDbLinetypeTableRecord
  2
_PHANTOMLINIE
 70
    64
  3

 72
    65
 73
     6
 40
21.0
 49
10.0
 74
     0
 49
-2.0
 74
     0
 49
3.0
 74
     0
 49
-1.0
 74
     0
 49
3.0
 74
     0
 49
-2.0
 74
     0
  0
LTYPE
  5
A6
100
AcDbSymbolTableRecord
100
AcDbLinetypeTableRecord
  2
_BRUCHLINIE_1
 70
    64
  3

 72
    65
 73
     0
 40
0.0
  0
LTYPE
  5
A7
100
AcDbSymbolTableRecord
100
AcDbLinetypeTableRecord
  2
_BRUCHLINIE_2
 70
    64
  3

 72
    65
 73
     0
 40
0.0
  0
LTYPE
  5
A8
100
AcDbSymbolTableRecord
100
AcDbLinetypeTableRecord
  2
_DURCHGEHEND
 70
    64
  3

 72
    65
 73
     0
 40
0.0
  0
LTYPE
  5
A9
100
AcDbSymbolTableRecord
100
AcDbLinetypeTableRecord
  2
_GESTRICHELT
 70
    64
  3

 72
    65
 73
     2
 40
10.0
 49
5.0
 74
     0
 49
-5.0
 74
     0
  0
LTYPE
  5
AA
100
AcDbSymbolTableRecord
100
AcDbLinetypeTableRecord
  2
_MITTELLINIE
 70
    64
  3

 72
    65
 73
     4
 40
20.0
 49
10.0
 74
     0
 49
-2.0
 74
     0
 49
5.0
 74
     0
 49
-3.0
 74
     0
  0
LTYPE
  5
AB
100
AcDbSymbolTableRecord
100
AcDbLinetypeTableRecord
  2
_PUNKTIERT
 70
    64
  3

 72
    65
 73
     2
 40
0.25
 49
0.0
 74
     0
 49
-0.25
 74
     0
  0
LTYPE
  5
AC
100
AcDbSymbolTableRecord
100
AcDbLinetypeTableRecord
  2
_STRICHPUNKTIERT
 70
    64
  3

 72
    65
 73
     4
 40
8.0
 49
5.0
 74
     0
 49
-1.0
 74
     0
 49
1.0
 74
     0
 49
-1.0
 74
     0
  0
LTYPE
  5
AD
100
AcDbSymbolTableRecord
100
AcDbLinetypeTableRecord
  2
_STRICH-PUNKT-PUNKT
 70
    64
  3

 72
    65
 73
     6
 40
10.0
 49
5.0
 74
     0
 49
-1.0
 74
     0
 49
1.0
 74
     0
 49
-1.0
 74
     0
 49
1.0
 74
     0
 49
-1.0
 74
     0
  0
LTYPE
  5
AE
100
AcDbSymbolTableRecord
100
AcDbLinetypeTableRecord
  2
_STARTPFEIL
 70
    64
  3

 72
    65
 73
     0
 40
0.0
  0
LTYPE
  5
AF
100
AcDbSymbolTableRecord
100
AcDbLinetypeTableRecord
  2
_ENDPFEIL
 70
    64
  3

 72
    65
 73
     0
 40
0.0
  0
LTYPE
  5
B0
100
AcDbSymbolTableRecord
100
AcDbLinetypeTableRecord
  2
_ENDPUNKT
 70
    64
  3

 72
    65
 73
     0
 40
0.0
  0
LTYPE
  5
B1
100
AcDbSymbolTableRecord
100
AcDbLinetypeTableRecord
  2
_PFEIL
 70
    64
  3

 72
    65
 73
     0
 40
0.0
  0
LTYPE
  5
B2
100
AcDbSymbolTableRecord
100
AcDbLinetypeTableRecord
  2
_STITCHLINE
 70
    64
  3

 72
    65
 73
     2
 40
6.0
 49
3.0
 74
     0
 49
-3.0
 74
     0
  0
LTYPE
  5
B3
100
AcDbSymbolTableRecord
100
AcDbLinetypeTableRecord
  2
_MITTELLINIE_2
 70
    64
  3

 72
    65
 73
     4
 40
17.0
 49
10.0
 74
     0
 49
-2.0
 74
     0
 49
3.0
 74
     0
 49
-2.0
 74
     0
  0
LTYPE
  5
B4
100
AcDbSymbolTableRecord
100
AcDbLinetypeTableRecord
  2
_VERDECKTE_LINIE
 70
    64
  3

 72
    65
 73
     2
 40
4.0
 49
2.0
 74
     0
 49
-2.0
 74
     0
  0
LTYPE
  5
B5
100
AcDbSymbolTableRecord
100
AcDbLinetypeTableRecord
  2
_PHANTOMLINIE
 70
    64
  3

 72
    65
 73
     6
 40
21.0
 49
10.0
 74
     0
 49
-2.0
 74
     0
 49
3.0
 74
     0
 49
-1.0
 74
     0
 49
3.0
 74
     0
 49
-2.0
 74
     0
  0
LTYPE
  5
B6
100
AcDbSymbolTableRecord
100
AcDbLinetypeTableRecord
  2
_BRUCHLINIE_1
 70
    64
  3

 72
    65
 73
     0
 40
0.0
  0
LTYPE
  5
B7
100
AcDbSymbolTableRecord
100
AcDbLinetypeTableRecord
  2
_BRUCHLINIE_2
 70
    64
  3

 72
    65
 73
     0
 40
0.0
  0
LTYPE
  5
B8
100
AcDbSymbolTableRecord
100
AcDbLinetypeTableRecord
  2
4_2-0_7-0_7-0_7
 70
    64
  3

 72
    65
 73
     4
 40
6.35
 49
4.233334
 74
     0
 49
-0.705556
 74
     0
 49
0.705556
 74
     0
 49
-0.705556
 74
     0
  0
LTYPE
  5
B9
100
AcDbSymbolTableRecord
100
AcDbLinetypeTableRecord
  2
0_7-0_7
 70
    64
  3

 72
    65
 73
     2
 40
1.411111
 49
0.705556
 74
     0
 49
-0.705556
 74
     0
  0
LTYPE
  5
BA
100
AcDbSymbolTableRecord
100
AcDbLinetypeTableRecord
  2
_DURCHGEHEND
 70
    64
  3

 72
    65
 73
     0
 40
0.0
  0
LTYPE
  5
BB
100
AcDbSymbolTableRecord
100
AcDbLinetypeTableRecord
  2
_GESTRICHELT
 70
    64
  3

 72
    65
 73
     2
 40
10.0
 49
5.0
 74
     0
 49
-5.0
 74
     0
  0
LTYPE
  5
BC
100
AcDbSymbolTableRecord
100
AcDbLinetypeTableRecord
  2
_MITTELLINIE
 70
    64
  3

 72
    65
 73
     4
 40
20.0
 49
10.0
 74
     0
 49
-2.0
 74
     0
 49
5.0
 74
     0
 49
-3.0
 74
     0
  0
LTYPE
  5
BD
100
AcDbSymbolTableRecord
100
AcDbLinetypeTableRecord
  2
_PUNKTIERT
 70
    64
  3

 72
    65
 73
     2
 40
0.25
 49
0.0
 74
     0
 49
-0.25
 74
     0
  0
LTYPE
  5
BE
100
AcDbSymbolTableRecord
100
AcDbLinetypeTableRecord
  2
_STRICHPUNKTIERT
 70
    64
  3

 72
    65
 73
     4
 40
8.0
 49
5.0
 74
     0
 49
-1.0
 74
     0
 49
1.0
 74
     0
 49
-1.0
 74
     0
  0
LTYPE
  5
BF
100
AcDbSymbolTableRecord
100
AcDbLinetypeTableRecord
  2
_STRICH-PUNKT-PUNKT
 70
    64
  3

 72
    65
 73
     6
 40
10.0
 49
5.0
 74
     0
 49
-1.0
 74
     0
 49
1.0
 74
     0
 49
-1.0
 74
     0
 49
1.0
 74
     0
 49
-1.0
 74
     0
  0
LTYPE
  5
C0
100
AcDbSymbolTableRecord
100
AcDbLinetypeTableRecord
  2
_STARTPFEIL
 70
    64
  3

 72
    65
 73
     0
 40
0.0
  0
LTYPE
  5
C1
100
AcDbSymbolTableRecord
100
AcDbLinetypeTableRecord
  2
_ENDPFEIL
 70
    64
  3

 72
    65
 73
     0
 40
0.0
  0
LTYPE
  5
C2
100
AcDbSymbolTableRecord
100
AcDbLinetypeTableRecord
  2
_ENDPUNKT
 70
    64
  3

 72
    65
 73
     0
 40
0.0
  0
LTYPE
  5
C3
100
AcDbSymbolTableRecord
100
AcDbLinetypeTableRecord
  2
_PFEIL
 70
    64
  3

 72
    65
 73
     0
 40
0.0
  0
LTYPE
  5
C4
100
AcDbSymbolTableRecord
100
AcDbLinetypeTableRecord
  2
_STITCHLINE
 70
    64
  3

 72
    65
 73
     2
 40
6.0
 49
3.0
 74
     0
 49
-3.0
 74
     0
  0
LTYPE
  5
C5
100
AcDbSymbolTableRecord
100
AcDbLinetypeTableRecord
  2
_MITTELLINIE_2
 70
    64
  3

 72
    65
 73
     4
 40
17.0
 49
10.0
 74
     0
 49
-2.0
 74
     0
 49
3.0
 74
     0
 49
-2.0
 74
     0
  0
LTYPE
  5
C6
100
AcDbSymbolTableRecord
100
AcDbLinetypeTableRecord
  2
_VERDECKTE_LINIE
 70
    64
  3

 72
    65
 73
     2
 40
4.0
 49
2.0
 74
     0
 49
-2.0
 74
     0
  0
LTYPE
  5
C7
100
AcDbSymbolTableRecord
100
AcDbLinetypeTableRecord
  2
_PHANTOMLINIE
 70
    64
  3

 72
    65
 73
     6
 40
21.0
 49
10.0
 74
     0
 49
-2.0
 74
     0
 49
3.0
 74
     0
 49
-1.0
 74
     0
 49
3.0
 74
     0
 49
-2.0
 74
     0
  0
LTYPE
  5
C8
100
AcDbSymbolTableRecord
100
AcDbLinetypeTableRecord
  2
_BRUCHLINIE_1
 70
    64
  3

 72
    65
 73
     0
 40
0.0
  0
LTYPE
  5
C9
100
AcDbSymbolTableRecord
100
AcDbLinetypeTableRecord
  2
_BRUCHLINIE_2
 70
    64
  3

 72
    65
 73
     0
 40
0.0
  0
LTYPE
  5
CA
100
AcDbSymbolTableRecord
100
AcDbLinetypeTableRecord
  2
_DURCHGEHEND
 70
    64
  3

 72
    65
 73
     0
 40
0.0
  0
LTYPE
  5
CB
100
AcDbSymbolTableRecord
100
AcDbLinetypeTableRecord
  2
_GESTRICHELT
 70
    64
  3

 72
    65
 73
     2
 40
10.0
 49
5.0
 74
     0
 49
-5.0
 74
     0
  0
LTYPE
  5
CC
100
AcDbSymbolTableRecord
100
AcDbLinetypeTableRecord
  2
_MITTELLINIE
 70
    64
  3

 72
    65
 73
     4
 40
20.0
 49
10.0
 74
     0
 49
-2.0
 74
     0
 49
5.0
 74
     0
 49
-3.0
 74
     0
  0
LTYPE
  5
CD
100
AcDbSymbolTableRecord
100
AcDbLinetypeTableRecord
  2
_PUNKTIERT
 70
    64
  3

 72
    65
 73
     2
 40
0.25
 49
0.0
 74
     0
 49
-0.25
 74
     0
  0
LTYPE
  5
CE
100
AcDbSymbolTableRecord
100
AcDbLinetypeTableRecord
  2
_STRICHPUNKTIERT
 70
    64
  3

 72
    65
 73
     4
 40
8.0
 49
5.0
 74
     0
 49
-1.0
 74
     0
 49
1.0
 74
     0
 49
-1.0
 74
     0
  0
LTYPE
  5
CF
100
AcDbSymbolTableRecord
100
AcDbLinetypeTableRecord
  2
_STRICH-PUNKT-PUNKT
 70
    64
  3

 72
    65
 73
     6
 40
10.0
 49
5.0
 74
     0
 49
-1.0
 74
     0
 49
1.0
 74
     0
 49
-1.0
 74
     0
 49
1.0
 74
     0
 49
-1.0
 74
     0
  0
LTYPE
  5
D0
100
AcDbSymbolTableRecord
100
AcDbLinetypeTableRecord
  2
_STARTPFEIL
 70
    64
  3

 72
    65
 73
     0
 40
0.0
  0
LTYPE
  5
D1
100
AcDbSymbolTableRecord
100
AcDbLinetypeTableRecord
  2
_ENDPFEIL
 70
    64
  3

 72
    65
 73
     0
 40
0.0
  0
LTYPE
  5
D2
100
AcDbSymbolTableRecord
100
AcDbLinetypeTableRecord
  2
_ENDPUNKT
 70
    64
  3

 72
    65
 73
     0
 40
0.0
  0
LTYPE
  5
D3
100
AcDbSymbolTableRecord
100
AcDbLinetypeTableRecord
  2
_PFEIL
 70
    64
  3

 72
    65
 73
     0
 40
0.0
  0
LTYPE
  5
D4
100
AcDbSymbolTableRecord
100
AcDbLinetypeTableRecord
  2
_STITCHLINE
 70
    64
  3

 72
    65
 73
     2
 40
6.0
 49
3.0
 74
     0
 49
-3.0
 74
     0
  0
LTYPE
  5
D5
100
AcDbSymbolTableRecord
100
AcDbLinetypeTableRecord
  2
_MITTELLINIE_2
 70
    64
  3

 72
    65
 73
     4
 40
17.0
 49
10.0
 74
     0
 49
-2.0
 74
     0
 49
3.0
 74
     0
 49
-2.0
 74
     0
  0
LTYPE
  5
D6
100
AcDbSymbolTableRecord
100
AcDbLinetypeTableRecord
  2
_VERDECKTE_LINIE
 70
    64
  3

 72
    65
 73
     2
 40
4.0
 49
2.0
 74
     0
 49
-2.0
 74
     0
  0
LTYPE
  5
D7
100
AcDbSymbolTableRecord
100
AcDbLinetypeTableRecord
  2
_PHANTOMLINIE
 70
    64
  3

 72
    65
 73
     6
 40
21.0
 49
10.0
 74
     0
 49
-2.0
 74
     0
 49
3.0
 74
     0
 49
-1.0
 74
     0
 49
3.0
 74
     0
 49
-2.0
 74
     0
  0
LTYPE
  5
D8
100
AcDbSymbolTableRecord
100
AcDbLinetypeTableRecord
  2
_BRUCHLINIE_1
 70
    64
  3

 72
    65
 73
     0
 40
0.0
  0
LTYPE
  5
D9
100
AcDbSymbolTableRecord
100
AcDbLinetypeTableRecord
  2
_BRUCHLINIE_2
 70
    64
  3

 72
    65
 73
     0
 40
0.0
  0
LTYPE
  5
DA
100
AcDbSymbolTableRecord
100
AcDbLinetypeTableRecord
  2
_DURCHGEHEND
 70
    64
  3

 72
    65
 73
     0
 40
0.0
  0
LTYPE
  5
DB
100
AcDbSymbolTableRecord
100
AcDbLinetypeTableRecord
  2
_GESTRICHELT
 70
    64
  3

 72
    65
 73
     2
 40
10.0
 49
5.0
 74
     0
 49
-5.0
 74
     0
  0
LTYPE
  5
DC
100
AcDbSymbolTableRecord
100
AcDbLinetypeTableRecord
  2
_MITTELLINIE
 70
    64
  3

 72
    65
 73
     4
 40
20.0
 49
10.0
 74
     0
 49
-2.0
 74
     0
 49
5.0
 74
     0
 49
-3.0
 74
     0
  0
LTYPE
  5
DD
100
AcDbSymbolTableRecord
100
AcDbLinetypeTableRecord
  2
_PUNKTIERT
 70
    64
  3

 72
    65
 73
     2
 40
0.25
 49
0.0
 74
     0
 49
-0.25
 74
     0
  0
LTYPE
  5
DE
100
AcDbSymbolTableRecord
100
AcDbLinetypeTableRecord
  2
_STRICHPUNKTIERT
 70
    64
  3

 72
    65
 73
     4
 40
8.0
 49
5.0
 74
     0
 49
-1.0
 74
     0
 49
1.0
 74
     0
 49
-1.0
 74
     0
  0
LTYPE
  5
DF
100
AcDbSymbolTableRecord
100
AcDbLinetypeTableRecord
  2
_STRICH-PUNKT-PUNKT
 70
    64
  3

 72
    65
 73
     6
 40
10.0
 49
5.0
 74
     0
 49
-1.0
 74
     0
 49
1.0
 74
     0
 49
-1.0
 74
     0
 49
1.0
 74
     0
 49
-1.0
 74
     0
  0
LTYPE
  5
E0
100
AcDbSymbolTableRecord
100
AcDbLinetypeTableRecord
  2
_STARTPFEIL
 70
    64
  3

 72
    65
 73
     0
 40
0.0
  0
LTYPE
  5
E1
100
AcDbSymbolTableRecord
100
AcDbLinetypeTableRecord
  2
_ENDPFEIL
 70
    64
  3

 72
    65
 73
     0
 40
0.0
  0
LTYPE
  5
E2
100
AcDbSymbolTableRecord
100
AcDbLinetypeTableRecord
  2
_ENDPUNKT
 70
    64
  3

 72
    65
 73
     0
 40
0.0
  0
LTYPE
  5
E3
100
AcDbSymbolTableRecord
100
AcDbLinetypeTableRecord
  2
_PFEIL
 70
    64
  3

 72
    65
 73
     0
 40
0.0
  0
LTYPE
  5
E4
100
AcDbSymbolTableRecord
100
AcDbLinetypeTableRecord
  2
_STITCHLINE
 70
    64
  3

 72
    65
 73
     2
 40
6.0
 49
3.0
 74
     0
 49
-3.0
 74
     0
  0
LTYPE
  5
E5
100
AcDbSymbolTableRecord
100
AcDbLinetypeTableRecord
  2
_MITTELLINIE_2
 70
    64
  3

 72
    65
 73
     4
 40
17.0
 49
10.0
 74
     0
 49
-2.0
 74
     0
 49
3.0
 74
     0
 49
-2.0
 74
     0
  0
LTYPE
  5
E6
100
AcDbSymbolTableRecord
100
AcDbLinetypeTableRecord
  2
_VERDECKTE_LINIE
 70
    64
  3

 72
    65
 73
     2
 40
4.0
 49
2.0
 74
     0
 49
-2.0
 74
     0
  0
LTYPE
  5
E7
100
AcDbSymbolTableRecord
100
AcDbLinetypeTableRecord
  2
_PHANTOMLINIE
 70
    64
  3

 72
    65
 73
     6
 40
21.0
 49
10.0
 74
     0
 49
-2.0
 74
     0
 49
3.0
 74
     0
 49
-1.0
 74
     0
 49
3.0
 74
     0
 49
-2.0
 74
     0
  0
LTYPE
  5
E8
100
AcDbSymbolTableRecord
100
AcDbLinetypeTableRecord
  2
_BRUCHLINIE_1
 70
    64
  3

 72
    65
 73
     0
 40
0.0
  0
LTYPE
  5
E9
100
AcDbSymbolTableRecord
100
AcDbLinetypeTableRecord
  2
_BRUCHLINIE_2
 70
    64
  3

 72
    65
 73
     0
 40
0.0
  0
LTYPE
  5
EA
100
AcDbSymbolTableRecord
100
AcDbLinetypeTableRecord
  2
SLDHIDDEN0
 70
    64
  3

 72
    65
 73
     2
 40
1.905
 49
1.27
 74
     0
 49
-0.635
 74
     0
  0
ENDTAB
  0
TABLE
  2
LAYER
  5
2
100
AcDbSymbolTable
 70
     7
  0
LAYER
  5
14
100
AcDbSymbolTableRecord
100
AcDbLayerTableRecord
  2
0
 70
     0
 62
     7
  6
Continuous
290
     1
370
    -3
390
1D
  0
LAYER
  5
EB
100
AcDbSymbolTableRecord
100
AcDbLayerTableRecord
  2
STANDARDEBENE
 70
     0
 62
     7
  6
Continuous
290
     1
370
    -3
390
1D
  0
LAYER
  5
EC
100
AcDbSymbolTableRecord
100
AcDbLayerTableRecord
  2
ARMATUR
 70
     0
 62
     7
  6
Continuous
290
     1
370
    -3
390
1D
  0
LAYER
  5
ED
100
AcDbSymbolTableRecord
100
AcDbLayerTableRecord
  2
ACHSEN
 70
     0
 62
     7
  6
Continuous
290
     1
370
    -3
390
1D
  0
LAYER
  5
EE
100
AcDbSymbolTableRecord
100
AcDbLayerTableRecord
  2
TEXT
 70
     0
 62
     7
  6
Continuous
290
     1
370
    -3
390
1D
  0
LAYER
  5
EF
100
AcDbSymbolTableRecord
100
AcDbLayerTableRecord
  2
BEMASSUNG
 70
     0
 62
     7
  6
Continuous
290
     1
370
    -3
390
1D
  0
LAYER
  5
F0
100
AcDbSymbolTableRecord
100
AcDbLayerTableRecord
  2
WAND
 70
     0
 62
     7
  6
Continuous
290
     1
370
    -3
390
1D
  0
ENDTAB
  0
TABLE
  2
STYLE
  5
3
100
AcDbSymbolTable
 70
     1
  0
STYLE
  5
17
100
AcDbSymbolTableRecord
100
AcDbTextStyleTableRecord
  2
Standard
 70
     0
 40
0.0
 41
1.0
 50
0.0
 71
     0
 42
0.0
  3
txt
  4

  0
ENDTAB
  0
TABLE
  2
VIEW
  5
5
100
AcDbSymbolTable
 70
     0
  0
ENDTAB
  0
TABLE
  2
UCS
  5
6
100
AcDbSymbolTable
 70
     1
  0
UCS
  5
24
100
AcDbSymbolTableRecord
100
AcDbUCSTableRecord
  2
ISODRAW_6_2
 70
     0
 10
0.0
 20
0.0
 30
0.0
 11
0.0
 21
1.0
 31
0.0
 12
0.0
 22
0.0
 32
1.0
 79
     0
146
0.0
  0
ENDTAB
  0
TABLE
  2
APPID
  5
8
100
AcDbSymbolTable
 70
     1
  0
APPID
  5
16
100
AcDbSymbolTableRecord
100
AcDbRegAppTableRecord
  2
ACAD
 70
     0
  0
ENDTAB
  0
TABLE
  2
DIMSTYLE
  5
9
100
AcDbSymbolTable
 70
     1
100
AcDbDimStyleTable
 71
     0
  0
DIMSTYLE
105
18
100
AcDbSymbolTableRecord
100
AcDbDimStyleTableRecord
  2
Standard
 70
     0
  3

  4

 40
1.0
 41
0.18
 42
0.0625
 43
0.38
 44
0.18
 45
0.0
 46
0.0
 47
0.0
 48
0.0
 71
     0
 72
     0
 73
     1
 74
     1
 75
     0
 76
     0
 77
     0
 78
     0
 79
     0
140
0.18
141
0.09
142
0.0
143
25.4
144
1.0
145
0.0
146
1.0
147
0.09
148
0.0
170
     0
171
     2
172
     0
173
     0
174
     0
175
     0
176
     0
177
     0
178
     0
179
     0
271
     4
272
     4
273
     2
274
     2
275
     0
276
     0
277
     2
278
    46
279
     0
280
     0
281
     0
282
     0
283
     1
284
     0
285
     0
286
     0
288
     0
289
     3
340
17
341
0
342
0
343
0
344
0
371
    -2
372
    -2
  0
ENDTAB
  0
TABLE
  2
BLOCK_RECORD
  5
1
100
AcDbSymbolTable
 70
     0
  0
BLOCK_RECORD
  5
A
100
AcDbSymbolTableRecord
100
AcDbBlockTableRecord
  2
*MODEL_SPACE
340
20
  0
BLOCK_RECORD
  5
B
100
AcDbSymbolTableRecord
100
AcDbBlockTableRecord
  2
*PAPER_SPACE
340
21
  0
ENDTAB
  0
ENDSEC
  0
SECTION
  2
BLOCKS
  0
BLOCK
  5
D
100
AcDbEntity
  8
0
390
0
100
AcDbBlockBegin
  2
*MODEL_SPACE
 70
     0
 10
0.0
 20
0.0
 30
0.0
  3
*MODEL_SPACE
  1

  0
ENDBLK
  5
E
100
AcDbEntity
  8
0
390
0
100
AcDbBlockEnd
  0
BLOCK
  5
F
100
AcDbEntity
 67
     1
  8
0
390
0
100
AcDbBlockBegin
  2
*PAPER_SPACE
 70
     0
 10
0.0
 20
0.0
 30
0.0
  3
*PAPER_SPACE
  1

  0
ENDBLK
  5
10
100
AcDbEntity
 67
     1
  8
0
390
0
100
AcDbBlockEnd
  0
ENDSEC
  0
SECTION
  2
ENTITIES
  0
LINE
  5
F1
100
AcDbEntity
  8
ARMATUR
390
0
  6
DURCHGEHEND
 62
     1
100
AcDbLine
 10
60.313179
 20
129.437866
 30
0.0
 11
60.313179
 21
120.077461
 31
0.0
  0
LINE
  5
F2
100
AcDbEntity
  8
ARMATUR
390
0
  6
DURCHGEHEND
 62
     1
100
AcDbLine
 10
68.813179
 20
120.077461
 30
0.0
 11
68.813179
 21
129.437866
 31
0.0
  0
LINE
  5
F3
100
AcDbEntity
  8
ARMATUR
390
0
  6
DURCHGEHEND
 62
     1
100
AcDbLine
 10
56.063179
 20
96.147522
 30
0.0
 11
56.063179
 21
91.897522
 31
0.0
  0
ARC
  5
F4
100
AcDbEntity
  8
ARMATUR
390
0
  6
DURCHGEHEND
 62
     1
100
AcDbCircle
 10
56.813179
 20
96.147522
 30
0.0
 40
0.75
100
AcDbArc
 50
109.471001
 51
180.0
  0
LINE
  5
F5
100
AcDbEntity
  8
ARMATUR
390
0
  6
DURCHGEHEND
 62
     1
100
AcDbLine
 10
73.063179
 20
91.897522
 30
0.0
 11
73.063179
 21
96.147522
 31
0.0
  0
ARC
  5
F6
100
AcDbEntity
  8
ARMATUR
390
0
  6
DURCHGEHEND
 62
     1
100
AcDbCircle
 10
72.313179
 20
96.147522
 30
0.0
 40
0.75
100
AcDbArc
 50
0.0
 51
70.528999
  0
ARC
  5
F7
100
AcDbEntity
  8
ARMATUR
390
0
  6
DURCHGEHEND
 62
     1
100
AcDbCircle
 10
56.313179
 20
97.561737
 30
0.0
 40
0.75
100
AcDbArc
 50
289.471008
 51
360.0
  0
ARC
  5
F8
100
AcDbEntity
  8
ARMATUR
390
0
  6
DURCHGEHEND
 62
     1
100
AcDbCircle
 10
72.813179
 20
97.561737
 30
0.0
 40
0.75
100
AcDbArc
 50
180.0
 51
250.529007
  0
LINE
  5
F9
100
AcDbEntity
  8
ARMATUR
390
0
  6
DURCHGEHEND
 62
     1
100
AcDbLine
 10
72.063179
 20
97.561737
 30
0.0
 11
72.063179
 21
99.740425
 31
0.0
  0
LINE
  5
FA
100
AcDbEntity
  8
ARMATUR
390
0
  6
DURCHGEHEND
 62
     1
100
AcDbLine
 10
57.063179
 20
99.740425
 30
0.0
 11
57.063179
 21
97.561737
 31
0.0
  0
LINE
  5
FB
100
AcDbEntity
  8
ARMATUR
390
0
  6
DURCHGEHEND
 62
     1
100
AcDbLine
 10
68.813179
 20
96.85463
 30
0.0
 11
60.313179
 21
96.85463
 31
0.0
  0
LINE
  5
FC
100
AcDbEntity
  8
ARMATUR
390
0
  6
DURCHGEHEND
 62
     1
100
AcDbLine
 10
56.063179
 20
91.897522
 30
0.0
 11
60.313179
 21
91.897522
 31
0.0
  0
LINE
  5
FD
100
AcDbEntity
  8
ARMATUR
390
0
  6
DURCHGEHEND
 62
     1
100
AcDbLine
 10
60.313179
 20
91.897522
 30
0.0
 11
68.813179
 21
91.897522
 31
0.0
  0
LINE
  5
FE
100
AcDbEntity
  8
ARMATUR
390
0
  6
DURCHGEHEND
 62
     1
100
AcDbLine
 10
68.813179
 20
91.897522
 30
0.0
 11
73.063179
 21
91.897522
 31
0.0
  0
LINE
  5
FF
100
AcDbEntity
  8
ARMATUR
390
0
  6
DURCHGEHEND
 62
     1
100
AcDbLine
 10
69.055496
 20
126.828125
 30
0.0
 11
70.836395
 21
126.036995
 31
0.0
  0
POLYLINE
  5
100
100
AcDbEntity
  8
ARMATUR
390
0
  6
DURCHGEHEND
 62
     1
100
AcDb3dPolyline
 66
     1
 10
0.0
 20
0.0
 30
0.0
 70
    12
 75
     5
  0
VERTEX
  5
101
100
AcDbEntity
  8
0
390
0
100
AcDbVertex
100
AcDb3dPolylineVertex
 10
69.055496
 20
126.828125
 30
0.0
 70
    48
  0
VERTEX
  5
102
100
AcDbEntity
  8
0
390
0
100
AcDbVertex
100
AcDb3dPolylineVertex
 10
69.055496
 20
126.828125
 30
0.0
 70
    40
  0
VERTEX
  5
103
100
AcDbEntity
  8
0
390
0
100
AcDbVertex
100
AcDb3dPolylineVertex
 10
68.964264
 20
126.864433
 30
0.0
 70
    40
  0
VERTEX
  5
104
100
AcDbEntity
  8
0
390
0
100
AcDbVertex
100
AcDb3dPolylineVertex
 10
69.055496
 20
126.828125
 30
0.0
 70
    48
  0
VERTEX
  5
105
100
AcDbEntity
  8
0
390
0
100
AcDbVertex
100
AcDb3dPolylineVertex
 10
68.964264
 20
126.864433
 30
0.0
 70
    48
  0
VERTEX
  5
106
100
AcDbEntity
  8
0
390
0
100
AcDbVertex
100
AcDb3dPolylineVertex
 10
68.964264
 20
126.864433
 30
0.0
 70
    48
  0
VERTEX
  5
107
100
AcDbEntity
  8
0
390
0
100
AcDbVertex
100
AcDb3dPolylineVertex
 10
68.870453
 20
126.893471
 30
0.0
 70
    40
  0
VERTEX
  5
108
100
AcDbEntity
  8
0
390
0
100
AcDbVertex
100
AcDb3dPolylineVertex
 10
68.964264
 20
126.864433
 30
0.0
 70
    48
  0
VERTEX
  5
109
100
AcDbEntity
  8
0
390
0
100
AcDbVertex
100
AcDb3dPolylineVertex
 10
68.870453
 20
126.893471
 30
0.0
 70
    48
  0
VERTEX
  5
10A
100
AcDbEntity
  8
0
390
0
100
AcDbVertex
100
AcDb3dPolylineVertex
 10
68.870453
 20
126.893471
 30
0.0
 70
    48
  0
VERTEX
  5
10B
100
AcDbEntity
  8
0
390
0
100
AcDbVertex
100
AcDb3dPolylineVertex
 10
68.774658
 20
126.915047
 30
0.0
 70
    40
  0
VERTEX
  5
10C
100
AcDbEntity
  8
0
390
0
100
AcDbVertex
100
AcDb3dPolylineVertex
 10
68.870453
 20
126.893471
 30
0.0
 70
    48
  0
VERTEX
  5
10D
100
AcDbEntity
  8
0
390
0
100
AcDbVertex
100
AcDb3dPolylineVertex
 10
68.774658
 20
126.915047
 30
0.0
 70
    48
  0
VERTEX
  5
10E
100
AcDbEntity
  8
0
390
0
100
AcDbVertex
100
AcDb3dPolylineVertex
 10
68.774658
 20
126.915047
 30
0.0
 70
    48
  0
SEQEND
  5
10F
100
AcDbEntity
  8
0
390
0
  0
LINE
  5
110
100
AcDbEntity
  8
ARMATUR
390
0
  6
DURCHGEHEND
 62
     1
100
AcDbLine
 10
70.836395
 20
126.036995
 30
0.0
 11
71.097885
 21
125.92083
 31
0.0
  0
ARC
  5
111
100
AcDbEntity
  8
ARMATUR
390
0
  6
DURCHGEHEND
 62
     1
100
AcDbCircle
 10
34.712326
 20
106.305199
 30
0.0
 40
37.484901
100
AcDbArc
 50
0.0
 51
12.91
  0
ARC
  5
112
100
AcDbEntity
  8
ARMATUR
390
0
  6
DURCHGEHEND
 62
     1
100
AcDbCircle
 10
34.712326
 20
106.305199
 30
0.0
 40
37.484901
100
AcDbArc
 50
354.591003
 51
360.0
  0
ARC
  5
113
100
AcDbEntity
  8
ARMATUR
390
0
  6
DURCHGEHEND
 62
     1
100
AcDbCircle
 10
64.563179
 20
109.496735
 30
0.0
 40
11.234901
100
AcDbArc
 50
241.134003
 51
298.86499
  0
ARC
  5
114
100
AcDbEntity
  8
ARMATUR
390
0
  6
DURCHGEHEND
 62
     1
100
AcDbCircle
 10
64.563179
 20
113.147522
 30
0.0
 40
6.8599
100
AcDbArc
 50
12.91
 51
167.089996
  0
ARC
  5
115
100
AcDbEntity
  8
ARMATUR
390
0
  6
DURCHGEHEND
 62
     1
100
AcDbCircle
 10
61.063179
 20
103.147522
 30
0.0
 40
3.984901
100
AcDbArc
 50
185.408005
 51
241.134003
  0
ARC
  5
116
100
AcDbEntity
  8
ARMATUR
390
0
  6
DURCHGEHEND
 62
     1
100
AcDbCircle
 10
94.414047
 20
106.305199
 30
0.0
 40
37.484901
100
AcDbArc
 50
167.089996
 51
185.408997
  0
ARC
  5
117
100
AcDbEntity
  8
ARMATUR
390
0
  6
DURCHGEHEND
 62
     1
100
AcDbCircle
 10
68.063179
 20
103.147522
 30
0.0
 40
3.9849
100
AcDbArc
 50
298.865997
 51
354.59201
  0
ARC
  5
118
100
AcDbEntity
  8
ARMATUR
390
0
  6
DURCHGEHEND
 62
     1
100
AcDbCircle
 10
34.712326
 20
106.305199
 30
0.0
 40
38.244549
100
AcDbArc
 50
0.0
 51
12.91
  0
ARC
  5
119
100
AcDbEntity
  8
ARMATUR
390
0
  6
DURCHGEHEND
 62
     1
100
AcDbCircle
 10
34.712326
 20
106.305199
 30
0.0
 40
38.244549
100
AcDbArc
 50
354.591003
 51
360.0
  0
ARC
  5
11A
100
AcDbEntity
  8
ARMATUR
390
0
  6
DURCHGEHEND
 62
     1
100
AcDbCircle
 10
64.563179
 20
113.147522
 30
0.0
 40
7.619551
100
AcDbArc
 50
12.91
 51
167.089996
  0
ARC
  5
11B
100
AcDbEntity
  8
ARMATUR
390
0
  6
DURCHGEHEND
 62
     1
100
AcDbCircle
 10
68.063179
 20
103.147522
 30
0.0
 40
4.744551
100
AcDbArc
 50
298.865997
 51
354.59201
  0
ARC
  5
11C
100
AcDbEntity
  8
ARMATUR
390
0
  6
DURCHGEHEND
 62
     1
100
AcDbCircle
 10
94.414047
 20
106.305199
 30
0.0
 40
38.244545
100
AcDbArc
 50
167.089996
 51
185.408997
  0
ARC
  5
11D
100
AcDbEntity
  8
ARMATUR
390
0
  6
DURCHGEHEND
 62
     1
100
AcDbCircle
 10
64.563179
 20
109.496735
 30
0.0
 40
11.994549
100
AcDbArc
 50
241.134003
 51
298.86499
  0
ARC
  5
11E
100
AcDbEntity
  8
ARMATUR
390
0
  6
DURCHGEHEND
 62
     1
100
AcDbCircle
 10
61.063179
 20
103.147522
 30
0.0
 40
4.744549
100
AcDbArc
 50
185.408997
 51
241.134995
  0
LINE
  5
11F
100
AcDbEntity
  8
ARMATUR
390
0
  6
DURCHGEHEND
 62
     1
100
AcDbLine
 10
55.568863
 20
105.720169
 30
0.0
 11
54.343742
 21
106.619865
 31
0.0
  0
ARC
  5
120
100
AcDbEntity
  8
ARMATUR
390
0
  6
DURCHGEHEND
 62
     1
100
AcDbCircle
 10
55.063179
 20
108.147522
 30
0.0
 40
1.688576
100
AcDbArc
 50
121.573997
 51
244.781998
  0
POLYLINE
  5
121
100
AcDbEntity
  8
ARMATUR
390
0
  6
DURCHGEHEND
 62
     1
100
AcDb3dPolyline
 66
     1
 10
0.0
 20
0.0
 30
0.0
 70
    12
 75
     5
  0
VERTEX
  5
122
100
AcDbEntity
  8
0
390
0
100
AcDbVertex
100
AcDb3dPolylineVertex
 10
55.67083
 20
105.52372
 30
0.0
 70
    48
  0
VERTEX
  5
123
100
AcDbEntity
  8
0
390
0
100
AcDbVertex
100
AcDb3dPolylineVertex
 10
55.67083
 20
105.52372
 30
0.0
 70
    40
  0
VERTEX
  5
124
100
AcDbEntity
  8
0
390
0
100
AcDbVertex
100
AcDb3dPolylineVertex
 10
55.655067
 20
105.606163
 30
0.0
 70
    40
  0
VERTEX
  5
125
100
AcDbEntity
  8
0
390
0
100
AcDbVertex
100
AcDb3dPolylineVertex
 10
55.67083
 20
105.52372
 30
0.0
 70
    48
  0
VERTEX
  5
126
100
AcDbEntity
  8
0
390
0
100
AcDbVertex
100
AcDb3dPolylineVertex
 10
55.655067
 20
105.606163
 30
0.0
 70
    48
  0
VERTEX
  5
127
100
AcDbEntity
  8
0
390
0
100
AcDbVertex
100
AcDb3dPolylineVertex
 10
55.655067
 20
105.606163
 30
0.0
 70
    48
  0
VERTEX
  5
128
100
AcDbEntity
  8
0
390
0
100
AcDbVertex
100
AcDb3dPolylineVertex
 10
55.612915
 20
105.678741
 30
0.0
 70
    40
  0
VERTEX
  5
129
100
AcDbEntity
  8
0
390
0
100
AcDbVertex
100
AcDb3dPolylineVertex
 10
55.655067
 20
105.606163
 30
0.0
 70
    48
  0
VERTEX
  5
12A
100
AcDbEntity
  8
0
390
0
100
AcDbVertex
100
AcDb3dPolylineVertex
 10
55.612915
 20
105.678741
 30
0.0
 70
    48
  0
VERTEX
  5
12B
100
AcDbEntity
  8
0
390
0
100
AcDbVertex
100
AcDb3dPolylineVertex
 10
55.612915
 20
105.678741
 30
0.0
 70
    48
  0
VERTEX
  5
12C
100
AcDbEntity
  8
0
390
0
100
AcDbVertex
100
AcDb3dPolylineVertex
 10
55.568863
 20
105.720169
 30
0.0
 70
    40
  0
VERTEX
  5
12D
100
AcDbEntity
  8
0
390
0
100
AcDbVertex
100
AcDb3dPolylineVertex
 10
55.612915
 20
105.678741
 30
0.0
 70
    48
  0
VERTEX
  5
12E
100
AcDbEntity
  8
0
390
0
100
AcDbVertex
100
AcDb3dPolylineVertex
 10
55.568863
 20
105.720169
 30
0.0
 70
    48
  0
VERTEX
  5
12F
100
AcDbEntity
  8
0
390
0
100
AcDbVertex
100
AcDb3dPolylineVertex
 10
55.568863
 20
105.720169
 30
0.0
 70
    48
  0
SEQEND
  5
130
100
AcDbEntity
  8
0
390
0
  0
LINE
  5
131
100
AcDbEntity
  8
ARMATUR
390
0
  6
DURCHGEHEND
 62
     1
100
AcDbLine
 10
54.179031
 20
109.586128
 30
0.0
 11
55.803429
 21
110.584465
 31
0.0
  0
ARC
  5
132
100
AcDbEntity
  8
ARMATUR
390
0
  6
DURCHGEHEND
 62
     1
100
AcDbCircle
 10
74.063179
 20
108.147522
 30
0.0
 40
1.688576
100
AcDbArc
 50
0.0
 51
58.424999
  0
ARC
  5
133
100
AcDbEntity
  8
ARMATUR
390
0
  6
DURCHGEHEND
 62
     1
100
AcDbCircle
 10
74.063179
 20
108.147522
 30
0.0
 40
1.688576
100
AcDbArc
 50
305.371002
 51
360.0
  0
ARC
  5
134
100
AcDbEntity
  8
ARMATUR
390
0
  6
DURCHGEHEND
 62
     1
100
AcDbCircle
 10
34.712326
 20
106.305199
 30
0.0
 40
38.751076
100
AcDbArc
 50
6.614
 51
12.91
  0
POLYLINE
  5
135
100
AcDbEntity
  8
ARMATUR
390
0
  6
DURCHGEHEND
 62
     1
100
AcDb3dPolyline
 66
     1
 10
0.0
 20
0.0
 30
0.0
 70
    12
 75
     5
  0
VERTEX
  5
136
100
AcDbEntity
  8
0
390
0
100
AcDbVertex
100
AcDb3dPolylineVertex
 10
55.803429
 20
110.584465
 30
0.0
 70
    48
  0
VERTEX
  5
137
100
AcDbEntity
  8
0
390
0
100
AcDbVertex
100
AcDb3dPolylineVertex
 10
55.803429
 20
110.584465
 30
0.0
 70
    40
  0
VERTEX
  5
138
100
AcDbEntity
  8
0
390
0
100
AcDbVertex
100
AcDb3dPolylineVertex
 10
55.866547
 20
110.639793
 30
0.0
 70
    40
  0
VERTEX
  5
139
100
AcDbEntity
  8
0
390
0
100
AcDbVertex
100
AcDb3dPolylineVertex
 10
55.803429
 20
110.584465
 30
0.0
 70
    48
  0
VERTEX
  5
13A
100
AcDbEntity
  8
0
390
0
100
AcDbVertex
100
AcDb3dPolylineVertex
 10
55.866547
 20
110.639793
 30
0.0
 70
    48
  0
VERTEX
  5
13B
100
AcDbEntity
  8
0
390
0
100
AcDbVertex
100
AcDb3dPolylineVertex
 10
55.866547
 20
110.639793
 30
0.0
 70
    48
  0
VERTEX
  5
13C
100
AcDbEntity
  8
0
390
0
100
AcDbVertex
100
AcDb3dPolylineVertex
 10
55.907791
 20
110.712898
 30
0.0
 70
    40
  0
VERTEX
  5
13D
100
AcDbEntity
  8
0
390
0
100
AcDbVertex
100
AcDb3dPolylineVertex
 10
55.866547
 20
110.639793
 30
0.0
 70
    48
  0
VERTEX
  5
13E
100
AcDbEntity
  8
0
390
0
100
AcDbVertex
100
AcDb3dPolylineVertex
 10
55.907791
 20
110.712898
 30
0.0
 70
    48
  0
VERTEX
  5
13F
100
AcDbEntity
  8
0
390
0
100
AcDbVertex
100
AcDb3dPolylineVertex
 10
55.907791
 20
110.712898
 30
0.0
 70
    48
  0
VERTEX
  5
140
100
AcDbEntity
  8
0
390
0
100
AcDbVertex
100
AcDb3dPolylineVertex
 10
55.92086
 20
110.768654
 30
0.0
 70
    40
  0
VERTEX
  5
141
100
AcDbEntity
  8
0
390
0
100
AcDbVertex
100
AcDb3dPolylineVertex
 10
55.907791
 20
110.712898
 30
0.0
 70
    48
  0
VERTEX
  5
142
100
AcDbEntity
  8
0
390
0
100
AcDbVertex
100
AcDb3dPolylineVertex
 10
55.92086
 20
110.768654
 30
0.0
 70
    48
  0
VERTEX
  5
143
100
AcDbEntity
  8
0
390
0
100
AcDbVertex
100
AcDb3dPolylineVertex
 10
55.92086
 20
110.768654
 30
0.0
 70
    48
  0
SEQEND
  5
144
100
AcDbEntity
  8
0
390
0
  0
ARC
  5
145
100
AcDbEntity
  8
ARMATUR
390
0
  6
DURCHGEHEND
 62
     1
100
AcDbCircle
 10
68.063179
 20
103.147522
 30
0.0
 40
5.251076
100
AcDbArc
 50
298.865997
 51
354.59201
  0
ARC
  5
146
100
AcDbEntity
  8
ARMATUR
390
0
  6
DURCHGEHEND
 62
     1
100
AcDbCircle
 10
64.563179
 20
109.496735
 30
0.0
 40
12.501076
100
AcDbArc
 50
241.134003
 51
298.86499
  0
ARC
  5
147
100
AcDbEntity
  8
ARMATUR
390
0
  6
DURCHGEHEND
 62
     1
100
AcDbCircle
 10
64.563179
 20
113.147522
 30
0.0
 40
8.126076
100
AcDbArc
 50
12.91
 51
167.089996
  0
ARC
  5
148
100
AcDbEntity
  8
ARMATUR
390
0
  6
DURCHGEHEND
 62
     1
100
AcDbCircle
 10
94.414047
 20
106.305199
 30
0.0
 40
38.751076
100
AcDbArc
 50
181.156006
 51
185.408997
  0
LINE
  5
149
100
AcDbEntity
  8
ARMATUR
390
0
  6
DURCHGEHEND
 62
     1
100
AcDbLine
 10
75.040649
 20
106.770622
 30
0.0
 11
73.560707
 21
105.719994
 31
0.0
  0
LINE
  5
14A
100
AcDbEntity
  8
ARMATUR
390
0
  6
DURCHGEHEND
 62
     1
100
AcDbLine
 10
73.322922
 20
110.584465
 30
0.0
 11
74.947327
 21
109.586128
 31
0.0
  0
ARC
  5
14B
100
AcDbEntity
  8
ARMATUR
390
0
  6
DURCHGEHEND
 62
     1
100
AcDbCircle
 10
94.414047
 20
106.305199
 30
0.0
 40
38.751076
100
AcDbArc
 50
167.089996
 51
173.386002
  0
ARC
  5
14C
100
AcDbEntity
  8
ARMATUR
390
0
  6
DURCHGEHEND
 62
     1
100
AcDbCircle
 10
34.712326
 20
106.305199
 30
0.0
 40
38.751076
100
AcDbArc
 50
354.591003
 51
358.839996
  0
POLYLINE
  5
14D
100
AcDbEntity
  8
ARMATUR
390
0
  6
DURCHGEHEND
 62
     1
100
AcDb3dPolyline
 66
     1
 10
0.0
 20
0.0
 30
0.0
 70
    12
 75
     5
  0
VERTEX
  5
14E
100
AcDbEntity
  8
0
390
0
100
AcDbVertex
100
AcDb3dPolylineVertex
 10
73.560707
 20
105.719994
 30
0.0
 70
    48
  0
VERTEX
  5
14F
100
AcDbEntity
  8
0
390
0
100
AcDbVertex
100
AcDb3dPolylineVertex
 10
73.560707
 20
105.719994
 30
0.0
 70
    40
  0
VERTEX
  5
150
100
AcDbEntity
  8
0
390
0
100
AcDbVertex
100
AcDb3dPolylineVertex
 10
73.501389
 20
105.660606
 30
0.0
 70
    40
  0
VERTEX
  5
151
100
AcDbEntity
  8
0
390
0
100
AcDbVertex
100
AcDb3dPolylineVertex
 10
73.560707
 20
105.719994
 30
0.0
 70
    48
  0
VERTEX
  5
152
100
AcDbEntity
  8
0
390
0
100
AcDbVertex
100
AcDb3dPolylineVertex
 10
73.501389
 20
105.660606
 30
0.0
 70
    48
  0
VERTEX
  5
153
100
AcDbEntity
  8
0
390
0
100
AcDbVertex
100
AcDb3dPolylineVertex
 10
73.501389
 20
105.660606
 30
0.0
 70
    48
  0
VERTEX
  5
154
100
AcDbEntity
  8
0
390
0
100
AcDbVertex
100
AcDb3dPolylineVertex
 10
73.46508
 20
105.584938
 30
0.0
 70
    40
  0
VERTEX
  5
155
100
AcDbEntity
  8
0
390
0
100
AcDbVertex
100
AcDb3dPolylineVertex
 10
73.501389
 20
105.660606
 30
0.0
 70
    48
  0
VERTEX
  5
156
100
AcDbEntity
  8
0
390
0
100
AcDbVertex
100
AcDb3dPolylineVertex
 10
73.46508
 20
105.584938
 30
0.0
 70
    48
  0
VERTEX
  5
157
100
AcDbEntity
  8
0
390
0
100
AcDbVertex
100
AcDb3dPolylineVertex
 10
73.46508
 20
105.584938
 30
0.0
 70
    48
  0
VERTEX
  5
158
100
AcDbEntity
  8
0
390
0
100
AcDbVertex
100
AcDb3dPolylineVertex
 10
73.455482
 20
105.52121
 30
0.0
 70
    40
  0
VERTEX
  5
159
100
AcDbEntity
  8
0
390
0
100
AcDbVertex
100
AcDb3dPolylineVertex
 10
73.46508
 20
105.584938
 30
0.0
 70
    48
  0
VERTEX
  5
15A
100
AcDbEntity
  8
0
390
0
100
AcDbVertex
100
AcDb3dPolylineVertex
 10
73.455482
 20
105.52121
 30
0.0
 70
    48
  0
VERTEX
  5
15B
100
AcDbEntity
  8
0
390
0
100
AcDbVertex
100
AcDb3dPolylineVertex
 10
73.455482
 20
105.52121
 30
0.0
 70
    48
  0
SEQEND
  5
15C
100
AcDbEntity
  8
0
390
0
  0
POLYLINE
  5
15D
100
AcDbEntity
  8
ARMATUR
390
0
  6
DURCHGEHEND
 62
     1
100
AcDb3dPolyline
 66
     1
 10
0.0
 20
0.0
 30
0.0
 70
    12
 75
     5
  0
VERTEX
  5
15E
100
AcDbEntity
  8
0
390
0
100
AcDbVertex
100
AcDb3dPolylineVertex
 10
73.205498
 20
110.768654
 30
0.0
 70
    48
  0
VERTEX
  5
15F
100
AcDbEntity
  8
0
390
0
100
AcDbVertex
100
AcDb3dPolylineVertex
 10
73.205498
 20
110.768654
 30
0.0
 70
    40
  0
VERTEX
  5
160
100
AcDbEntity
  8
0
390
0
100
AcDbVertex
100
AcDb3dPolylineVertex
 10
73.229027
 20
110.68808
 30
0.0
 70
    40
  0
VERTEX
  5
161
100
AcDbEntity
  8
0
390
0
100
AcDbVertex
100
AcDb3dPolylineVertex
 10
73.205498
 20
110.768654
 30
0.0
 70
    48
  0
VERTEX
  5
162
100
AcDbEntity
  8
0
390
0
100
AcDbVertex
100
AcDb3dPolylineVertex
 10
73.229027
 20
110.68808
 30
0.0
 70
    48
  0
VERTEX
  5
163
100
AcDbEntity
  8
0
390
0
100
AcDbVertex
100
AcDb3dPolylineVertex
 10
73.229027
 20
110.68808
 30
0.0
 70
    48
  0
VERTEX
  5
164
100
AcDbEntity
  8
0
390
0
100
AcDbVertex
100
AcDb3dPolylineVertex
 10
73.277893
 20
110.619835
 30
0.0
 70
    40
  0
VERTEX
  5
165
100
AcDbEntity
  8
0
390
0
100
AcDbVertex
100
AcDb3dPolylineVertex
 10
73.229027
 20
110.68808
 30
0.0
 70
    48
  0
VERTEX
  5
166
100
AcDbEntity
  8
0
390
0
100
AcDbVertex
100
AcDb3dPolylineVertex
 10
73.277893
 20
110.619835
 30
0.0
 70
    48
  0
VERTEX
  5
167
100
AcDbEntity
  8
0
390
0
100
AcDbVertex
100
AcDb3dPolylineVertex
 10
73.277893
 20
110.619835
 30
0.0
 70
    48
  0
VERTEX
  5
168
100
AcDbEntity
  8
0
390
0
100
AcDbVertex
100
AcDb3dPolylineVertex
 10
73.322929
 20
110.584465
 30
0.0
 70
    40
  0
VERTEX
  5
169
100
AcDbEntity
  8
0
390
0
100
AcDbVertex
100
AcDb3dPolylineVertex
 10
73.277893
 20
110.619835
 30
0.0
 70
    48
  0
VERTEX
  5
16A
100
AcDbEntity
  8
0
390
0
100
AcDbVertex
100
AcDb3dPolylineVertex
 10
73.322929
 20
110.584465
 30
0.0
 70
    48
  0
VERTEX
  5
16B
100
AcDbEntity
  8
0
390
0
100
AcDbVertex
100
AcDb3dPolylineVertex
 10
73.322929
 20
110.584465
 30
0.0
 70
    48
  0
SEQEND
  5
16C
100
AcDbEntity
  8
0
390
0
  0
ARC
  5
16D
100
AcDbEntity
  8
ARMATUR
390
0
  6
DURCHGEHEND
 62
     1
100
AcDbCircle
 10
61.063179
 20
103.147522
 30
0.0
 40
5.251076
100
AcDbArc
 50
185.408997
 51
241.134995
  0
LINE
  5
16E
100
AcDbEntity
  8
ARMATUR
390
0
  6
DURCHGEHEND
 62
     1
100
AcDbLine
 10
73.458725
 20
105.519501
 30
0.0
 11
73.455475
 21
105.52121
 31
0.0
  0
LINE
  5
16F
100
AcDbEntity
  8
ARMATUR
390
0
  6
DURCHGEHEND
 62
     1
100
AcDbLine
 10
73.560707
 20
105.719994
 30
0.0
 11
73.56395
 21
105.718277
 31
0.0
  0
POLYLINE
  5
170
100
AcDbEntity
  8
ARMATUR
390
0
  6
DURCHGEHEND
 62
     1
100
AcDb3dPolyline
 66
     1
 10
0.0
 20
0.0
 30
0.0
 70
    12
 75
     5
  0
VERTEX
  5
171
100
AcDbEntity
  8
0
390
0
100
AcDbVertex
100
AcDb3dPolylineVertex
 10
55.66758
 20
105.522041
 30
0.0
 70
    48
  0
VERTEX
  5
172
100
AcDbEntity
  8
0
390
0
100
AcDbVertex
100
AcDb3dPolylineVertex
 10
55.66758
 20
105.522041
 30
0.0
 70
    40
  0
VERTEX
  5
173
100
AcDbEntity
  8
0
390
0
100
AcDbVertex
100
AcDb3dPolylineVertex
 10
55.651817
 20
105.604485
 30
0.0
 70
    40
  0
VERTEX
  5
174
100
AcDbEntity
  8
0
390
0
100
AcDbVertex
100
AcDb3dPolylineVertex
 10
55.66758
 20
105.522041
 30
0.0
 70
    48
  0
VERTEX
  5
175
100
AcDbEntity
  8
0
390
0
100
AcDbVertex
100
AcDb3dPolylineVertex
 10
55.651817
 20
105.604485
 30
0.0
 70
    48
  0
VERTEX
  5
176
100
AcDbEntity
  8
0
390
0
100
AcDbVertex
100
AcDb3dPolylineVertex
 10
55.651817
 20
105.604485
 30
0.0
 70
    48
  0
VERTEX
  5
177
100
AcDbEntity
  8
0
390
0
100
AcDbVertex
100
AcDb3dPolylineVertex
 10
55.60965
 20
105.677071
 30
0.0
 70
    40
  0
VERTEX
  5
178
100
AcDbEntity
  8
0
390
0
100
AcDbVertex
100
AcDb3dPolylineVertex
 10
55.651817
 20
105.604485
 30
0.0
 70
    48
  0
VERTEX
  5
179
100
AcDbEntity
  8
0
390
0
100
AcDbVertex
100
AcDb3dPolylineVertex
 10
55.60965
 20
105.677071
 30
0.0
 70
    48
  0
VERTEX
  5
17A
100
AcDbEntity
  8
0
390
0
100
AcDbVertex
100
AcDb3dPolylineVertex
 10
55.60965
 20
105.677071
 30
0.0
 70
    48
  0
VERTEX
  5
17B
100
AcDbEntity
  8
0
390
0
100
AcDbVertex
100
AcDb3dPolylineVertex
 10
55.565613
 20
105.718483
 30
0.0
 70
    40
  0
VERTEX
  5
17C
100
AcDbEntity
  8
0
390
0
100
AcDbVertex
100
AcDb3dPolylineVertex
 10
55.60965
 20
105.677071
 30
0.0
 70
    48
  0
VERTEX
  5
17D
100
AcDbEntity
  8
0
390
0
100
AcDbVertex
100
AcDb3dPolylineVertex
 10
55.565613
 20
105.718483
 30
0.0
 70
    48
  0
VERTEX
  5
17E
100
AcDbEntity
  8
0
390
0
100
AcDbVertex
100
AcDb3dPolylineVertex
 10
55.565613
 20
105.718483
 30
0.0
 70
    48
  0
SEQEND
  5
17F
100
AcDbEntity
  8
0
390
0
  0
POLYLINE
  5
180
100
AcDbEntity
  8
ARMATUR
390
0
  6
DURCHGEHEND
 62
     1
100
AcDb3dPolyline
 66
     1
 10
0.0
 20
0.0
 30
0.0
 70
    12
 75
     5
  0
VERTEX
  5
181
100
AcDbEntity
  8
0
390
0
100
AcDbVertex
100
AcDb3dPolylineVertex
 10
73.208572
 20
110.770607
 30
0.0
 70
    48
  0
VERTEX
  5
182
100
AcDbEntity
  8
0
390
0
100
AcDbVertex
100
AcDb3dPolylineVertex
 10
73.208572
 20
110.770607
 30
0.0
 70
    40
  0
VERTEX
  5
183
100
AcDbEntity
  8
0
390
0
100
AcDbVertex
100
AcDb3dPolylineVertex
 10
73.232109
 20
110.690025
 30
0.0
 70
    40
  0
VERTEX
  5
184
100
AcDbEntity
  8
0
390
0
100
AcDbVertex
100
AcDb3dPolylineVertex
 10
73.208572
 20
110.770607
 30
0.0
 70
    48
  0
VERTEX
  5
185
100
AcDbEntity
  8
0
390
0
100
AcDbVertex
100
AcDb3dPolylineVertex
 10
73.232109
 20
110.690025
 30
0.0
 70
    48
  0
VERTEX
  5
186
100
AcDbEntity
  8
0
390
0
100
AcDbVertex
100
AcDb3dPolylineVertex
 10
73.232109
 20
110.690025
 30
0.0
 70
    48
  0
VERTEX
  5
187
100
AcDbEntity
  8
0
390
0
100
AcDbVertex
100
AcDb3dPolylineVertex
 10
73.280983
 20
110.621788
 30
0.0
 70
    40
  0
VERTEX
  5
188
100
AcDbEntity
  8
0
390
0
100
AcDbVertex
100
AcDb3dPolylineVertex
 10
73.232109
 20
110.690025
 30
0.0
 70
    48
  0
VERTEX
  5
189
100
AcDbEntity
  8
0
390
0
100
AcDbVertex
100
AcDb3dPolylineVertex
 10
73.280983
 20
110.621788
 30
0.0
 70
    48
  0
VERTEX
  5
18A
100
AcDbEntity
  8
0
390
0
100
AcDbVertex
100
AcDb3dPolylineVertex
 10
73.280983
 20
110.621788
 30
0.0
 70
    48
  0
VERTEX
  5
18B
100
AcDbEntity
  8
0
390
0
100
AcDbVertex
100
AcDb3dPolylineVertex
 10
73.326004
 20
110.586426
 30
0.0
 70
    40
  0
VERTEX
  5
18C
100
AcDbEntity
  8
0
390
0
100
AcDbVertex
100
AcDb3dPolylineVertex
 10
73.280983
 20
110.621788
 30
0.0
 70
    48
  0
VERTEX
  5
18D
100
AcDbEntity
  8
0
390
0
100
AcDbVertex
100
AcDb3dPolylineVertex
 10
73.326004
 20
110.586426
 30
0.0
 70
    48
  0
VERTEX
  5
18E
100
AcDbEntity
  8
0
390
0
100
AcDbVertex
100
AcDb3dPolylineVertex
 10
73.326004
 20
110.586426
 30
0.0
 70
    48
  0
SEQEND
  5
18F
100
AcDbEntity
  8
0
390
0
  0
LINE
  5
190
100
AcDbEntity
  8
ARMATUR
390
0
  6
DURCHGEHEND
 62
     1
100
AcDbLine
 10
73.326004
 20
110.586426
 30
0.0
 11
73.322922
 21
110.584465
 31
0.0
  0
LINE
  5
191
100
AcDbEntity
  8
ARMATUR
390
0
  6
DURCHGEHEND
 62
     1
100
AcDbLine
 10
73.205498
 20
110.768654
 30
0.0
 11
73.208572
 21
110.770607
 31
0.0
  0
LINE
  5
192
100
AcDbEntity
  8
ARMATUR
390
0
  6
DURCHGEHEND
 62
     1
100
AcDbLine
 10
74.949043
 20
109.588921
 30
0.0
 11
73.326004
 21
110.586426
 31
0.0
  0
LINE
  5
193
100
AcDbEntity
  8
ARMATUR
390
0
  6
DURCHGEHEND
 62
     1
100
AcDbLine
 10
74.949043
 20
109.588921
 30
0.0
 11
74.947327
 21
109.586128
 31
0.0
  0
ARC
  5
194
100
AcDbEntity
  8
ARMATUR
390
0
  6
DURCHGEHEND
 62
     1
100
AcDbCircle
 10
34.712326
 20
106.305199
 30
0.0
 40
38.754375
100
AcDbArc
 50
6.616
 51
12.91
  0
LINE
  5
195
100
AcDbEntity
  8
ARMATUR
390
0
  6
DURCHGEHEND
 62
     1
100
AcDbLine
 10
54.563179
 20
108.436195
 30
0.0
 11
55.063179
 21
108.724876
 31
0.0
  0
LINE
  5
196
100
AcDbEntity
  8
ARMATUR
390
0
  6
DURCHGEHEND
 62
     1
100
AcDbLine
 10
54.563179
 20
108.436195
 30
0.0
 11
54.563179
 21
107.858849
 31
0.0
  0
LINE
  5
197
100
AcDbEntity
  8
ARMATUR
390
0
  6
DURCHGEHEND
 62
     1
100
AcDbLine
 10
54.563179
 20
107.858849
 30
0.0
 11
55.063179
 21
107.570168
 31
0.0
  0
LINE
  5
198
100
AcDbEntity
  8
ARMATUR
390
0
  6
DURCHGEHEND
 62
     1
100
AcDbLine
 10
55.563179
 20
107.858849
 30
0.0
 11
55.063179
 21
107.570168
 31
0.0
  0
LINE
  5
199
100
AcDbEntity
  8
ARMATUR
390
0
  6
DURCHGEHEND
 62
     1
100
AcDbLine
 10
55.563179
 20
108.436195
 30
0.0
 11
55.563179
 21
107.858849
 31
0.0
  0
LINE
  5
19A
100
AcDbEntity
  8
ARMATUR
390
0
  6
DURCHGEHEND
 62
     1
100
AcDbLine
 10
55.563179
 20
108.436195
 30
0.0
 11
55.063179
 21
108.724876
 31
0.0
  0
CIRCLE
  5
19B
100
AcDbEntity
  8
ARMATUR
390
0
  6
DURCHGEHEND
 62
     1
100
AcDbCircle
 10
55.063179
 20
108.147522
 30
0.0
 40
1.0625
  0
CIRCLE
  5
19C
100
AcDbEntity
  8
ARMATUR
390
0
  6
DURCHGEHEND
 62
     1
100
AcDbCircle
 10
74.063179
 20
108.147522
 30
0.0
 40
1.0625
  0
LINE
  5
19D
100
AcDbEntity
  8
ARMATUR
390
0
  6
DURCHGEHEND
 62
     1
100
AcDbLine
 10
73.563179
 20
108.436195
 30
0.0
 11
74.063179
 21
108.724876
 31
0.0
  0
LINE
  5
19E
100
AcDbEntity
  8
ARMATUR
390
0
  6
DURCHGEHEND
 62
     1
100
AcDbLine
 10
73.563179
 20
108.436195
 30
0.0
 11
73.563179
 21
107.858849
 31
0.0
  0
LINE
  5
19F
100
AcDbEntity
  8
ARMATUR
390
0
  6
DURCHGEHEND
 62
     1
100
AcDbLine
 10
73.563179
 20
107.858849
 30
0.0
 11
74.063179
 21
107.570168
 31
0.0
  0
LINE
  5
1A0
100
AcDbEntity
  8
ARMATUR
390
0
  6
DURCHGEHEND
 62
     1
100
AcDbLine
 10
74.563179
 20
107.858849
 30
0.0
 11
74.063179
 21
107.570168
 31
0.0
  0
LINE
  5
1A1
100
AcDbEntity
  8
ARMATUR
390
0
  6
DURCHGEHEND
 62
     1
100
AcDbLine
 10
74.563179
 20
108.436195
 30
0.0
 11
74.563179
 21
107.858849
 31
0.0
  0
LINE
  5
1A2
100
AcDbEntity
  8
ARMATUR
390
0
  6
DURCHGEHEND
 62
     1
100
AcDbLine
 10
74.563179
 20
108.436195
 30
0.0
 11
74.063179
 21
108.724876
 31
0.0
  0
ARC
  5
1A3
100
AcDbEntity
  8
ARMATUR
390
0
  6
DURCHGEHEND
 62
     1
100
AcDbCircle
 10
70.438179
 20
124.435768
 30
0.0
 40
0.625
100
AcDbArc
 50
0.0
 51
180.0
  0
ARC
  5
1A4
100
AcDbEntity
  8
ARMATUR
390
0
  6
DURCHGEHEND
 62
     3
100
AcDbCircle
 10
70.438179
 20
124.435768
 30
0.0
 40
0.625
100
AcDbArc
 50
180.0
 51
360.0
  0
ARC
  5
1A5
100
AcDbEntity
  8
ARMATUR
390
0
  6
DURCHGEHEND
 62
     1
100
AcDbCircle
 10
70.438179
 20
124.435768
 30
0.0
 40
1.625
100
AcDbArc
 50
0.0
 51
84.681999
  0
ARC
  5
1A6
100
AcDbEntity
  8
ARMATUR
390
0
  6
DURCHGEHEND
 62
     1
100
AcDbCircle
 10
70.438179
 20
124.435768
 30
0.0
 40
1.625
100
AcDbArc
 50
295.459015
 51
360.0
  0
ARC
  5
1A7
100
AcDbEntity
  8
ARMATUR
390
0
  6
DURCHGEHEND
 62
     1
100
AcDbCircle
 10
70.438179
 20
124.435768
 30
0.0
 40
1.625
100
AcDbArc
 50
0.0
 51
180.0
  0
ARC
  5
1A8
100
AcDbEntity
  8
ARMATUR
390
0
  6
DURCHGEHEND
 62
     3
100
AcDbCircle
 10
70.438179
 20
124.435768
 30
0.0
 40
1.625
100
AcDbArc
 50
180.0
 51
360.0
  0
LINE
  5
1A9
100
AcDbEntity
  8
ARMATUR
390
0
  6
DURCHGEHEND
 62
     1
100
AcDbLine
 10
60.313179
 20
96.85463
 30
0.0
 11
56.563179
 21
96.85463
 31
0.0
  0
LINE
  5
1AA
100
AcDbEntity
  8
ARMATUR
390
0
  6
DURCHGEHEND
 62
     1
100
AcDbLine
 10
72.563179
 20
96.85463
 30
0.0
 11
68.813179
 21
96.85463
 31
0.0
  0
LINE
  5
1AB
100
AcDbEntity
  8
ARMATUR
390
0
  6
_GESTRICHELT
 62
     5
100
AcDbLine
 10
57.84819
 20
96.854637
 30
0.0
 11
57.84819
 21
91.897514
 31
0.0
  0
LINE
  5
1AC
100
AcDbEntity
  8
ARMATUR
390
0
  6
_GESTRICHELT
 62
     5
100
AcDbLine
 10
62.505798
 20
96.854637
 30
0.0
 11
62.505798
 21
91.897514
 31
0.0
  0
LINE
  5
1AD
100
AcDbEntity
  8
ARMATUR
390
0
  6
_GESTRICHELT
 62
     5
100
AcDbLine
 10
70.962204
 20
96.854637
 30
0.0
 11
70.962204
 21
91.897514
 31
0.0
  0
LINE
  5
1AE
100
AcDbEntity
  8
ARMATUR
390
0
  6
_GESTRICHELT
 62
     5
100
AcDbLine
 10
66.304596
 20
96.854637
 30
0.0
 11
66.304596
 21
91.897514
 31
0.0
  0
CIRCLE
  5
1AF
100
AcDbEntity
  8
ARMATUR
390
0
  6
DURCHGEHEND
 62
     3
100
AcDbCircle
 10
64.508011
 20
109.282646
 30
0.0
 40
15.5
  0
LINE
  5
1B0
100
AcDbEntity
  8
ARMATUR
390
0
  6
DURCHGEHEND
 62
     1
100
AcDbLine
 10
68.816803
 20
121.937996
 30
0.0
 11
71.136711
 21
122.968567
 31
0.0
  0
LINE
  5
1B1
100
AcDbEntity
  8
ARMATUR
390
0
  6
DURCHGEHEND
 62
     1
100
AcDbLine
 10
60.028107
 20
126.828125
 30
0.0
 11
58.247208
 21
126.036995
 31
0.0
  0
POLYLINE
  5
1B2
100
AcDbEntity
  8
ARMATUR
390
0
  6
DURCHGEHEND
 62
     1
100
AcDb3dPolyline
 66
     1
 10
0.0
 20
0.0
 30
0.0
 70
    12
 75
     5
  0
VERTEX
  5
1B3
100
AcDbEntity
  8
0
390
0
100
AcDbVertex
100
AcDb3dPolylineVertex
 10
60.028107
 20
126.828125
 30
0.0
 70
    48
  0
VERTEX
  5
1B4
100
AcDbEntity
  8
0
390
0
100
AcDbVertex
100
AcDb3dPolylineVertex
 10
60.028107
 20
126.828125
 30
0.0
 70
    40
  0
VERTEX
  5
1B5
100
AcDbEntity
  8
0
390
0
100
AcDbVertex
100
AcDb3dPolylineVertex
 10
60.119339
 20
126.864433
 30
0.0
 70
    40
  0
VERTEX
  5
1B6
100
AcDbEntity
  8
0
390
0
100
AcDbVertex
100
AcDb3dPolylineVertex
 10
60.028107
 20
126.828125
 30
0.0
 70
    48
  0
VERTEX
  5
1B7
100
AcDbEntity
  8
0
390
0
100
AcDbVertex
100
AcDb3dPolylineVertex
 10
60.119339
 20
126.864433
 30
0.0
 70
    48
  0
VERTEX
  5
1B8
100
AcDbEntity
  8
0
390
0
100
AcDbVertex
100
AcDb3dPolylineVertex
 10
60.119339
 20
126.864433
 30
0.0
 70
    48
  0
VERTEX
  5
1B9
100
AcDbEntity
  8
0
390
0
100
AcDbVertex
100
AcDb3dPolylineVertex
 10
60.21315
 20
126.893471
 30
0.0
 70
    40
  0
VERTEX
  5
1BA
100
AcDbEntity
  8
0
390
0
100
AcDbVertex
100
AcDb3dPolylineVertex
 10
60.119339
 20
126.864433
 30
0.0
 70
    48
  0
VERTEX
  5
1BB
100
AcDbEntity
  8
0
390
0
100
AcDbVertex
100
AcDb3dPolylineVertex
 10
60.21315
 20
126.893471
 30
0.0
 70
    48
  0
VERTEX
  5
1BC
100
AcDbEntity
  8
0
390
0
100
AcDbVertex
100
AcDb3dPolylineVertex
 10
60.21315
 20
126.893471
 30
0.0
 70
    48
  0
VERTEX
  5
1BD
100
AcDbEntity
  8
0
390
0
100
AcDbVertex
100
AcDb3dPolylineVertex
 10
60.308945
 20
126.915047
 30
0.0
 70
    40
  0
VERTEX
  5
1BE
100
AcDbEntity
  8
0
390
0
100
AcDbVertex
100
AcDb3dPolylineVertex
 10
60.21315
 20
126.893471
 30
0.0
 70
    48
  0
VERTEX
  5
1BF
100
AcDbEntity
  8
0
390
0
100
AcDbVertex
100
AcDb3dPolylineVertex
 10
60.308945
 20
126.915047
 30
0.0
 70
    48
  0
VERTEX
  5
1C0
100
AcDbEntity
  8
0
390
0
100
AcDbVertex
100
AcDb3dPolylineVertex
 10
60.308945
 20
126.915047
 30
0.0
 70
    48
  0
SEQEND
  5
1C1
100
AcDbEntity
  8
0
390
0
  0
LINE
  5
1C2
100
AcDbEntity
  8
ARMATUR
390
0
  6
DURCHGEHEND
 62
     1
100
AcDbLine
 10
58.247208
 20
126.036995
 30
0.0
 11
57.985718
 21
125.92083
 31
0.0
  0
ARC
  5
1C3
100
AcDbEntity
  8
ARMATUR
390
0
  6
DURCHGEHEND
 62
     3
100
AcDbCircle
 10
58.645424
 20
124.435768
 30
0.0
 40
0.625
100
AcDbArc
 50
0.0
 51
180.0
  0
ARC
  5
1C4
100
AcDbEntity
  8
ARMATUR
390
0
  6
DURCHGEHEND
 62
     1
100
AcDbCircle
 10
58.645424
 20
124.435768
 30
0.0
 40
0.625
100
AcDbArc
 50
180.0
 51
360.0
  0
ARC
  5
1C5
100
AcDbEntity
  8
ARMATUR
390
0
  6
DURCHGEHEND
 62
     1
100
AcDbCircle
 10
58.645424
 20
124.435768
 30
0.0
 40
1.625
100
AcDbArc
 50
95.317993
 51
244.540985
  0
ARC
  5
1C6
100
AcDbEntity
  8
ARMATUR
390
0
  6
DURCHGEHEND
 62
     3
100
AcDbCircle
 10
58.645424
 20
124.435768
 30
0.0
 40
1.625
100
AcDbArc
 50
0.0
 51
180.0
  0
ARC
  5
1C7
100
AcDbEntity
  8
ARMATUR
390
0
  6
DURCHGEHEND
 62
     1
100
AcDbCircle
 10
58.645424
 20
124.435768
 30
0.0
 40
1.625
100
AcDbArc
 50
180.0
 51
360.0
  0
LINE
  5
1C8
100
AcDbEntity
  8
ARMATUR
390
0
  6
DURCHGEHEND
 62
     1
100
AcDbLine
 10
60.2668
 20
121.937996
 30
0.0
 11
57.946892
 21
122.968567
 31
0.0
  0
LINE
  5
1C9
100
AcDbEntity
  8
ARMATUR
390
0
  6
DURCHGEHEND
 62
     1
100
AcDbLine
 10
60.313179
 20
129.437866
 30
0.0
 11
68.813179
 21
129.437866
 31
0.0
  0
LINE
  5
1CA
100
AcDbEntity
  8
ARMATUR
390
0
  6
DURCHGEHEND
 62
     1
100
AcDbLine
 10
56.442665
 20
114.06205
 30
0.0
 11
54.658005
 21
113.576637
 31
0.0
  0
LINE
  5
1CB
100
AcDbEntity
  8
ARMATUR
390
0
  6
DURCHGEHEND
 62
     1
100
AcDbLine
 10
54.750679
 20
110.418251
 30
0.0
 11
55.21032
 21
110.321777
 31
0.0
  0
LINE
  5
1CC
100
AcDbEntity
  8
ARMATUR
390
0
  6
DURCHGEHEND
 62
     1
100
AcDbLine
 10
73.958664
 20
110.321785
 30
0.0
 11
74.418297
 21
110.418251
 31
0.0
  0
LINE
  5
1CD
100
AcDbEntity
  8
ARMATUR
390
0
  6
DURCHGEHEND
 62
     1
100
AcDbLine
 10
74.510979
 20
113.576637
 30
0.0
 11
72.726311
 21
114.062042
 31
0.0
  0
ARC
  5
1CE
100
AcDbEntity
  8
ARMATUR
390
0
  6
DURCHGEHEND
 62
     1
100
AcDbCircle
 10
55.084496
 20
112.008598
 30
0.0
 40
1.625
100
AcDbArc
 50
43.361
 51
279.230988
  0
CIRCLE
  5
1CF
100
AcDbEntity
  8
ARMATUR
390
0
  6
DURCHGEHEND
 62
     1
100
AcDbCircle
 10
55.084496
 20
112.008598
 30
0.0
 40
0.625
  0
CIRCLE
  5
1D0
100
AcDbEntity
  8
ARMATUR
390
0
  6
DURCHGEHEND
 62
     1
100
AcDbCircle
 10
74.084488
 20
112.008598
 30
0.0
 40
0.625
  0
ARC
  5
1D1
100
AcDbEntity
  8
ARMATUR
390
0
  6
DURCHGEHEND
 62
     1
100
AcDbCircle
 10
74.084488
 20
112.008598
 30
0.0
 40
1.625
100
AcDbArc
 50
0.0
 51
136.639999
  0
ARC
  5
1D2
100
AcDbEntity
  8
ARMATUR
390
0
  6
DURCHGEHEND
 62
     1
100
AcDbCircle
 10
74.084488
 20
112.008598
 30
0.0
 40
1.625
100
AcDbArc
 50
260.769989
 51
360.0
  0
ARC
  5
1D3
100
AcDbEntity
  8
ARMATUR
390
0
  6
STRICHPUNKTIERT
 62
     7
100
AcDbCircle
 10
78.041801
 20
91.323044
 30
0.0
 40
1.5
100
AcDbArc
 50
270.0
 51
360.0
  0
LINE
  5
1D4
100
AcDbEntity
  8
ARMATUR
390
0
  6
STRICHPUNKTIERT
 62
     7
100
AcDbLine
 10
78.041801
 20
89.823044
 30
0.0
 11
64.541801
 21
89.823044
 31
0.0
  0
LINE
  5
1D5
100
AcDbEntity
  8
ARMATUR
390
0
  6
STRICHPUNKTIERT
 62
     7
100
AcDbLine
 10
79.541801
 20
116.823044
 30
0.0
 11
79.541801
 21
91.323044
 31
0.0
  0
LINE
  5
1D6
100
AcDbEntity
  8
ARMATUR
390
0
  6
STRICHPUNKTIERT
 62
     7
100
AcDbLine
 10
76.091805
 20
121.92305
 30
0.0
 11
79.241798
 21
117.723053
 31
0.0
  0
ARC
  5
1D7
100
AcDbEntity
  8
ARMATUR
390
0
  6
STRICHPUNKTIERT
 62
     7
100
AcDbCircle
 10
78.041801
 20
116.823044
 30
0.0
 40
1.5
100
AcDbArc
 50
0.0
 51
36.869995
  0
ARC
  5
1D8
100
AcDbEntity
  8
ARMATUR
390
0
  6
STRICHPUNKTIERT
 62
     7
100
AcDbCircle
 10
77.291801
 20
122.823044
 30
0.0
 40
1.5
100
AcDbArc
 50
180.0
 51
216.869995
  0
LINE
  5
1D9
100
AcDbEntity
  8
ARMATUR
390
0
  6
STRICHPUNKTIERT
 62
     7
100
AcDbLine
 10
75.791801
 20
130.552032
 30
0.0
 11
75.791801
 21
127.06385
 31
0.0
  0
LINE
  5
1DA
100
AcDbEntity
  8
ARMATUR
390
0
  6
STRICHPUNKTIERT
 62
     7
100
AcDbLine
 10
75.791801
 20
127.210564
 30
0.0
 11
75.791801
 21
122.823044
 31
0.0
  0
LINE
  5
1DB
100
AcDbEntity
  8
ARMATUR
390
0
  6
STRICHPUNKTIERT
 62
     7
100
AcDbLine
 10
64.541801
 20
132.09198
 30
0.0
 11
74.291801
 21
132.09198
 31
0.0
  0
ARC
  5
1DC
100
AcDbEntity
  8
ARMATUR
390
0
  6
STRICHPUNKTIERT
 62
     7
100
AcDbCircle
 10
74.291801
 20
130.59198
 30
0.0
 40
1.5
100
AcDbArc
 50
0.0
 51
90.0
  0
LINE
  5
1DD
100
AcDbEntity
  8
ARMATUR
390
0
  6
STRICHPUNKTIERT
 62
     7
100
AcDbLine
 10
68.916801
 20
132.09198
 30
0.0
 11
64.541801
 21
132.09198
 31
0.0
  0
LINE
  5
1DE
100
AcDbEntity
  8
ARMATUR
390
0
  6
STRICHPUNKTIERT
 62
     7
100
AcDbLine
 10
69.880516
 20
89.823044
 30
0.0
 11
72.166801
 21
89.823044
 31
0.0
  0
LINE
  5
1DF
100
AcDbEntity
  8
ARMATUR
390
0
  6
STRICHPUNKTIERT
 62
     7
100
AcDbLine
 10
69.570816
 20
89.823044
 30
0.0
 11
69.880508
 21
89.823044
 31
0.0
  0
LINE
  5
1E0
100
AcDbEntity
  8
ARMATUR
390
0
  6
STRICHPUNKTIERT
 62
     7
100
AcDbLine
 10
64.541801
 20
89.823044
 30
0.0
 11
51.041801
 21
89.823044
 31
0.0
  0
ARC
  5
1E1
100
AcDbEntity
  8
ARMATUR
390
0
  6
STRICHPUNKTIERT
 62
     7
100
AcDbCircle
 10
51.041801
 20
91.323044
 30
0.0
 40
1.5
100
AcDbArc
 50
180.0
 51
270.0
  0
LINE
  5
1E2
100
AcDbEntity
  8
ARMATUR
390
0
  6
STRICHPUNKTIERT
 62
     7
100
AcDbLine
 10
49.541801
 20
116.823044
 30
0.0
 11
49.541801
 21
91.323044
 31
0.0
  0
LINE
  5
1E3
100
AcDbEntity
  8
ARMATUR
390
0
  6
STRICHPUNKTIERT
 62
     7
100
AcDbLine
 10
52.991798
 20
121.92305
 30
0.0
 11
49.841805
 21
117.723053
 31
0.0
  0
ARC
  5
1E4
100
AcDbEntity
  8
ARMATUR
390
0
  6
STRICHPUNKTIERT
 62
     7
100
AcDbCircle
 10
51.041801
 20
116.823044
 30
0.0
 40
1.5
100
AcDbArc
 50
143.130005
 51
180.0
  0
ARC
  5
1E5
100
AcDbEntity
  8
ARMATUR
390
0
  6
STRICHPUNKTIERT
 62
     7
100
AcDbCircle
 10
51.791801
 20
122.823044
 30
0.0
 40
1.5
100
AcDbArc
 50
323.130005
 51
360.0
  0
LINE
  5
1E6
100
AcDbEntity
  8
ARMATUR
390
0
  6
STRICHPUNKTIERT
 62
     7
100
AcDbLine
 10
53.291801
 20
130.552032
 30
0.0
 11
53.291801
 21
122.823044
 31
0.0
  0
ARC
  5
1E7
100
AcDbEntity
  8
ARMATUR
390
0
  6
STRICHPUNKTIERT
 62
     7
100
AcDbCircle
 10
54.791801
 20
130.59198
 30
0.0
 40
1.5
100
AcDbArc
 50
90.0
 51
180.0
  0
LINE
  5
1E8
100
AcDbEntity
  8
ARMATUR
390
0
  6
STRICHPUNKTIERT
 62
     7
100
AcDbLine
 10
54.791801
 20
132.09198
 30
0.0
 11
64.541801
 21
132.09198
 31
0.0
  0
LINE
  5
1E9
100
AcDbEntity
  8
ARMATUR
390
0
  6
STRICHPUNKTIERT
 62
     7
100
AcDbLine
 10
64.541801
 20
132.09198
 30
0.0
 11
60.166801
 21
132.09198
 31
0.0
  0
LINE
  5
1EA
100
AcDbEntity
  8
ARMATUR
390
0
  6
STRICHPUNKTIERT
 62
     7
100
AcDbLine
 10
59.203102
 20
89.823044
 30
0.0
 11
56.916801
 21
89.823044
 31
0.0
  0
LINE
  5
1EB
100
AcDbEntity
  8
ARMATUR
390
0
  6
STRICHPUNKTIERT
 62
     7
100
AcDbLine
 10
59.512802
 20
89.823044
 30
0.0
 11
59.203102
 21
89.823044
 31
0.0
  0
LINE
  5
1EC
100
AcDbEntity
  8
ARMATUR
390
0
  6
DURCHGEHEND
 62
     1
100
AcDbLine
 10
184.042206
 20
120.022522
 30
0.0
 11
181.285767
 21
120.022522
 31
0.0
  0
ARC
  5
1ED
100
AcDbEntity
  8
ARMATUR
390
0
  6
DURCHGEHEND
 62
     1
100
AcDbCircle
 10
172.492188
 20
98.446739
 30
0.0
 40
0.199997
100
AcDbArc
 50
180.0
 51
270.0
  0
LINE
  5
1EE
100
AcDbEntity
  8
ARMATUR
390
0
  6
DURCHGEHEND
 62
     1
100
AcDbLine
 10
172.492188
 20
98.246735
 30
0.0
 11
173.042206
 21
98.246735
 31
0.0
  0
LINE
  5
1EF
100
AcDbEntity
  8
ARMATUR
390
0
  6
DURCHGEHEND
 62
     1
100
AcDbLine
 10
180.042206
 20
98.246735
 30
0.0
 11
184.042206
 21
98.246735
 31
0.0
  0
LINE
  5
1F0
100
AcDbEntity
  8
ARMATUR
390
0
  6
DURCHGEHEND
 62
     1
100
AcDbLine
 10
172.292206
 20
129.393127
 30
0.0
 11
172.292206
 21
127.750015
 31
0.0
  0
LINE
  5
1F1
100
AcDbEntity
  8
ARMATUR
390
0
  6
DURCHGEHEND
 62
     1
100
AcDbLine
 10
180.792206
 20
120.514755
 30
0.0
 11
180.792206
 21
129.396667
 31
0.0
  0
ARC
  5
1F2
100
AcDbEntity
  8
ARMATUR
390
0
  6
DURCHGEHEND
 62
     1
100
AcDbCircle
 10
173.042206
 20
97.996735
 30
0.0
 40
0.25
100
AcDbArc
 50
0.0
 51
90.0
  0
ARC
  5
1F3
100
AcDbEntity
  8
ARMATUR
390
0
  6
DURCHGEHEND
 62
     1
100
AcDbCircle
 10
180.042206
 20
97.996735
 30
0.0
 40
0.25
100
AcDbArc
 50
90.0
 51
180.0
  0
ARC
  5
1F4
100
AcDbEntity
  8
ARMATUR
390
0
  6
DURCHGEHEND
 62
     1
100
AcDbCircle
 10
171.542206
 20
121.227112
 30
0.0
 40
0.75
100
AcDbArc
 50
0.0
 51
90.0
  0
ARC
  5
1F5
100
AcDbEntity
  8
ARMATUR
390
0
  6
DURCHGEHEND
 62
     1
100
AcDbCircle
 10
171.542206
 20
127.727112
 30
0.0
 40
0.75
100
AcDbArc
 50
270.0
 51
360.0
  0
ARC
  5
1F6
100
AcDbEntity
  8
ARMATUR
390
0
  6
DURCHGEHEND
 62
     1
100
AcDbCircle
 10
181.292206
 20
120.522522
 30
0.0
 40
0.5
100
AcDbArc
 50
180.882004
 51
269.226013
  0
LINE
  5
1F7
100
AcDbEntity
  8
ARMATUR
390
0
  6
DURCHGEHEND
 62
     1
100
AcDbLine
 10
184.418304
 20
121.273605
 30
0.0
 11
184.042206
 21
121.276886
 31
0.0
  0
ARC
  5
1F8
100
AcDbEntity
  8
ARMATUR
390
0
  6
DURCHGEHEND
 62
     1
100
AcDbCircle
 10
184.417206
 20
121.148605
 30
0.0
 40
0.125
100
AcDbArc
 50
0.0
 51
89.5
  0
ARC
  5
1F9
100
AcDbEntity
  8
ARMATUR
390
0
  6
DURCHGEHEND
 62
     1
100
AcDbCircle
 10
184.667206
 20
120.892075
 30
0.0
 40
0.125
100
AcDbArc
 50
180.0
 51
269.5
  0
LINE
  5
1FA
100
AcDbEntity
  8
ARMATUR
390
0
  6
DURCHGEHEND
 62
     1
100
AcDbLine
 10
214.42157
 20
120.507408
 30
0.0
 11
184.666107
 21
120.767075
 31
0.0
  0
ARC
  5
1FB
100
AcDbEntity
  8
ARMATUR
390
0
  6
DURCHGEHEND
 62
     1
100
AcDbCircle
 10
214.417206
 20
120.007423
 30
0.0
 40
0.5
100
AcDbArc
 50
0.0
 51
89.5
  0
LINE
  5
1FC
100
AcDbEntity
  8
ARMATUR
390
0
  6
DURCHGEHEND
 62
     1
100
AcDbLine
 10
184.042206
 20
96.992371
 30
0.0
 11
184.418304
 21
96.995651
 31
0.0
  0
ARC
  5
1FD
100
AcDbEntity
  8
ARMATUR
390
0
  6
DURCHGEHEND
 62
     1
100
AcDbCircle
 10
184.417206
 20
97.120644
 30
0.0
 40
0.125
100
AcDbArc
 50
270.493011
 51
360.0
  0
ARC
  5
1FE
100
AcDbEntity
  8
ARMATUR
390
0
  6
DURCHGEHEND
 62
     1
100
AcDbCircle
 10
184.667206
 20
97.377182
 30
0.0
 40
0.125
100
AcDbArc
 50
90.503998
 51
180.003998
  0
LINE
  5
1FF
100
AcDbEntity
  8
ARMATUR
390
0
  6
DURCHGEHEND
 62
     1
100
AcDbLine
 10
184.666107
 20
97.502182
 30
0.0
 11
214.42157
 21
97.761848
 31
0.0
  0
ARC
  5
200
100
AcDbEntity
  8
ARMATUR
390
0
  6
DURCHGEHEND
 62
     1
100
AcDbCircle
 10
214.417206
 20
98.261833
 30
0.0
 40
0.5
100
AcDbArc
 50
270.501007
 51
360.0
  0
LINE
  5
201
100
AcDbEntity
  8
ARMATUR
390
0
  6
DURCHGEHEND
 62
     1
100
AcDbLine
 10
184.592194
 20
107.085022
 30
0.0
 11
185.292206
 21
107.085022
 31
0.0
  0
LINE
  5
202
100
AcDbEntity
  8
ARMATUR
390
0
  6
DURCHGEHEND
 62
     1
100
AcDbLine
 10
185.292206
 20
109.210022
 30
0.0
 11
184.592194
 21
109.210022
 31
0.0
  0
ARC
  5
203
100
AcDbEntity
  8
ARMATUR
390
0
  6
DURCHGEHEND
 62
     1
100
AcDbCircle
 10
184.592194
 20
109.160027
 30
0.0
 40
0.050003
100
AcDbArc
 50
90.0
 51
180.0
  0
ARC
  5
204
100
AcDbEntity
  8
ARMATUR
390
0
  6
DURCHGEHEND
 62
     1
100
AcDbCircle
 10
184.592194
 20
107.135017
 30
0.0
 40
0.050003
100
AcDbArc
 50
180.0
 51
270.0
  0
LINE
  5
205
100
AcDbEntity
  8
ARMATUR
390
0
  6
DURCHGEHEND
 62
     1
100
AcDbLine
 10
185.292206
 20
107.085022
 30
0.0
 11
185.417206
 21
107.210022
 31
0.0
  0
LINE
  5
206
100
AcDbEntity
  8
ARMATUR
390
0
  6
DURCHGEHEND
 62
     1
100
AcDbLine
 10
185.417206
 20
109.085022
 30
0.0
 11
185.292206
 21
109.210022
 31
0.0
  0
LINE
  5
207
100
AcDbEntity
  8
ARMATUR
390
0
  6
DURCHGEHEND
 62
     1
100
AcDbLine
 10
181.934784
 20
106.934685
 30
0.0
 11
184.042206
 21
106.934685
 31
0.0
  0
LINE
  5
208
100
AcDbEntity
  8
ARMATUR
390
0
  6
DURCHGEHEND
 62
     1
100
AcDbLine
 10
181.949921
 20
109.365486
 30
0.0
 11
184.042206
 21
109.365486
 31
0.0
  0
ARC
  5
209
100
AcDbEntity
  8
ARMATUR
390
0
  6
DURCHGEHEND
 62
     1
100
AcDbCircle
 10
173.042206
 20
96.147522
 30
0.0
 40
0.750031
100
AcDbArc
 50
109.471001
 51
180.0
  0
LINE
  5
20A
100
AcDbEntity
  8
ARMATUR
390
0
  6
DURCHGEHEND
 62
     1
100
AcDbLine
 10
180.292206
 20
96.85463
 30
0.0
 11
172.792206
 21
96.85463
 31
0.0
  0
ARC
  5
20B
100
AcDbEntity
  8
ARMATUR
390
0
  6
DURCHGEHEND
 62
     1
100
AcDbCircle
 10
180.042206
 20
96.147522
 30
0.0
 40
0.75
100
AcDbArc
 50
0.0
 51
70.528999
  0
LINE
  5
20C
100
AcDbEntity
  8
ARMATUR
390
0
  6
DURCHGEHEND
 62
     1
100
AcDbLine
 10
180.792206
 20
91.897522
 30
0.0
 11
180.792206
 21
96.147522
 31
0.0
  0
LINE
  5
20D
100
AcDbEntity
  8
ARMATUR
390
0
  6
DURCHGEHEND
 62
     1
100
AcDbLine
 10
172.292206
 20
91.897522
 30
0.0
 11
180.792206
 21
91.897522
 31
0.0
  0
LINE
  5
20E
100
AcDbEntity
  8
ARMATUR
390
0
  6
DURCHGEHEND
 62
     1
100
AcDbLine
 10
172.292206
 20
91.897522
 30
0.0
 11
172.292206
 21
96.147522
 31
0.0
  0
LINE
  5
20F
100
AcDbEntity
  8
ARMATUR
390
0
  6
DURCHGEHEND
 62
     1
100
AcDbLine
 10
181.917206
 20
106.106453
 30
0.0
 11
181.917206
 21
110.163826
 31
0.0
  0
ARC
  5
210
100
AcDbEntity
  8
ARMATUR
390
0
  6
DURCHGEHEND
 62
     1
100
AcDbCircle
 10
180.542206
 20
97.561737
 30
0.0
 40
0.75
100
AcDbArc
 50
180.0
 51
250.529007
  0
ARC
  5
211
100
AcDbEntity
  8
ARMATUR
390
0
  6
DURCHGEHEND
 62
     1
100
AcDbCircle
 10
172.542206
 20
97.561737
 30
0.0
 40
0.75
100
AcDbArc
 50
289.471008
 51
360.0
  0
POLYLINE
  5
212
100
AcDbEntity
  8
ARMATUR
390
0
  6
DURCHGEHEND
 62
     1
100
AcDb3dPolyline
 66
     1
 10
0.0
 20
0.0
 30
0.0
 70
    12
 75
     5
  0
VERTEX
  5
213
100
AcDbEntity
  8
0
390
0
100
AcDbVertex
100
AcDb3dPolylineVertex
 10
180.917206
 20
105.370514
 30
0.0
 70
    48
  0
VERTEX
  5
214
100
AcDbEntity
  8
0
390
0
100
AcDbVertex
100
AcDb3dPolylineVertex
 10
180.917206
 20
105.370514
 30
0.0
 70
    40
  0
VERTEX
  5
215
100
AcDbEntity
  8
0
390
0
100
AcDbVertex
100
AcDb3dPolylineVertex
 10
180.862122
 20
104.786545
 30
0.0
 70
    40
  0
VERTEX
  5
216
100
AcDbEntity
  8
0
390
0
100
AcDbVertex
100
AcDb3dPolylineVertex
 10
180.917206
 20
105.370514
 30
0.0
 70
    48
  0
VERTEX
  5
217
100
AcDbEntity
  8
0
390
0
100
AcDbVertex
100
AcDb3dPolylineVertex
 10
180.862122
 20
104.786545
 30
0.0
 70
    48
  0
VERTEX
  5
218
100
AcDbEntity
  8
0
390
0
100
AcDbVertex
100
AcDb3dPolylineVertex
 10
180.862122
 20
104.786545
 30
0.0
 70
    48
  0
VERTEX
  5
219
100
AcDbEntity
  8
0
390
0
100
AcDbVertex
100
AcDb3dPolylineVertex
 10
180.720337
 20
104.202805
 30
0.0
 70
    40
  0
VERTEX
  5
21A
100
AcDbEntity
  8
0
390
0
100
AcDbVertex
100
AcDb3dPolylineVertex
 10
180.862122
 20
104.786545
 30
0.0
 70
    48
  0
VERTEX
  5
21B
100
AcDbEntity
  8
0
390
0
100
AcDbVertex
100
AcDb3dPolylineVertex
 10
180.720337
 20
104.202805
 30
0.0
 70
    48
  0
VERTEX
  5
21C
100
AcDbEntity
  8
0
390
0
100
AcDbVertex
100
AcDb3dPolylineVertex
 10
180.720337
 20
104.202805
 30
0.0
 70
    48
  0
VERTEX
  5
21D
100
AcDbEntity
  8
0
390
0
100
AcDbVertex
100
AcDb3dPolylineVertex
 10
180.328003
 20
103.147522
 30
0.0
 70
    40
  0
VERTEX
  5
21E
100
AcDbEntity
  8
0
390
0
100
AcDbVertex
100
AcDb3dPolylineVertex
 10
180.720337
 20
104.202805
 30
0.0
 70
    48
  0
VERTEX
  5
21F
100
AcDbEntity
  8
0
390
0
100
AcDbVertex
100
AcDb3dPolylineVertex
 10
180.328003
 20
103.147522
 30
0.0
 70
    48
  0
VERTEX
  5
220
100
AcDbEntity
  8
0
390
0
100
AcDbVertex
100
AcDb3dPolylineVertex
 10
180.328003
 20
103.147522
 30
0.0
 70
    48
  0
SEQEND
  5
221
100
AcDbEntity
  8
0
390
0
  0
LINE
  5
222
100
AcDbEntity
  8
ARMATUR
390
0
  6
DURCHGEHEND
 62
     1
100
AcDbLine
 10
180.167206
 20
103.147522
 30
0.0
 11
180.167206
 21
106.651215
 31
0.0
  0
LINE
  5
223
100
AcDbEntity
  8
ARMATUR
390
0
  6
DURCHGEHEND
 62
     1
100
AcDbLine
 10
176.178741
 20
102.770485
 30
0.0
 11
172.492188
 21
102.770485
 31
0.0
  0
LINE
  5
224
100
AcDbEntity
  8
ARMATUR
390
0
  6
DURCHGEHEND
 62
     1
100
AcDbLine
 10
172.492188
 20
103.147522
 30
0.0
 11
180.328003
 21
103.147522
 31
0.0
  0
LINE
  5
225
100
AcDbEntity
  8
ARMATUR
390
0
  6
DURCHGEHEND
 62
     1
100
AcDbLine
 10
180.917206
 20
113.289261
 30
0.0
 11
180.917206
 21
105.370514
 31
0.0
  0
LINE
  5
226
100
AcDbEntity
  8
ARMATUR
390
0
  6
DURCHGEHEND
 62
     1
100
AcDbLine
 10
180.906708
 20
114.683556
 30
0.0
 11
180.917206
 21
113.289261
 31
0.0
  0
POLYLINE
  5
227
100
AcDbEntity
  8
ARMATUR
390
0
  6
DURCHGEHEND
 62
     1
100
AcDb3dPolyline
 66
     1
 10
0.0
 20
0.0
 30
0.0
 70
    12
 75
     5
  0
VERTEX
  5
228
100
AcDbEntity
  8
0
390
0
100
AcDbVertex
100
AcDb3dPolylineVertex
 10
172.492188
 20
102.770485
 30
0.0
 70
    48
  0
VERTEX
  5
229
100
AcDbEntity
  8
0
390
0
100
AcDbVertex
100
AcDb3dPolylineVertex
 10
172.492188
 20
102.770485
 30
0.0
 70
    40
  0
VERTEX
  5
22A
100
AcDbEntity
  8
0
390
0
100
AcDbVertex
100
AcDb3dPolylineVertex
 10
172.453186
 20
102.770851
 30
0.0
 70
    40
  0
VERTEX
  5
22B
100
AcDbEntity
  8
0
390
0
100
AcDbVertex
100
AcDb3dPolylineVertex
 10
172.492188
 20
102.770485
 30
0.0
 70
    48
  0
VERTEX
  5
22C
100
AcDbEntity
  8
0
390
0
100
AcDbVertex
100
AcDb3dPolylineVertex
 10
172.453186
 20
102.770851
 30
0.0
 70
    48
  0
VERTEX
  5
22D
100
AcDbEntity
  8
0
390
0
100
AcDbVertex
100
AcDb3dPolylineVertex
 10
172.453186
 20
102.770851
 30
0.0
 70
    48
  0
VERTEX
  5
22E
100
AcDbEntity
  8
0
390
0
100
AcDbVertex
100
AcDb3dPolylineVertex
 10
172.415649
 20
102.771919
 30
0.0
 70
    40
  0
VERTEX
  5
22F
100
AcDbEntity
  8
0
390
0
100
AcDbVertex
100
AcDb3dPolylineVertex
 10
172.453186
 20
102.770851
 30
0.0
 70
    48
  0
VERTEX
  5
230
100
AcDbEntity
  8
0
390
0
100
AcDbVertex
100
AcDb3dPolylineVertex
 10
172.415649
 20
102.771919
 30
0.0
 70
    48
  0
VERTEX
  5
231
100
AcDbEntity
  8
0
390
0
100
AcDbVertex
100
AcDb3dPolylineVertex
 10
172.415649
 20
102.771919
 30
0.0
 70
    48
  0
VERTEX
  5
232
100
AcDbEntity
  8
0
390
0
100
AcDbVertex
100
AcDb3dPolylineVertex
 10
172.381073
 20
102.773659
 30
0.0
 70
    40
  0
VERTEX
  5
233
100
AcDbEntity
  8
0
390
0
100
AcDbVertex
100
AcDb3dPolylineVertex
 10
172.415649
 20
102.771919
 30
0.0
 70
    48
  0
VERTEX
  5
234
100
AcDbEntity
  8
0
390
0
100
AcDbVertex
100
AcDb3dPolylineVertex
 10
172.381073
 20
102.773659
 30
0.0
 70
    48
  0
VERTEX
  5
235
100
AcDbEntity
  8
0
390
0
100
AcDbVertex
100
AcDb3dPolylineVertex
 10
172.381073
 20
102.773659
 30
0.0
 70
    48
  0
VERTEX
  5
236
100
AcDbEntity
  8
0
390
0
100
AcDbVertex
100
AcDb3dPolylineVertex
 10
172.350769
 20
102.776009
 30
0.0
 70
    40
  0
VERTEX
  5
237
100
AcDbEntity
  8
0
390
0
100
AcDbVertex
100
AcDb3dPolylineVertex
 10
172.381073
 20
102.773659
 30
0.0
 70
    48
  0
VERTEX
  5
238
100
AcDbEntity
  8
0
390
0
100
AcDbVertex
100
AcDb3dPolylineVertex
 10
172.350769
 20
102.776009
 30
0.0
 70
    48
  0
VERTEX
  5
239
100
AcDbEntity
  8
0
390
0
100
AcDbVertex
100
AcDb3dPolylineVertex
 10
172.350769
 20
102.776009
 30
0.0
 70
    48
  0
VERTEX
  5
23A
100
AcDbEntity
  8
0
390
0
100
AcDbVertex
100
AcDb3dPolylineVertex
 10
172.325897
 20
102.778862
 30
0.0
 70
    40
  0
VERTEX
  5
23B
100
AcDbEntity
  8
0
390
0
100
AcDbVertex
100
AcDb3dPolylineVertex
 10
172.350769
 20
102.776009
 30
0.0
 70
    48
  0
VERTEX
  5
23C
100
AcDbEntity
  8
0
390
0
100
AcDbVertex
100
AcDb3dPolylineVertex
 10
172.325897
 20
102.778862
 30
0.0
 70
    48
  0
VERTEX
  5
23D
100
AcDbEntity
  8
0
390
0
100
AcDbVertex
100
AcDb3dPolylineVertex
 10
172.325897
 20
102.778862
 30
0.0
 70
    48
  0
VERTEX
  5
23E
100
AcDbEntity
  8
0
390
0
100
AcDbVertex
100
AcDb3dPolylineVertex
 10
172.307434
 20
102.782127
 30
0.0
 70
    40
  0
VERTEX
  5
23F
100
AcDbEntity
  8
0
390
0
100
AcDbVertex
100
AcDb3dPolylineVertex
 10
172.325897
 20
102.778862
 30
0.0
 70
    48
  0
VERTEX
  5
240
100
AcDbEntity
  8
0
390
0
100
AcDbVertex
100
AcDb3dPolylineVertex
 10
172.307434
 20
102.782127
 30
0.0
 70
    48
  0
VERTEX
  5
241
100
AcDbEntity
  8
0
390
0
100
AcDbVertex
100
AcDb3dPolylineVertex
 10
172.307434
 20
102.782127
 30
0.0
 70
    48
  0
VERTEX
  5
242
100
AcDbEntity
  8
0
390
0
100
AcDbVertex
100
AcDb3dPolylineVertex
 10
172.296051
 20
102.78566
 30
0.0
 70
    40
  0
VERTEX
  5
243
100
AcDbEntity
  8
0
390
0
100
AcDbVertex
100
AcDb3dPolylineVertex
 10
172.307434
 20
102.782127
 30
0.0
 70
    48
  0
VERTEX
  5
244
100
AcDbEntity
  8
0
390
0
100
AcDbVertex
100
AcDb3dPolylineVertex
 10
172.296051
 20
102.78566
 30
0.0
 70
    48
  0
VERTEX
  5
245
100
AcDbEntity
  8
0
390
0
100
AcDbVertex
100
AcDb3dPolylineVertex
 10
172.296051
 20
102.78566
 30
0.0
 70
    48
  0
VERTEX
  5
246
100
AcDbEntity
  8
0
390
0
100
AcDbVertex
100
AcDb3dPolylineVertex
 10
172.292206
 20
102.789337
 30
0.0
 70
    40
  0
VERTEX
  5
247
100
AcDbEntity
  8
0
390
0
100
AcDbVertex
100
AcDb3dPolylineVertex
 10
172.296051
 20
102.78566
 30
0.0
 70
    48
  0
VERTEX
  5
248
100
AcDbEntity
  8
0
390
0
100
AcDbVertex
100
AcDb3dPolylineVertex
 10
172.292206
 20
102.789337
 30
0.0
 70
    48
  0
VERTEX
  5
249
100
AcDbEntity
  8
0
390
0
100
AcDbVertex
100
AcDb3dPolylineVertex
 10
172.292206
 20
102.789337
 30
0.0
 70
    48
  0
SEQEND
  5
24A
100
AcDbEntity
  8
0
390
0
  0
LINE
  5
24B
100
AcDbEntity
  8
ARMATUR
390
0
  6
DURCHGEHEND
 62
     1
100
AcDbLine
 10
172.292206
 20
102.789337
 30
0.0
 11
172.292206
 21
103.587112
 31
0.0
  0
LINE
  5
24C
100
AcDbEntity
  8
ARMATUR
390
0
  6
DURCHGEHEND
 62
     1
100
AcDbLine
 10
172.311371
 20
103.147522
 30
0.0
 11
172.492188
 21
103.147522
 31
0.0
  0
POLYLINE
  5
24D
100
AcDbEntity
  8
ARMATUR
390
0
  6
DURCHGEHEND
 62
     1
100
AcDb3dPolyline
 66
     1
 10
0.0
 20
0.0
 30
0.0
 70
    12
 75
     5
  0
VERTEX
  5
24E
100
AcDbEntity
  8
0
390
0
100
AcDbVertex
100
AcDb3dPolylineVertex
 10
176.8797
 20
102.746925
 30
0.0
 70
    48
  0
VERTEX
  5
24F
100
AcDbEntity
  8
0
390
0
100
AcDbVertex
100
AcDb3dPolylineVertex
 10
176.8797
 20
102.746925
 30
0.0
 70
    40
  0
VERTEX
  5
250
100
AcDbEntity
  8
0
390
0
100
AcDbVertex
100
AcDb3dPolylineVertex
 10
176.772125
 20
102.855827
 30
0.0
 70
    40
  0
VERTEX
  5
251
100
AcDbEntity
  8
0
390
0
100
AcDbVertex
100
AcDb3dPolylineVertex
 10
176.8797
 20
102.746925
 30
0.0
 70
    48
  0
VERTEX
  5
252
100
AcDbEntity
  8
0
390
0
100
AcDbVertex
100
AcDb3dPolylineVertex
 10
176.772125
 20
102.855827
 30
0.0
 70
    48
  0
VERTEX
  5
253
100
AcDbEntity
  8
0
390
0
100
AcDbVertex
100
AcDb3dPolylineVertex
 10
176.772125
 20
102.855827
 30
0.0
 70
    48
  0
VERTEX
  5
254
100
AcDbEntity
  8
0
390
0
100
AcDbVertex
100
AcDb3dPolylineVertex
 10
176.639496
 20
102.935226
 30
0.0
 70
    40
  0
VERTEX
  5
255
100
AcDbEntity
  8
0
390
0
100
AcDbVertex
100
AcDb3dPolylineVertex
 10
176.772125
 20
102.855827
 30
0.0
 70
    48
  0
VERTEX
  5
256
100
AcDbEntity
  8
0
390
0
100
AcDbVertex
100
AcDb3dPolylineVertex
 10
176.639496
 20
102.935226
 30
0.0
 70
    48
  0
VERTEX
  5
257
100
AcDbEntity
  8
0
390
0
100
AcDbVertex
100
AcDb3dPolylineVertex
 10
176.639496
 20
102.935226
 30
0.0
 70
    48
  0
VERTEX
  5
258
100
AcDbEntity
  8
0
390
0
100
AcDbVertex
100
AcDb3dPolylineVertex
 10
176.546417
 20
102.952751
 30
0.0
 70
    40
  0
VERTEX
  5
259
100
AcDbEntity
  8
0
390
0
100
AcDbVertex
100
AcDb3dPolylineVertex
 10
176.639496
 20
102.935226
 30
0.0
 70
    48
  0
VERTEX
  5
25A
100
AcDbEntity
  8
0
390
0
100
AcDbVertex
100
AcDb3dPolylineVertex
 10
176.546417
 20
102.952751
 30
0.0
 70
    48
  0
VERTEX
  5
25B
100
AcDbEntity
  8
0
390
0
100
AcDbVertex
100
AcDb3dPolylineVertex
 10
176.546417
 20
102.952751
 30
0.0
 70
    48
  0
VERTEX
  5
25C
100
AcDbEntity
  8
0
390
0
100
AcDbVertex
100
AcDb3dPolylineVertex
 10
176.452667
 20
102.93792
 30
0.0
 70
    40
  0
VERTEX
  5
25D
100
AcDbEntity
  8
0
390
0
100
AcDbVertex
100
AcDb3dPolylineVertex
 10
176.546417
 20
102.952751
 30
0.0
 70
    48
  0
VERTEX
  5
25E
100
AcDbEntity
  8
0
390
0
100
AcDbVertex
100
AcDb3dPolylineVertex
 10
176.452667
 20
102.93792
 30
0.0
 70
    48
  0
VERTEX
  5
25F
100
AcDbEntity
  8
0
390
0
100
AcDbVertex
100
AcDb3dPolylineVertex
 10
176.452667
 20
102.93792
 30
0.0
 70
    48
  0
VERTEX
  5
260
100
AcDbEntity
  8
0
390
0
100
AcDbVertex
100
AcDb3dPolylineVertex
 10
176.340118
 20
102.87767
 30
0.0
 70
    40
  0
VERTEX
  5
261
100
AcDbEntity
  8
0
390
0
100
AcDbVertex
100
AcDb3dPolylineVertex
 10
176.452667
 20
102.93792
 30
0.0
 70
    48
  0
VERTEX
  5
262
100
AcDbEntity
  8
0
390
0
100
AcDbVertex
100
AcDb3dPolylineVertex
 10
176.340118
 20
102.87767
 30
0.0
 70
    48
  0
VERTEX
  5
263
100
AcDbEntity
  8
0
390
0
100
AcDbVertex
100
AcDb3dPolylineVertex
 10
176.340118
 20
102.87767
 30
0.0
 70
    48
  0
VERTEX
  5
264
100
AcDbEntity
  8
0
390
0
100
AcDbVertex
100
AcDb3dPolylineVertex
 10
176.204712
 20
102.746925
 30
0.0
 70
    40
  0
VERTEX
  5
265
100
AcDbEntity
  8
0
390
0
100
AcDbVertex
100
AcDb3dPolylineVertex
 10
176.340118
 20
102.87767
 30
0.0
 70
    48
  0
VERTEX
  5
266
100
AcDbEntity
  8
0
390
0
100
AcDbVertex
100
AcDb3dPolylineVertex
 10
176.204712
 20
102.746925
 30
0.0
 70
    48
  0
VERTEX
  5
267
100
AcDbEntity
  8
0
390
0
100
AcDbVertex
100
AcDb3dPolylineVertex
 10
176.204712
 20
102.746925
 30
0.0
 70
    48
  0
SEQEND
  5
268
100
AcDbEntity
  8
0
390
0
  0
POLYLINE
  5
269
100
AcDbEntity
  8
ARMATUR
390
0
  6
DURCHGEHEND
 62
     1
100
AcDb3dPolyline
 66
     1
 10
0.0
 20
0.0
 30
0.0
 70
    12
 75
     5
  0
VERTEX
  5
26A
100
AcDbEntity
  8
0
390
0
100
AcDbVertex
100
AcDb3dPolylineVertex
 10
176.204712
 20
102.746925
 30
0.0
 70
    48
  0
VERTEX
  5
26B
100
AcDbEntity
  8
0
390
0
100
AcDbVertex
100
AcDb3dPolylineVertex
 10
176.204712
 20
102.746925
 30
0.0
 70
    40
  0
VERTEX
  5
26C
100
AcDbEntity
  8
0
390
0
100
AcDbVertex
100
AcDb3dPolylineVertex
 10
175.425629
 20
101.818817
 30
0.0
 70
    40
  0
VERTEX
  5
26D
100
AcDbEntity
  8
0
390
0
100
AcDbVertex
100
AcDb3dPolylineVertex
 10
176.204712
 20
102.746925
 30
0.0
 70
    48
  0
VERTEX
  5
26E
100
AcDbEntity
  8
0
390
0
100
AcDbVertex
100
AcDb3dPolylineVertex
 10
175.425629
 20
101.818817
 30
0.0
 70
    48
  0
VERTEX
  5
26F
100
AcDbEntity
  8
0
390
0
100
AcDbVertex
100
AcDb3dPolylineVertex
 10
175.425629
 20
101.818817
 30
0.0
 70
    48
  0
VERTEX
  5
270
100
AcDbEntity
  8
0
390
0
100
AcDbVertex
100
AcDb3dPolylineVertex
 10
174.662354
 20
100.896812
 30
0.0
 70
    40
  0
VERTEX
  5
271
100
AcDbEntity
  8
0
390
0
100
AcDbVertex
100
AcDb3dPolylineVertex
 10
175.425629
 20
101.818817
 30
0.0
 70
    48
  0
VERTEX
  5
272
100
AcDbEntity
  8
0
390
0
100
AcDbVertex
100
AcDb3dPolylineVertex
 10
174.662354
 20
100.896812
 30
0.0
 70
    48
  0
VERTEX
  5
273
100
AcDbEntity
  8
0
390
0
100
AcDbVertex
100
AcDb3dPolylineVertex
 10
174.662354
 20
100.896812
 30
0.0
 70
    48
  0
VERTEX
  5
274
100
AcDbEntity
  8
0
390
0
100
AcDbVertex
100
AcDb3dPolylineVertex
 10
174.247009
 20
100.383011
 30
0.0
 70
    40
  0
VERTEX
  5
275
100
AcDbEntity
  8
0
390
0
100
AcDbVertex
100
AcDb3dPolylineVertex
 10
174.662354
 20
100.896812
 30
0.0
 70
    48
  0
VERTEX
  5
276
100
AcDbEntity
  8
0
390
0
100
AcDbVertex
100
AcDb3dPolylineVertex
 10
174.247009
 20
100.383011
 30
0.0
 70
    48
  0
VERTEX
  5
277
100
AcDbEntity
  8
0
390
0
100
AcDbVertex
100
AcDb3dPolylineVertex
 10
174.247009
 20
100.383011
 30
0.0
 70
    48
  0
VERTEX
  5
278
100
AcDbEntity
  8
0
390
0
100
AcDbVertex
100
AcDb3dPolylineVertex
 10
173.868622
 20
99.898682
 30
0.0
 70
    40
  0
VERTEX
  5
279
100
AcDbEntity
  8
0
390
0
100
AcDbVertex
100
AcDb3dPolylineVertex
 10
174.247009
 20
100.383011
 30
0.0
 70
    48
  0
VERTEX
  5
27A
100
AcDbEntity
  8
0
390
0
100
AcDbVertex
100
AcDb3dPolylineVertex
 10
173.868622
 20
99.898682
 30
0.0
 70
    48
  0
VERTEX
  5
27B
100
AcDbEntity
  8
0
390
0
100
AcDbVertex
100
AcDb3dPolylineVertex
 10
173.868622
 20
99.898682
 30
0.0
 70
    48
  0
VERTEX
  5
27C
100
AcDbEntity
  8
0
390
0
100
AcDbVertex
100
AcDb3dPolylineVertex
 10
173.52533
 20
99.425568
 30
0.0
 70
    40
  0
VERTEX
  5
27D
100
AcDbEntity
  8
0
390
0
100
AcDbVertex
100
AcDb3dPolylineVertex
 10
173.868622
 20
99.898682
 30
0.0
 70
    48
  0
VERTEX
  5
27E
100
AcDbEntity
  8
0
390
0
100
AcDbVertex
100
AcDb3dPolylineVertex
 10
173.52533
 20
99.425568
 30
0.0
 70
    48
  0
VERTEX
  5
27F
100
AcDbEntity
  8
0
390
0
100
AcDbVertex
100
AcDb3dPolylineVertex
 10
173.52533
 20
99.425568
 30
0.0
 70
    48
  0
SEQEND
  5
280
100
AcDbEntity
  8
0
390
0
  0
LINE
  5
281
100
AcDbEntity
  8
ARMATUR
390
0
  6
DURCHGEHEND
 62
     1
100
AcDbLine
 10
173.292206
 20
98.810875
 30
0.0
 11
173.292206
 21
97.561737
 31
0.0
  0
POLYLINE
  5
282
100
AcDbEntity
  8
ARMATUR
390
0
  6
DURCHGEHEND
 62
     1
100
AcDb3dPolyline
 66
     1
 10
0.0
 20
0.0
 30
0.0
 70
    12
 75
     5
  0
VERTEX
  5
283
100
AcDbEntity
  8
0
390
0
100
AcDbVertex
100
AcDb3dPolylineVertex
 10
173.52533
 20
99.425568
 30
0.0
 70
    48
  0
VERTEX
  5
284
100
AcDbEntity
  8
0
390
0
100
AcDbVertex
100
AcDb3dPolylineVertex
 10
173.52533
 20
99.425568
 30
0.0
 70
    40
  0
VERTEX
  5
285
100
AcDbEntity
  8
0
390
0
100
AcDbVertex
100
AcDb3dPolylineVertex
 10
173.35434
 20
99.107613
 30
0.0
 70
    40
  0
VERTEX
  5
286
100
AcDbEntity
  8
0
390
0
100
AcDbVertex
100
AcDb3dPolylineVertex
 10
173.52533
 20
99.425568
 30
0.0
 70
    48
  0
VERTEX
  5
287
100
AcDbEntity
  8
0
390
0
100
AcDbVertex
100
AcDb3dPolylineVertex
 10
173.35434
 20
99.107613
 30
0.0
 70
    48
  0
VERTEX
  5
288
100
AcDbEntity
  8
0
390
0
100
AcDbVertex
100
AcDb3dPolylineVertex
 10
173.35434
 20
99.107613
 30
0.0
 70
    48
  0
VERTEX
  5
289
100
AcDbEntity
  8
0
390
0
100
AcDbVertex
100
AcDb3dPolylineVertex
 10
173.292206
 20
98.810875
 30
0.0
 70
    40
  0
VERTEX
  5
28A
100
AcDbEntity
  8
0
390
0
100
AcDbVertex
100
AcDb3dPolylineVertex
 10
173.35434
 20
99.107613
 30
0.0
 70
    48
  0
VERTEX
  5
28B
100
AcDbEntity
  8
0
390
0
100
AcDbVertex
100
AcDb3dPolylineVertex
 10
173.292206
 20
98.810875
 30
0.0
 70
    48
  0
VERTEX
  5
28C
100
AcDbEntity
  8
0
390
0
100
AcDbVertex
100
AcDb3dPolylineVertex
 10
173.292206
 20
98.810875
 30
0.0
 70
    48
  0
SEQEND
  5
28D
100
AcDbEntity
  8
0
390
0
  0
POLYLINE
  5
28E
100
AcDbEntity
  8
ARMATUR
390
0
  6
DURCHGEHEND
 62
     1
100
AcDb3dPolyline
 66
     1
 10
0.0
 20
0.0
 30
0.0
 70
    12
 75
     5
  0
VERTEX
  5
28F
100
AcDbEntity
  8
0
390
0
100
AcDbVertex
100
AcDb3dPolylineVertex
 10
179.559052
 20
99.425568
 30
0.0
 70
    48
  0
VERTEX
  5
290
100
AcDbEntity
  8
0
390
0
100
AcDbVertex
100
AcDb3dPolylineVertex
 10
179.559052
 20
99.425568
 30
0.0
 70
    40
  0
VERTEX
  5
291
100
AcDbEntity
  8
0
390
0
100
AcDbVertex
100
AcDb3dPolylineVertex
 10
179.2966
 20
99.791588
 30
0.0
 70
    40
  0
VERTEX
  5
292
100
AcDbEntity
  8
0
390
0
100
AcDbVertex
100
AcDb3dPolylineVertex
 10
179.559052
 20
99.425568
 30
0.0
 70
    48
  0
VERTEX
  5
293
100
AcDbEntity
  8
0
390
0
100
AcDbVertex
100
AcDb3dPolylineVertex
 10
179.2966
 20
99.791588
 30
0.0
 70
    48
  0
VERTEX
  5
294
100
AcDbEntity
  8
0
390
0
100
AcDbVertex
100
AcDb3dPolylineVertex
 10
179.2966
 20
99.791588
 30
0.0
 70
    48
  0
VERTEX
  5
295
100
AcDbEntity
  8
0
390
0
100
AcDbVertex
100
AcDb3dPolylineVertex
 10
178.960999
 20
100.227127
 30
0.0
 70
    40
  0
VERTEX
  5
296
100
AcDbEntity
  8
0
390
0
100
AcDbVertex
100
AcDb3dPolylineVertex
 10
179.2966
 20
99.791588
 30
0.0
 70
    48
  0
VERTEX
  5
297
100
AcDbEntity
  8
0
390
0
100
AcDbVertex
100
AcDb3dPolylineVertex
 10
178.960999
 20
100.227127
 30
0.0
 70
    48
  0
VERTEX
  5
298
100
AcDbEntity
  8
0
390
0
100
AcDbVertex
100
AcDb3dPolylineVertex
 10
178.960999
 20
100.227127
 30
0.0
 70
    48
  0
VERTEX
  5
299
100
AcDbEntity
  8
0
390
0
100
AcDbVertex
100
AcDb3dPolylineVertex
 10
178.45343
 20
100.858406
 30
0.0
 70
    40
  0
VERTEX
  5
29A
100
AcDbEntity
  8
0
390
0
100
AcDbVertex
100
AcDb3dPolylineVertex
 10
178.960999
 20
100.227127
 30
0.0
 70
    48
  0
VERTEX
  5
29B
100
AcDbEntity
  8
0
390
0
100
AcDbVertex
100
AcDb3dPolylineVertex
 10
178.45343
 20
100.858406
 30
0.0
 70
    48
  0
VERTEX
  5
29C
100
AcDbEntity
  8
0
390
0
100
AcDbVertex
100
AcDb3dPolylineVertex
 10
178.45343
 20
100.858406
 30
0.0
 70
    48
  0
VERTEX
  5
29D
100
AcDbEntity
  8
0
390
0
100
AcDbVertex
100
AcDb3dPolylineVertex
 10
177.882599
 20
101.550346
 30
0.0
 70
    40
  0
VERTEX
  5
29E
100
AcDbEntity
  8
0
390
0
100
AcDbVertex
100
AcDb3dPolylineVertex
 10
178.45343
 20
100.858406
 30
0.0
 70
    48
  0
VERTEX
  5
29F
100
AcDbEntity
  8
0
390
0
100
AcDbVertex
100
AcDb3dPolylineVertex
 10
177.882599
 20
101.550346
 30
0.0
 70
    48
  0
VERTEX
  5
2A0
100
AcDbEntity
  8
0
390
0
100
AcDbVertex
100
AcDb3dPolylineVertex
 10
177.882599
 20
101.550346
 30
0.0
 70
    48
  0
VERTEX
  5
2A1
100
AcDbEntity
  8
0
390
0
100
AcDbVertex
100
AcDb3dPolylineVertex
 10
177.389648
 20
102.140282
 30
0.0
 70
    40
  0
VERTEX
  5
2A2
100
AcDbEntity
  8
0
390
0
100
AcDbVertex
100
AcDb3dPolylineVertex
 10
177.882599
 20
101.550346
 30
0.0
 70
    48
  0
VERTEX
  5
2A3
100
AcDbEntity
  8
0
390
0
100
AcDbVertex
100
AcDb3dPolylineVertex
 10
177.389648
 20
102.140282
 30
0.0
 70
    48
  0
VERTEX
  5
2A4
100
AcDbEntity
  8
0
390
0
100
AcDbVertex
100
AcDb3dPolylineVertex
 10
177.389648
 20
102.140282
 30
0.0
 70
    48
  0
VERTEX
  5
2A5
100
AcDbEntity
  8
0
390
0
100
AcDbVertex
100
AcDb3dPolylineVertex
 10
176.8797
 20
102.746925
 30
0.0
 70
    40
  0
VERTEX
  5
2A6
100
AcDbEntity
  8
0
390
0
100
AcDbVertex
100
AcDb3dPolylineVertex
 10
177.389648
 20
102.140282
 30
0.0
 70
    48
  0
VERTEX
  5
2A7
100
AcDbEntity
  8
0
390
0
100
AcDbVertex
100
AcDb3dPolylineVertex
 10
176.8797
 20
102.746925
 30
0.0
 70
    48
  0
VERTEX
  5
2A8
100
AcDbEntity
  8
0
390
0
100
AcDbVertex
100
AcDb3dPolylineVertex
 10
176.8797
 20
102.746925
 30
0.0
 70
    48
  0
SEQEND
  5
2A9
100
AcDbEntity
  8
0
390
0
  0
POLYLINE
  5
2AA
100
AcDbEntity
  8
ARMATUR
390
0
  6
DURCHGEHEND
 62
     1
100
AcDb3dPolyline
 66
     1
 10
0.0
 20
0.0
 30
0.0
 70
    12
 75
     5
  0
VERTEX
  5
2AB
100
AcDbEntity
  8
0
390
0
100
AcDbVertex
100
AcDb3dPolylineVertex
 10
179.792206
 20
98.810875
 30
0.0
 70
    48
  0
VERTEX
  5
2AC
100
AcDbEntity
  8
0
390
0
100
AcDbVertex
100
AcDb3dPolylineVertex
 10
179.792206
 20
98.810875
 30
0.0
 70
    40
  0
VERTEX
  5
2AD
100
AcDbEntity
  8
0
390
0
100
AcDbVertex
100
AcDb3dPolylineVertex
 10
179.733826
 20
99.097748
 30
0.0
 70
    40
  0
VERTEX
  5
2AE
100
AcDbEntity
  8
0
390
0
100
AcDbVertex
100
AcDb3dPolylineVertex
 10
179.792206
 20
98.810875
 30
0.0
 70
    48
  0
VERTEX
  5
2AF
100
AcDbEntity
  8
0
390
0
100
AcDbVertex
100
AcDb3dPolylineVertex
 10
179.733826
 20
99.097748
 30
0.0
 70
    48
  0
VERTEX
  5
2B0
100
AcDbEntity
  8
0
390
0
100
AcDbVertex
100
AcDb3dPolylineVertex
 10
179.733826
 20
99.097748
 30
0.0
 70
    48
  0
VERTEX
  5
2B1
100
AcDbEntity
  8
0
390
0
100
AcDbVertex
100
AcDb3dPolylineVertex
 10
179.559052
 20
99.425568
 30
0.0
 70
    40
  0
VERTEX
  5
2B2
100
AcDbEntity
  8
0
390
0
100
AcDbVertex
100
AcDb3dPolylineVertex
 10
179.733826
 20
99.097748
 30
0.0
 70
    48
  0
VERTEX
  5
2B3
100
AcDbEntity
  8
0
390
0
100
AcDbVertex
100
AcDb3dPolylineVertex
 10
179.559052
 20
99.425568
 30
0.0
 70
    48
  0
VERTEX
  5
2B4
100
AcDbEntity
  8
0
390
0
100
AcDbVertex
100
AcDb3dPolylineVertex
 10
179.559052
 20
99.425568
 30
0.0
 70
    48
  0
SEQEND
  5
2B5
100
AcDbEntity
  8
0
390
0
  0
LINE
  5
2B6
100
AcDbEntity
  8
ARMATUR
390
0
  6
DURCHGEHEND
 62
     1
100
AcDbLine
 10
179.792206
 20
98.810875
 30
0.0
 11
179.792206
 21
97.561737
 31
0.0
  0
LINE
  5
2B7
100
AcDbEntity
  8
ARMATUR
390
0
  6
DURCHGEHEND
 62
     1
100
AcDbLine
 10
172.917206
 20
122.992065
 30
0.0
 11
171.542206
 21
122.992065
 31
0.0
  0
LINE
  5
2B8
100
AcDbEntity
  8
ARMATUR
390
0
  6
DURCHGEHEND
 62
     1
100
AcDbLine
 10
172.917206
 20
125.962189
 30
0.0
 11
171.542206
 21
125.962189
 31
0.0
  0
LINE
  5
2B9
100
AcDbEntity
  8
ARMATUR
390
0
  6
DURCHGEHEND
 62
     1
100
AcDbLine
 10
172.917206
 20
125.962189
 30
0.0
 11
172.917206
 21
122.992065
 31
0.0
  0
LINE
  5
2BA
100
AcDbEntity
  8
ARMATUR
390
0
  6
DURCHGEHEND
 62
     1
100
AcDbLine
 10
171.542206
 20
125.962189
 30
0.0
 11
171.542206
 21
122.992065
 31
0.0
  0
LINE
  5
2BB
100
AcDbEntity
  8
ARMATUR
390
0
  6
DURCHGEHEND
 62
     1
100
AcDbLine
 10
172.292206
 20
99.819656
 30
0.0
 11
172.292206
 21
102.789337
 31
0.0
  0
LINE
  5
2BC
100
AcDbEntity
  8
ARMATUR
390
0
  6
DURCHGEHEND
 62
     1
100
AcDbLine
 10
172.292206
 20
103.587112
 30
0.0
 11
172.292206
 21
106.541725
 31
0.0
  0
LINE
  5
2BD
100
AcDbEntity
  8
ARMATUR
390
0
  6
DURCHGEHEND
 62
     1
100
AcDbLine
 10
180.906708
 20
119.133003
 30
0.0
 11
180.906708
 21
114.683556
 31
0.0
  0
POLYLINE
  5
2BE
100
AcDbEntity
  8
ARMATUR
390
0
  6
DURCHGEHEND
 62
     1
100
AcDb3dPolyline
 66
     1
 10
0.0
 20
0.0
 30
0.0
 70
    12
 75
     5
  0
VERTEX
  5
2BF
100
AcDbEntity
  8
0
390
0
100
AcDbVertex
100
AcDb3dPolylineVertex
 10
180.551758
 20
119.599594
 30
0.0
 70
    48
  0
VERTEX
  5
2C0
100
AcDbEntity
  8
0
390
0
100
AcDbVertex
100
AcDb3dPolylineVertex
 10
180.551758
 20
119.599594
 30
0.0
 70
    40
  0
VERTEX
  5
2C1
100
AcDbEntity
  8
0
390
0
100
AcDbVertex
100
AcDb3dPolylineVertex
 10
180.727478
 20
119.532791
 30
0.0
 70
    40
  0
VERTEX
  5
2C2
100
AcDbEntity
  8
0
390
0
100
AcDbVertex
100
AcDb3dPolylineVertex
 10
180.551758
 20
119.599594
 30
0.0
 70
    48
  0
VERTEX
  5
2C3
100
AcDbEntity
  8
0
390
0
100
AcDbVertex
100
AcDb3dPolylineVertex
 10
180.727478
 20
119.532791
 30
0.0
 70
    48
  0
VERTEX
  5
2C4
100
AcDbEntity
  8
0
390
0
100
AcDbVertex
100
AcDb3dPolylineVertex
 10
180.727478
 20
119.532791
 30
0.0
 70
    48
  0
VERTEX
  5
2C5
100
AcDbEntity
  8
0
390
0
100
AcDbVertex
100
AcDb3dPolylineVertex
 10
180.834595
 20
119.443451
 30
0.0
 70
    40
  0
VERTEX
  5
2C6
100
AcDbEntity
  8
0
390
0
100
AcDbVertex
100
AcDb3dPolylineVertex
 10
180.727478
 20
119.532791
 30
0.0
 70
    48
  0
VERTEX
  5
2C7
100
AcDbEntity
  8
0
390
0
100
AcDbVertex
100
AcDb3dPolylineVertex
 10
180.834595
 20
119.443451
 30
0.0
 70
    48
  0
VERTEX
  5
2C8
100
AcDbEntity
  8
0
390
0
100
AcDbVertex
100
AcDb3dPolylineVertex
 10
180.834595
 20
119.443451
 30
0.0
 70
    48
  0
VERTEX
  5
2C9
100
AcDbEntity
  8
0
390
0
100
AcDbVertex
100
AcDb3dPolylineVertex
 10
180.906067
 20
119.1763
 30
0.0
 70
    40
  0
VERTEX
  5
2CA
100
AcDbEntity
  8
0
390
0
100
AcDbVertex
100
AcDb3dPolylineVertex
 10
180.834595
 20
119.443451
 30
0.0
 70
    48
  0
VERTEX
  5
2CB
100
AcDbEntity
  8
0
390
0
100
AcDbVertex
100
AcDb3dPolylineVertex
 10
180.906067
 20
119.1763
 30
0.0
 70
    48
  0
VERTEX
  5
2CC
100
AcDbEntity
  8
0
390
0
100
AcDbVertex
100
AcDb3dPolylineVertex
 10
180.906067
 20
119.1763
 30
0.0
 70
    48
  0
VERTEX
  5
2CD
100
AcDbEntity
  8
0
390
0
100
AcDbVertex
100
AcDb3dPolylineVertex
 10
180.906708
 20
119.133003
 30
0.0
 70
    40
  0
VERTEX
  5
2CE
100
AcDbEntity
  8
0
390
0
100
AcDbVertex
100
AcDb3dPolylineVertex
 10
180.906067
 20
119.1763
 30
0.0
 70
    48
  0
VERTEX
  5
2CF
100
AcDbEntity
  8
0
390
0
100
AcDbVertex
100
AcDb3dPolylineVertex
 10
180.906708
 20
119.133003
 30
0.0
 70
    48
  0
VERTEX
  5
2D0
100
AcDbEntity
  8
0
390
0
100
AcDbVertex
100
AcDb3dPolylineVertex
 10
180.906708
 20
119.133003
 30
0.0
 70
    48
  0
SEQEND
  5
2D1
100
AcDbEntity
  8
0
390
0
  0
LINE
  5
2D2
100
AcDbEntity
  8
ARMATUR
390
0
  6
DURCHGEHEND
 62
     1
100
AcDbLine
 10
180.167206
 20
109.269829
 30
0.0
 11
180.167206
 21
118.588867
 31
0.0
  0
LINE
  5
2D3
100
AcDbEntity
  8
ARMATUR
390
0
  6
DURCHGEHEND
 62
     1
100
AcDbLine
 10
171.542206
 20
122.992065
 30
0.0
 11
171.542206
 21
122.084763
 31
0.0
  0
LINE
  5
2D4
100
AcDbEntity
  8
ARMATUR
390
0
  6
DURCHGEHEND
 62
     1
100
AcDbLine
 10
171.542206
 20
126.869476
 30
0.0
 11
171.542206
 21
125.962189
 31
0.0
  0
POLYLINE
  5
2D5
100
AcDbEntity
  8
ARMATUR
390
0
  6
DURCHGEHEND
 62
     1
100
AcDb3dPolyline
 66
     1
 10
0.0
 20
0.0
 30
0.0
 70
    12
 75
     5
  0
VERTEX
  5
2D6
100
AcDbEntity
  8
0
390
0
100
AcDbVertex
100
AcDb3dPolylineVertex
 10
173.128326
 20
126.95639
 30
0.0
 70
    48
  0
VERTEX
  5
2D7
100
AcDbEntity
  8
0
390
0
100
AcDbVertex
100
AcDb3dPolylineVertex
 10
173.128326
 20
126.95639
 30
0.0
 70
    40
  0
VERTEX
  5
2D8
100
AcDbEntity
  8
0
390
0
100
AcDbVertex
100
AcDb3dPolylineVertex
 10
173.125793
 20
126.934814
 30
0.0
 70
    40
  0
VERTEX
  5
2D9
100
AcDbEntity
  8
0
390
0
100
AcDbVertex
100
AcDb3dPolylineVertex
 10
173.128326
 20
126.95639
 30
0.0
 70
    48
  0
VERTEX
  5
2DA
100
AcDbEntity
  8
0
390
0
100
AcDbVertex
100
AcDb3dPolylineVertex
 10
173.125793
 20
126.934814
 30
0.0
 70
    48
  0
VERTEX
  5
2DB
100
AcDbEntity
  8
0
390
0
100
AcDbVertex
100
AcDb3dPolylineVertex
 10
173.125793
 20
126.934814
 30
0.0
 70
    48
  0
VERTEX
  5
2DC
100
AcDbEntity
  8
0
390
0
100
AcDbVertex
100
AcDb3dPolylineVertex
 10
173.123352
 20
126.905792
 30
0.0
 70
    40
  0
VERTEX
  5
2DD
100
AcDbEntity
  8
0
390
0
100
AcDbVertex
100
AcDb3dPolylineVertex
 10
173.125793
 20
126.934814
 30
0.0
 70
    48
  0
VERTEX
  5
2DE
100
AcDbEntity
  8
0
390
0
100
AcDbVertex
100
AcDb3dPolylineVertex
 10
173.123352
 20
126.905792
 30
0.0
 70
    48
  0
VERTEX
  5
2DF
100
AcDbEntity
  8
0
390
0
100
AcDbVertex
100
AcDb3dPolylineVertex
 10
173.123352
 20
126.905792
 30
0.0
 70
    48
  0
VERTEX
  5
2E0
100
AcDbEntity
  8
0
390
0
100
AcDbVertex
100
AcDb3dPolylineVertex
 10
173.120972
 20
126.869476
 30
0.0
 70
    40
  0
VERTEX
  5
2E1
100
AcDbEntity
  8
0
390
0
100
AcDbVertex
100
AcDb3dPolylineVertex
 10
173.123352
 20
126.905792
 30
0.0
 70
    48
  0
VERTEX
  5
2E2
100
AcDbEntity
  8
0
390
0
100
AcDbVertex
100
AcDb3dPolylineVertex
 10
173.120972
 20
126.869476
 30
0.0
 70
    48
  0
VERTEX
  5
2E3
100
AcDbEntity
  8
0
390
0
100
AcDbVertex
100
AcDb3dPolylineVertex
 10
173.120972
 20
126.869476
 30
0.0
 70
    48
  0
SEQEND
  5
2E4
100
AcDbEntity
  8
0
390
0
  0
LINE
  5
2E5
100
AcDbEntity
  8
ARMATUR
390
0
  6
DURCHGEHEND
 62
     1
100
AcDbLine
 10
173.128326
 20
121.997833
 30
0.0
 11
173.128326
 21
126.95639
 31
0.0
  0
POLYLINE
  5
2E6
100
AcDbEntity
  8
ARMATUR
390
0
  6
DURCHGEHEND
 62
     1
100
AcDb3dPolyline
 66
     1
 10
0.0
 20
0.0
 30
0.0
 70
    12
 75
     5
  0
VERTEX
  5
2E7
100
AcDbEntity
  8
0
390
0
100
AcDbVertex
100
AcDb3dPolylineVertex
 10
173.120972
 20
122.084763
 30
0.0
 70
    48
  0
VERTEX
  5
2E8
100
AcDbEntity
  8
0
390
0
100
AcDbVertex
100
AcDb3dPolylineVertex
 10
173.120972
 20
122.084763
 30
0.0
 70
    40
  0
VERTEX
  5
2E9
100
AcDbEntity
  8
0
390
0
100
AcDbVertex
100
AcDb3dPolylineVertex
 10
173.123352
 20
122.048462
 30
0.0
 70
    40
  0
VERTEX
  5
2EA
100
AcDbEntity
  8
0
390
0
100
AcDbVertex
100
AcDb3dPolylineVertex
 10
173.120972
 20
122.084763
 30
0.0
 70
    48
  0
VERTEX
  5
2EB
100
AcDbEntity
  8
0
390
0
100
AcDbVertex
100
AcDb3dPolylineVertex
 10
173.123352
 20
122.048462
 30
0.0
 70
    48
  0
VERTEX
  5
2EC
100
AcDbEntity
  8
0
390
0
100
AcDbVertex
100
AcDb3dPolylineVertex
 10
173.123352
 20
122.048462
 30
0.0
 70
    48
  0
VERTEX
  5
2ED
100
AcDbEntity
  8
0
390
0
100
AcDbVertex
100
AcDb3dPolylineVertex
 10
173.125793
 20
122.019409
 30
0.0
 70
    40
  0
VERTEX
  5
2EE
100
AcDbEntity
  8
0
390
0
100
AcDbVertex
100
AcDb3dPolylineVertex
 10
173.123352
 20
122.048462
 30
0.0
 70
    48
  0
VERTEX
  5
2EF
100
AcDbEntity
  8
0
390
0
100
AcDbVertex
100
AcDb3dPolylineVertex
 10
173.125793
 20
122.019409
 30
0.0
 70
    48
  0
VERTEX
  5
2F0
100
AcDbEntity
  8
0
390
0
100
AcDbVertex
100
AcDb3dPolylineVertex
 10
173.125793
 20
122.019409
 30
0.0
 70
    48
  0
VERTEX
  5
2F1
100
AcDbEntity
  8
0
390
0
100
AcDbVertex
100
AcDb3dPolylineVertex
 10
173.128326
 20
121.997833
 30
0.0
 70
    40
  0
VERTEX
  5
2F2
100
AcDbEntity
  8
0
390
0
100
AcDbVertex
100
AcDb3dPolylineVertex
 10
173.125793
 20
122.019409
 30
0.0
 70
    48
  0
VERTEX
  5
2F3
100
AcDbEntity
  8
0
390
0
100
AcDbVertex
100
AcDb3dPolylineVertex
 10
173.128326
 20
121.997833
 30
0.0
 70
    48
  0
VERTEX
  5
2F4
100
AcDbEntity
  8
0
390
0
100
AcDbVertex
100
AcDb3dPolylineVertex
 10
173.128326
 20
121.997833
 30
0.0
 70
    48
  0
SEQEND
  5
2F5
100
AcDbEntity
  8
0
390
0
  0
LINE
  5
2F6
100
AcDbEntity
  8
ARMATUR
390
0
  6
DURCHGEHEND
 62
     1
100
AcDbLine
 10
172.292206
 20
115.12989
 30
0.0
 11
172.292206
 21
121.106171
 31
0.0
  0
LINE
  5
2F7
100
AcDbEntity
  8
ARMATUR
390
0
  6
DURCHGEHEND
 62
     1
100
AcDbLine
 10
180.167206
 20
106.651215
 30
0.0
 11
180.167206
 21
109.269829
 31
0.0
  0
LINE
  5
2F8
100
AcDbEntity
  8
ARMATUR
390
0
  6
DURCHGEHEND
 62
     1
100
AcDbLine
 10
172.292206
 20
98.446739
 30
0.0
 11
172.292206
 21
99.819656
 31
0.0
  0
LINE
  5
2F9
100
AcDbEntity
  8
ARMATUR
390
0
  6
DURCHGEHEND
 62
     1
100
AcDbLine
 10
172.292206
 20
106.541725
 30
0.0
 11
172.292206
 21
109.035675
 31
0.0
  0
LINE
  5
2FA
100
AcDbEntity
  8
ARMATUR
390
0
  6
DURCHGEHEND
 62
     1
100
AcDbLine
 10
173.128326
 20
121.997833
 30
0.0
 11
173.169647
 21
121.977112
 31
0.0
  0
LINE
  5
2FB
100
AcDbEntity
  8
ARMATUR
390
0
  6
DURCHGEHEND
 62
     1
100
AcDbLine
 10
173.169647
 20
121.977112
 30
0.0
 11
171.542206
 21
121.977112
 31
0.0
  0
LINE
  5
2FC
100
AcDbEntity
  8
ARMATUR
390
0
  6
DURCHGEHEND
 62
     1
100
AcDbLine
 10
171.542206
 20
122.084763
 30
0.0
 11
171.542206
 21
121.977112
 31
0.0
  0
LINE
  5
2FD
100
AcDbEntity
  8
ARMATUR
390
0
  6
DURCHGEHEND
 62
     1
100
AcDbLine
 10
173.169647
 20
126.977112
 30
0.0
 11
173.128326
 21
126.95639
 31
0.0
  0
LINE
  5
2FE
100
AcDbEntity
  8
ARMATUR
390
0
  6
DURCHGEHEND
 62
     1
100
AcDbLine
 10
171.542206
 20
126.977112
 30
0.0
 11
173.169647
 21
126.977112
 31
0.0
  0
LINE
  5
2FF
100
AcDbEntity
  8
ARMATUR
390
0
  6
DURCHGEHEND
 62
     1
100
AcDbLine
 10
171.542206
 20
126.977112
 30
0.0
 11
171.542206
 21
126.869476
 31
0.0
  0
LINE
  5
300
100
AcDbEntity
  8
ARMATUR
390
0
  6
DURCHGEHEND
 62
     1
100
AcDbLine
 10
174.277679
 20
127.727112
 30
0.0
 11
174.277679
 21
121.227112
 31
0.0
  0
LINE
  5
301
100
AcDbEntity
  8
ARMATUR
390
0
  6
DURCHGEHEND
 62
     1
100
AcDbLine
 10
180.167206
 20
118.588867
 30
0.0
 11
179.873291
 21
119.90686
 31
0.0
  0
LINE
  5
302
100
AcDbEntity
  8
ARMATUR
390
0
  6
DURCHGEHEND
 62
     1
100
AcDbLine
 10
173.169647
 20
126.977112
 30
0.0
 11
173.275146
 21
126.977112
 31
0.0
  0
POLYLINE
  5
303
100
AcDbEntity
  8
ARMATUR
390
0
  6
DURCHGEHEND
 62
     1
100
AcDb3dPolyline
 66
     1
 10
0.0
 20
0.0
 30
0.0
 70
    12
 75
     5
  0
VERTEX
  5
304
100
AcDbEntity
  8
0
390
0
100
AcDbVertex
100
AcDb3dPolylineVertex
 10
174.277679
 20
127.727112
 30
0.0
 70
    48
  0
VERTEX
  5
305
100
AcDbEntity
  8
0
390
0
100
AcDbVertex
100
AcDb3dPolylineVertex
 10
174.277679
 20
127.727112
 30
0.0
 70
    40
  0
VERTEX
  5
306
100
AcDbEntity
  8
0
390
0
100
AcDbVertex
100
AcDb3dPolylineVertex
 10
174.276093
 20
127.725098
 30
0.0
 70
    40
  0
VERTEX
  5
307
100
AcDbEntity
  8
0
390
0
100
AcDbVertex
100
AcDb3dPolylineVertex
 10
174.277679
 20
127.727112
 30
0.0
 70
    48
  0
VERTEX
  5
308
100
AcDbEntity
  8
0
390
0
100
AcDbVertex
100
AcDb3dPolylineVertex
 10
174.276093
 20
127.725098
 30
0.0
 70
    48
  0
VERTEX
  5
309
100
AcDbEntity
  8
0
390
0
100
AcDbVertex
100
AcDb3dPolylineVertex
 10
174.276093
 20
127.725098
 30
0.0
 70
    48
  0
VERTEX
  5
30A
100
AcDbEntity
  8
0
390
0
100
AcDbVertex
100
AcDb3dPolylineVertex
 10
174.080109
 20
127.496063
 30
0.0
 70
    40
  0
VERTEX
  5
30B
100
AcDbEntity
  8
0
390
0
100
AcDbVertex
100
AcDb3dPolylineVertex
 10
174.276093
 20
127.725098
 30
0.0
 70
    48
  0
VERTEX
  5
30C
100
AcDbEntity
  8
0
390
0
100
AcDbVertex
100
AcDb3dPolylineVertex
 10
174.080109
 20
127.496063
 30
0.0
 70
    48
  0
VERTEX
  5
30D
100
AcDbEntity
  8
0
390
0
100
AcDbVertex
100
AcDb3dPolylineVertex
 10
174.080109
 20
127.496063
 30
0.0
 70
    48
  0
VERTEX
  5
30E
100
AcDbEntity
  8
0
390
0
100
AcDbVertex
100
AcDb3dPolylineVertex
 10
173.786957
 20
127.223877
 30
0.0
 70
    40
  0
VERTEX
  5
30F
100
AcDbEntity
  8
0
390
0
100
AcDbVertex
100
AcDb3dPolylineVertex
 10
174.080109
 20
127.496063
 30
0.0
 70
    48
  0
VERTEX
  5
310
100
AcDbEntity
  8
0
390
0
100
AcDbVertex
100
AcDb3dPolylineVertex
 10
173.786957
 20
127.223877
 30
0.0
 70
    48
  0
VERTEX
  5
311
100
AcDbEntity
  8
0
390
0
100
AcDbVertex
100
AcDb3dPolylineVertex
 10
173.786957
 20
127.223877
 30
0.0
 70
    48
  0
VERTEX
  5
312
100
AcDbEntity
  8
0
390
0
100
AcDbVertex
100
AcDb3dPolylineVertex
 10
173.565704
 20
127.073517
 30
0.0
 70
    40
  0
VERTEX
  5
313
100
AcDbEntity
  8
0
390
0
100
AcDbVertex
100
AcDb3dPolylineVertex
 10
173.786957
 20
127.223877
 30
0.0
 70
    48
  0
VERTEX
  5
314
100
AcDbEntity
  8
0
390
0
100
AcDbVertex
100
AcDb3dPolylineVertex
 10
173.565704
 20
127.073517
 30
0.0
 70
    48
  0
VERTEX
  5
315
100
AcDbEntity
  8
0
390
0
100
AcDbVertex
100
AcDb3dPolylineVertex
 10
173.565704
 20
127.073517
 30
0.0
 70
    48
  0
VERTEX
  5
316
100
AcDbEntity
  8
0
390
0
100
AcDbVertex
100
AcDb3dPolylineVertex
 10
173.410339
 20
127.002777
 30
0.0
 70
    40
  0
VERTEX
  5
317
100
AcDbEntity
  8
0
390
0
100
AcDbVertex
100
AcDb3dPolylineVertex
 10
173.565704
 20
127.073517
 30
0.0
 70
    48
  0
VERTEX
  5
318
100
AcDbEntity
  8
0
390
0
100
AcDbVertex
100
AcDb3dPolylineVertex
 10
173.410339
 20
127.002777
 30
0.0
 70
    48
  0
VERTEX
  5
319
100
AcDbEntity
  8
0
390
0
100
AcDbVertex
100
AcDb3dPolylineVertex
 10
173.410339
 20
127.002777
 30
0.0
 70
    48
  0
VERTEX
  5
31A
100
AcDbEntity
  8
0
390
0
100
AcDbVertex
100
AcDb3dPolylineVertex
 10
173.275146
 20
126.977112
 30
0.0
 70
    40
  0
VERTEX
  5
31B
100
AcDbEntity
  8
0
390
0
100
AcDbVertex
100
AcDb3dPolylineVertex
 10
173.410339
 20
127.002777
 30
0.0
 70
    48
  0
VERTEX
  5
31C
100
AcDbEntity
  8
0
390
0
100
AcDbVertex
100
AcDb3dPolylineVertex
 10
173.275146
 20
126.977112
 30
0.0
 70
    48
  0
VERTEX
  5
31D
100
AcDbEntity
  8
0
390
0
100
AcDbVertex
100
AcDb3dPolylineVertex
 10
173.275146
 20
126.977112
 30
0.0
 70
    48
  0
SEQEND
  5
31E
100
AcDbEntity
  8
0
390
0
  0
POLYLINE
  5
31F
100
AcDbEntity
  8
ARMATUR
390
0
  6
DURCHGEHEND
 62
     1
100
AcDb3dPolyline
 66
     1
 10
0.0
 20
0.0
 30
0.0
 70
    12
 75
     5
  0
VERTEX
  5
320
100
AcDbEntity
  8
0
390
0
100
AcDbVertex
100
AcDb3dPolylineVertex
 10
173.275146
 20
121.977112
 30
0.0
 70
    48
  0
VERTEX
  5
321
100
AcDbEntity
  8
0
390
0
100
AcDbVertex
100
AcDb3dPolylineVertex
 10
173.275146
 20
121.977112
 30
0.0
 70
    40
  0
VERTEX
  5
322
100
AcDbEntity
  8
0
390
0
100
AcDbVertex
100
AcDb3dPolylineVertex
 10
173.410339
 20
121.951477
 30
0.0
 70
    40
  0
VERTEX
  5
323
100
AcDbEntity
  8
0
390
0
100
AcDbVertex
100
AcDb3dPolylineVertex
 10
173.275146
 20
121.977112
 30
0.0
 70
    48
  0
VERTEX
  5
324
100
AcDbEntity
  8
0
390
0
100
AcDbVertex
100
AcDb3dPolylineVertex
 10
173.410339
 20
121.951477
 30
0.0
 70
    48
  0
VERTEX
  5
325
100
AcDbEntity
  8
0
390
0
100
AcDbVertex
100
AcDb3dPolylineVertex
 10
173.410339
 20
121.951477
 30
0.0
 70
    48
  0
VERTEX
  5
326
100
AcDbEntity
  8
0
390
0
100
AcDbVertex
100
AcDb3dPolylineVertex
 10
173.565704
 20
121.880707
 30
0.0
 70
    40
  0
VERTEX
  5
327
100
AcDbEntity
  8
0
390
0
100
AcDbVertex
100
AcDb3dPolylineVertex
 10
173.410339
 20
121.951477
 30
0.0
 70
    48
  0
VERTEX
  5
328
100
AcDbEntity
  8
0
390
0
100
AcDbVertex
100
AcDb3dPolylineVertex
 10
173.565704
 20
121.880707
 30
0.0
 70
    48
  0
VERTEX
  5
329
100
AcDbEntity
  8
0
390
0
100
AcDbVertex
100
AcDb3dPolylineVertex
 10
173.565704
 20
121.880707
 30
0.0
 70
    48
  0
VERTEX
  5
32A
100
AcDbEntity
  8
0
390
0
100
AcDbVertex
100
AcDb3dPolylineVertex
 10
173.786957
 20
121.730377
 30
0.0
 70
    40
  0
VERTEX
  5
32B
100
AcDbEntity
  8
0
390
0
100
AcDbVertex
100
AcDb3dPolylineVertex
 10
173.565704
 20
121.880707
 30
0.0
 70
    48
  0
VERTEX
  5
32C
100
AcDbEntity
  8
0
390
0
100
AcDbVertex
100
AcDb3dPolylineVertex
 10
173.786957
 20
121.730377
 30
0.0
 70
    48
  0
VERTEX
  5
32D
100
AcDbEntity
  8
0
390
0
100
AcDbVertex
100
AcDb3dPolylineVertex
 10
173.786957
 20
121.730377
 30
0.0
 70
    48
  0
VERTEX
  5
32E
100
AcDbEntity
  8
0
390
0
100
AcDbVertex
100
AcDb3dPolylineVertex
 10
174.080109
 20
121.45816
 30
0.0
 70
    40
  0
VERTEX
  5
32F
100
AcDbEntity
  8
0
390
0
100
AcDbVertex
100
AcDb3dPolylineVertex
 10
173.786957
 20
121.730377
 30
0.0
 70
    48
  0
VERTEX
  5
330
100
AcDbEntity
  8
0
390
0
100
AcDbVertex
100
AcDb3dPolylineVertex
 10
174.080109
 20
121.45816
 30
0.0
 70
    48
  0
VERTEX
  5
331
100
AcDbEntity
  8
0
390
0
100
AcDbVertex
100
AcDb3dPolylineVertex
 10
174.080109
 20
121.45816
 30
0.0
 70
    48
  0
VERTEX
  5
332
100
AcDbEntity
  8
0
390
0
100
AcDbVertex
100
AcDb3dPolylineVertex
 10
174.276093
 20
121.229126
 30
0.0
 70
    40
  0
VERTEX
  5
333
100
AcDbEntity
  8
0
390
0
100
AcDbVertex
100
AcDb3dPolylineVertex
 10
174.080109
 20
121.45816
 30
0.0
 70
    48
  0
VERTEX
  5
334
100
AcDbEntity
  8
0
390
0
100
AcDbVertex
100
AcDb3dPolylineVertex
 10
174.276093
 20
121.229126
 30
0.0
 70
    48
  0
VERTEX
  5
335
100
AcDbEntity
  8
0
390
0
100
AcDbVertex
100
AcDb3dPolylineVertex
 10
174.276093
 20
121.229126
 30
0.0
 70
    48
  0
VERTEX
  5
336
100
AcDbEntity
  8
0
390
0
100
AcDbVertex
100
AcDb3dPolylineVertex
 10
174.277679
 20
121.227112
 30
0.0
 70
    40
  0
VERTEX
  5
337
100
AcDbEntity
  8
0
390
0
100
AcDbVertex
100
AcDb3dPolylineVertex
 10
174.276093
 20
121.229126
 30
0.0
 70
    48
  0
VERTEX
  5
338
100
AcDbEntity
  8
0
390
0
100
AcDbVertex
100
AcDb3dPolylineVertex
 10
174.277679
 20
121.227112
 30
0.0
 70
    48
  0
VERTEX
  5
339
100
AcDbEntity
  8
0
390
0
100
AcDbVertex
100
AcDb3dPolylineVertex
 10
174.277679
 20
121.227112
 30
0.0
 70
    48
  0
SEQEND
  5
33A
100
AcDbEntity
  8
0
390
0
  0
LINE
  5
33B
100
AcDbEntity
  8
ARMATUR
390
0
  6
DURCHGEHEND
 62
     1
100
AcDbLine
 10
173.275146
 20
121.977112
 30
0.0
 11
173.169647
 21
121.977112
 31
0.0
  0
POLYLINE
  5
33C
100
AcDbEntity
  8
ARMATUR
390
0
  6
DURCHGEHEND
 62
     1
100
AcDb3dPolyline
 66
     1
 10
0.0
 20
0.0
 30
0.0
 70
    12
 75
     5
  0
VERTEX
  5
33D
100
AcDbEntity
  8
0
390
0
100
AcDbVertex
100
AcDb3dPolylineVertex
 10
179.873291
 20
119.90686
 30
0.0
 70
    48
  0
VERTEX
  5
33E
100
AcDbEntity
  8
0
390
0
100
AcDbVertex
100
AcDb3dPolylineVertex
 10
179.873291
 20
119.90686
 30
0.0
 70
    40
  0
VERTEX
  5
33F
100
AcDbEntity
  8
0
390
0
100
AcDbVertex
100
AcDb3dPolylineVertex
 10
179.874878
 20
119.905807
 30
0.0
 70
    40
  0
VERTEX
  5
340
100
AcDbEntity
  8
0
390
0
100
AcDbVertex
100
AcDb3dPolylineVertex
 10
179.873291
 20
119.90686
 30
0.0
 70
    48
  0
VERTEX
  5
341
100
AcDbEntity
  8
0
390
0
100
AcDbVertex
100
AcDb3dPolylineVertex
 10
179.874878
 20
119.905807
 30
0.0
 70
    48
  0
VERTEX
  5
342
100
AcDbEntity
  8
0
390
0
100
AcDbVertex
100
AcDb3dPolylineVertex
 10
179.874878
 20
119.905807
 30
0.0
 70
    48
  0
VERTEX
  5
343
100
AcDbEntity
  8
0
390
0
100
AcDbVertex
100
AcDb3dPolylineVertex
 10
180.124878
 20
119.76606
 30
0.0
 70
    40
  0
VERTEX
  5
344
100
AcDbEntity
  8
0
390
0
100
AcDbVertex
100
AcDb3dPolylineVertex
 10
179.874878
 20
119.905807
 30
0.0
 70
    48
  0
VERTEX
  5
345
100
AcDbEntity
  8
0
390
0
100
AcDbVertex
100
AcDb3dPolylineVertex
 10
180.124878
 20
119.76606
 30
0.0
 70
    48
  0
VERTEX
  5
346
100
AcDbEntity
  8
0
390
0
100
AcDbVertex
100
AcDb3dPolylineVertex
 10
180.124878
 20
119.76606
 30
0.0
 70
    48
  0
VERTEX
  5
347
100
AcDbEntity
  8
0
390
0
100
AcDbVertex
100
AcDb3dPolylineVertex
 10
180.299255
 20
119.689323
 30
0.0
 70
    40
  0
VERTEX
  5
348
100
AcDbEntity
  8
0
390
0
100
AcDbVertex
100
AcDb3dPolylineVertex
 10
180.124878
 20
119.76606
 30
0.0
 70
    48
  0
VERTEX
  5
349
100
AcDbEntity
  8
0
390
0
100
AcDbVertex
100
AcDb3dPolylineVertex
 10
180.299255
 20
119.689323
 30
0.0
 70
    48
  0
VERTEX
  5
34A
100
AcDbEntity
  8
0
390
0
100
AcDbVertex
100
AcDb3dPolylineVertex
 10
180.299255
 20
119.689323
 30
0.0
 70
    48
  0
SEQEND
  5
34B
100
AcDbEntity
  8
0
390
0
  0
POLYLINE
  5
34C
100
AcDbEntity
  8
ARMATUR
390
0
  6
DURCHGEHEND
 62
     1
100
AcDb3dPolyline
 66
     1
 10
0.0
 20
0.0
 30
0.0
 70
    12
 75
     5
  0
VERTEX
  5
34D
100
AcDbEntity
  8
0
390
0
100
AcDbVertex
100
AcDb3dPolylineVertex
 10
180.299255
 20
119.689323
 30
0.0
 70
    48
  0
VERTEX
  5
34E
100
AcDbEntity
  8
0
390
0
100
AcDbVertex
100
AcDb3dPolylineVertex
 10
180.299255
 20
119.689323
 30
0.0
 70
    40
  0
VERTEX
  5
34F
100
AcDbEntity
  8
0
390
0
100
AcDbVertex
100
AcDb3dPolylineVertex
 10
180.408264
 20
119.646812
 30
0.0
 70
    40
  0
VERTEX
  5
350
100
AcDbEntity
  8
0
390
0
100
AcDbVertex
100
AcDb3dPolylineVertex
 10
180.299255
 20
119.689323
 30
0.0
 70
    48
  0
VERTEX
  5
351
100
AcDbEntity
  8
0
390
0
100
AcDbVertex
100
AcDb3dPolylineVertex
 10
180.408264
 20
119.646812
 30
0.0
 70
    48
  0
VERTEX
  5
352
100
AcDbEntity
  8
0
390
0
100
AcDbVertex
100
AcDb3dPolylineVertex
 10
180.408264
 20
119.646812
 30
0.0
 70
    48
  0
VERTEX
  5
353
100
AcDbEntity
  8
0
390
0
100
AcDbVertex
100
AcDb3dPolylineVertex
 10
180.515961
 20
119.609894
 30
0.0
 70
    40
  0
VERTEX
  5
354
100
AcDbEntity
  8
0
390
0
100
AcDbVertex
100
AcDb3dPolylineVertex
 10
180.408264
 20
119.646812
 30
0.0
 70
    48
  0
VERTEX
  5
355
100
AcDbEntity
  8
0
390
0
100
AcDbVertex
100
AcDb3dPolylineVertex
 10
180.515961
 20
119.609894
 30
0.0
 70
    48
  0
VERTEX
  5
356
100
AcDbEntity
  8
0
390
0
100
AcDbVertex
100
AcDb3dPolylineVertex
 10
180.515961
 20
119.609894
 30
0.0
 70
    48
  0
VERTEX
  5
357
100
AcDbEntity
  8
0
390
0
100
AcDbVertex
100
AcDb3dPolylineVertex
 10
180.551758
 20
119.599594
 30
0.0
 70
    40
  0
VERTEX
  5
358
100
AcDbEntity
  8
0
390
0
100
AcDbVertex
100
AcDb3dPolylineVertex
 10
180.515961
 20
119.609894
 30
0.0
 70
    48
  0
VERTEX
  5
359
100
AcDbEntity
  8
0
390
0
100
AcDbVertex
100
AcDb3dPolylineVertex
 10
180.551758
 20
119.599594
 30
0.0
 70
    48
  0
VERTEX
  5
35A
100
AcDbEntity
  8
0
390
0
100
AcDbVertex
100
AcDb3dPolylineVertex
 10
180.551758
 20
119.599594
 30
0.0
 70
    48
  0
SEQEND
  5
35B
100
AcDbEntity
  8
0
390
0
  0
LINE
  5
35C
100
AcDbEntity
  8
ARMATUR
390
0
  6
DURCHGEHEND
 62
     1
100
AcDbLine
 10
184.042206
 20
109.588921
 30
0.0
 11
184.042206
 21
106.617035
 31
0.0
  0
LINE
  5
35D
100
AcDbEntity
  8
ARMATUR
390
0
  6
DURCHGEHEND
 62
     1
100
AcDbLine
 10
184.542206
 20
109.479637
 30
0.0
 11
184.542206
 21
106.727928
 31
0.0
  0
LINE
  5
35E
100
AcDbEntity
  8
ARMATUR
390
0
  6
DURCHGEHEND
 62
     1
100
AcDbLine
 10
184.042206
 20
110.586426
 30
0.0
 11
184.042206
 21
109.588921
 31
0.0
  0
LINE
  5
35F
100
AcDbEntity
  8
ARMATUR
390
0
  6
DURCHGEHEND
 62
     1
100
AcDbLine
 10
184.542206
 20
110.477974
 30
0.0
 11
184.542206
 21
109.479637
 31
0.0
  0
LINE
  5
360
100
AcDbEntity
  8
ARMATUR
390
0
  6
DURCHGEHEND
 62
     1
100
AcDbLine
 10
184.542206
 20
106.727928
 30
0.0
 11
184.542206
 21
105.820915
 31
0.0
  0
LINE
  5
361
100
AcDbEntity
  8
ARMATUR
390
0
  6
DURCHGEHEND
 62
     1
100
AcDbLine
 10
184.042206
 20
106.617035
 30
0.0
 11
184.042206
 21
105.718483
 31
0.0
  0
LINE
  5
362
100
AcDbEntity
  8
ARMATUR
390
0
  6
DURCHGEHEND
 62
     1
100
AcDbLine
 10
184.042206
 20
105.522041
 30
0.0
 11
184.042206
 21
105.718483
 31
0.0
  0
LINE
  5
363
100
AcDbEntity
  8
ARMATUR
390
0
  6
DURCHGEHEND
 62
     1
100
AcDbLine
 10
184.542206
 20
105.820915
 30
0.0
 11
184.542206
 21
105.526237
 31
0.0
  0
LINE
  5
364
100
AcDbEntity
  8
ARMATUR
390
0
  6
DURCHGEHEND
 62
     1
100
AcDbLine
 10
184.042206
 20
105.522041
 30
0.0
 11
184.042206
 21
102.652252
 31
0.0
  0
LINE
  5
365
100
AcDbEntity
  8
ARMATUR
390
0
  6
DURCHGEHEND
 62
     1
100
AcDbLine
 10
184.542206
 20
105.526237
 30
0.0
 11
184.542206
 21
102.664345
 31
0.0
  0
LINE
  5
366
100
AcDbEntity
  8
ARMATUR
390
0
  6
DURCHGEHEND
 62
     1
100
AcDbLine
 10
184.042206
 20
110.586426
 30
0.0
 11
184.042206
 21
110.770607
 31
0.0
  0
LINE
  5
367
100
AcDbEntity
  8
ARMATUR
390
0
  6
DURCHGEHEND
 62
     1
100
AcDbLine
 10
184.542206
 20
110.754257
 30
0.0
 11
184.542206
 21
110.477974
 31
0.0
  0
LINE
  5
368
100
AcDbEntity
  8
ARMATUR
390
0
  6
DURCHGEHEND
 62
     1
100
AcDbLine
 10
184.042206
 20
102.652252
 30
0.0
 11
184.042206
 21
98.545998
 31
0.0
  0
LINE
  5
369
100
AcDbEntity
  8
ARMATUR
390
0
  6
DURCHGEHEND
 62
     1
100
AcDbLine
 10
184.542206
 20
102.664345
 30
0.0
 11
184.542206
 21
98.658333
 31
0.0
  0
LINE
  5
36A
100
AcDbEntity
  8
ARMATUR
390
0
  6
DURCHGEHEND
 62
     1
100
AcDbLine
 10
184.042206
 20
114.963806
 30
0.0
 11
184.042206
 21
110.770607
 31
0.0
  0
LINE
  5
36B
100
AcDbEntity
  8
ARMATUR
390
0
  6
DURCHGEHEND
 62
     1
100
AcDbLine
 10
184.542206
 20
114.93515
 30
0.0
 11
184.542206
 21
110.754257
 31
0.0
  0
LINE
  5
36C
100
AcDbEntity
  8
ARMATUR
390
0
  6
DURCHGEHEND
 62
     1
100
AcDbLine
 10
214.917206
 20
114.680183
 30
0.0
 11
214.917206
 21
102.771912
 31
0.0
  0
LINE
  5
36D
100
AcDbEntity
  8
ARMATUR
390
0
  6
DURCHGEHEND
 62
     1
100
AcDbLine
 10
214.917206
 20
102.771912
 30
0.0
 11
214.917206
 21
99.65773
 31
0.0
  0
LINE
  5
36E
100
AcDbEntity
  8
ARMATUR
390
0
  6
DURCHGEHEND
 62
     1
100
AcDbLine
 10
184.042206
 20
121.276886
 30
0.0
 11
184.042206
 21
114.963806
 31
0.0
  0
LINE
  5
36F
100
AcDbEntity
  8
ARMATUR
390
0
  6
DURCHGEHEND
 62
     1
100
AcDbLine
 10
184.542206
 20
121.148605
 30
0.0
 11
184.542206
 21
114.93515
 31
0.0
  0
LINE
  5
370
100
AcDbEntity
  8
ARMATUR
390
0
  6
DURCHGEHEND
 62
     1
100
AcDbLine
 10
214.917206
 20
120.007423
 30
0.0
 11
214.917206
 21
114.680183
 31
0.0
  0
LINE
  5
371
100
AcDbEntity
  8
ARMATUR
390
0
  6
DURCHGEHEND
 62
     1
100
AcDbLine
 10
184.042206
 20
98.545998
 30
0.0
 11
184.042206
 21
96.992371
 31
0.0
  0
LINE
  5
372
100
AcDbEntity
  8
ARMATUR
390
0
  6
DURCHGEHEND
 62
     1
100
AcDbLine
 10
184.542206
 20
98.658333
 30
0.0
 11
184.542206
 21
97.120644
 31
0.0
  0
LINE
  5
373
100
AcDbEntity
  8
ARMATUR
390
0
  6
DURCHGEHEND
 62
     1
100
AcDbLine
 10
214.917206
 20
99.65773
 30
0.0
 11
214.917206
 21
98.261833
 31
0.0
  0
LINE
  5
374
100
AcDbEntity
  8
ARMATUR
390
0
  6
DURCHGEHEND
 62
     1
100
AcDbLine
 10
185.417206
 20
109.085022
 30
0.0
 11
185.417206
 21
107.210022
 31
0.0
  0
LINE
  5
375
100
AcDbEntity
  8
ARMATUR
390
0
  6
DURCHGEHEND
 62
     1
100
AcDbLine
 10
184.042206
 20
106.106453
 30
0.0
 11
181.917206
 21
106.106453
 31
0.0
  0
LINE
  5
376
100
AcDbEntity
  8
ARMATUR
390
0
  6
DURCHGEHEND
 62
     1
100
AcDbLine
 10
181.917206
 20
110.163826
 30
0.0
 11
184.042206
 21
110.163826
 31
0.0
  0
LINE
  5
377
100
AcDbEntity
  8
ARMATUR
390
0
  6
DURCHGEHEND
 62
     1
100
AcDbLine
 10
184.042206
 20
102.770485
 30
0.0
 11
176.90564
 21
102.770485
 31
0.0
  0
POLYLINE
  5
378
100
AcDbEntity
  8
ARMATUR
390
0
  6
DURCHGEHEND
 62
     1
100
AcDb3dPolyline
 66
     1
 10
0.0
 20
0.0
 30
0.0
 70
    12
 75
     5
  0
VERTEX
  5
379
100
AcDbEntity
  8
0
390
0
100
AcDbVertex
100
AcDb3dPolylineVertex
 10
181.285767
 20
120.018646
 30
0.0
 70
    48
  0
VERTEX
  5
37A
100
AcDbEntity
  8
0
390
0
100
AcDbVertex
100
AcDb3dPolylineVertex
 10
181.285767
 20
120.018646
 30
0.0
 70
    40
  0
VERTEX
  5
37B
100
AcDbEntity
  8
0
390
0
100
AcDbVertex
100
AcDb3dPolylineVertex
 10
181.291199
 20
120.021927
 30
0.0
 70
    40
  0
VERTEX
  5
37C
100
AcDbEntity
  8
0
390
0
100
AcDbVertex
100
AcDb3dPolylineVertex
 10
181.285767
 20
120.018646
 30
0.0
 70
    48
  0
VERTEX
  5
37D
100
AcDbEntity
  8
0
390
0
100
AcDbVertex
100
AcDb3dPolylineVertex
 10
181.291199
 20
120.021927
 30
0.0
 70
    48
  0
VERTEX
  5
37E
100
AcDbEntity
  8
0
390
0
100
AcDbVertex
100
AcDb3dPolylineVertex
 10
181.291199
 20
120.021927
 30
0.0
 70
    48
  0
VERTEX
  5
37F
100
AcDbEntity
  8
0
390
0
100
AcDbVertex
100
AcDb3dPolylineVertex
 10
181.23233
 20
119.986633
 30
0.0
 70
    40
  0
VERTEX
  5
380
100
AcDbEntity
  8
0
390
0
100
AcDbVertex
100
AcDb3dPolylineVertex
 10
181.291199
 20
120.021927
 30
0.0
 70
    48
  0
VERTEX
  5
381
100
AcDbEntity
  8
0
390
0
100
AcDbVertex
100
AcDb3dPolylineVertex
 10
181.23233
 20
119.986633
 30
0.0
 70
    48
  0
VERTEX
  5
382
100
AcDbEntity
  8
0
390
0
100
AcDbVertex
100
AcDb3dPolylineVertex
 10
181.23233
 20
119.986633
 30
0.0
 70
    48
  0
VERTEX
  5
383
100
AcDbEntity
  8
0
390
0
100
AcDbVertex
100
AcDb3dPolylineVertex
 10
181.087189
 20
119.901009
 30
0.0
 70
    40
  0
VERTEX
  5
384
100
AcDbEntity
  8
0
390
0
100
AcDbVertex
100
AcDb3dPolylineVertex
 10
181.23233
 20
119.986633
 30
0.0
 70
    48
  0
VERTEX
  5
385
100
AcDbEntity
  8
0
390
0
100
AcDbVertex
100
AcDb3dPolylineVertex
 10
181.087189
 20
119.901009
 30
0.0
 70
    48
  0
VERTEX
  5
386
100
AcDbEntity
  8
0
390
0
100
AcDbVertex
100
AcDb3dPolylineVertex
 10
181.087189
 20
119.901009
 30
0.0
 70
    48
  0
VERTEX
  5
387
100
AcDbEntity
  8
0
390
0
100
AcDbVertex
100
AcDb3dPolylineVertex
 10
180.855988
 20
119.767891
 30
0.0
 70
    40
  0
VERTEX
  5
388
100
AcDbEntity
  8
0
390
0
100
AcDbVertex
100
AcDb3dPolylineVertex
 10
181.087189
 20
119.901009
 30
0.0
 70
    48
  0
VERTEX
  5
389
100
AcDbEntity
  8
0
390
0
100
AcDbVertex
100
AcDb3dPolylineVertex
 10
180.855988
 20
119.767891
 30
0.0
 70
    48
  0
VERTEX
  5
38A
100
AcDbEntity
  8
0
390
0
100
AcDbVertex
100
AcDb3dPolylineVertex
 10
180.855988
 20
119.767891
 30
0.0
 70
    48
  0
VERTEX
  5
38B
100
AcDbEntity
  8
0
390
0
100
AcDbVertex
100
AcDb3dPolylineVertex
 10
180.551758
 20
119.599594
 30
0.0
 70
    40
  0
VERTEX
  5
38C
100
AcDbEntity
  8
0
390
0
100
AcDbVertex
100
AcDb3dPolylineVertex
 10
180.855988
 20
119.767891
 30
0.0
 70
    48
  0
VERTEX
  5
38D
100
AcDbEntity
  8
0
390
0
100
AcDbVertex
100
AcDb3dPolylineVertex
 10
180.551758
 20
119.599594
 30
0.0
 70
    48
  0
VERTEX
  5
38E
100
AcDbEntity
  8
0
390
0
100
AcDbVertex
100
AcDb3dPolylineVertex
 10
180.551758
 20
119.599594
 30
0.0
 70
    48
  0
SEQEND
  5
38F
100
AcDbEntity
  8
0
390
0
  0
LINE
  5
390
100
AcDbEntity
  8
ARMATUR
390
0
  6
DURCHGEHEND
 62
     1
100
AcDbLine
 10
174.277679
 20
121.227112
 30
0.0
 11
172.292206
 21
121.227112
 31
0.0
  0
LINE
  5
391
100
AcDbEntity
  8
ARMATUR
390
0
  6
DURCHGEHEND
 62
     1
100
AcDbLine
 10
172.292206
 20
127.727112
 30
0.0
 11
174.277679
 21
127.727112
 31
0.0
  0
POLYLINE
  5
392
100
AcDbEntity
  8
ARMATUR
390
0
  6
DURCHGEHEND
 62
     1
100
AcDb3dPolyline
 66
     1
 10
0.0
 20
0.0
 30
0.0
 70
    12
 75
     5
  0
VERTEX
  5
393
100
AcDbEntity
  8
0
390
0
100
AcDbVertex
100
AcDb3dPolylineVertex
 10
179.873291
 20
119.90686
 30
0.0
 70
    48
  0
VERTEX
  5
394
100
AcDbEntity
  8
0
390
0
100
AcDbVertex
100
AcDb3dPolylineVertex
 10
179.873291
 20
119.90686
 30
0.0
 70
    40
  0
VERTEX
  5
395
100
AcDbEntity
  8
0
390
0
100
AcDbVertex
100
AcDb3dPolylineVertex
 10
180.253082
 20
120.149551
 30
0.0
 70
    40
  0
VERTEX
  5
396
100
AcDbEntity
  8
0
390
0
100
AcDbVertex
100
AcDb3dPolylineVertex
 10
179.873291
 20
119.90686
 30
0.0
 70
    48
  0
VERTEX
  5
397
100
AcDbEntity
  8
0
390
0
100
AcDbVertex
100
AcDb3dPolylineVertex
 10
180.253082
 20
120.149551
 30
0.0
 70
    48
  0
VERTEX
  5
398
100
AcDbEntity
  8
0
390
0
100
AcDbVertex
100
AcDb3dPolylineVertex
 10
180.253082
 20
120.149551
 30
0.0
 70
    48
  0
VERTEX
  5
399
100
AcDbEntity
  8
0
390
0
100
AcDbVertex
100
AcDb3dPolylineVertex
 10
180.542206
 20
120.345734
 30
0.0
 70
    40
  0
VERTEX
  5
39A
100
AcDbEntity
  8
0
390
0
100
AcDbVertex
100
AcDb3dPolylineVertex
 10
180.253082
 20
120.149551
 30
0.0
 70
    48
  0
VERTEX
  5
39B
100
AcDbEntity
  8
0
390
0
100
AcDbVertex
100
AcDb3dPolylineVertex
 10
180.542206
 20
120.345734
 30
0.0
 70
    48
  0
VERTEX
  5
39C
100
AcDbEntity
  8
0
390
0
100
AcDbVertex
100
AcDb3dPolylineVertex
 10
180.542206
 20
120.345734
 30
0.0
 70
    48
  0
VERTEX
  5
39D
100
AcDbEntity
  8
0
390
0
100
AcDbVertex
100
AcDb3dPolylineVertex
 10
180.701874
 20
120.457848
 30
0.0
 70
    40
  0
VERTEX
  5
39E
100
AcDbEntity
  8
0
390
0
100
AcDbVertex
100
AcDb3dPolylineVertex
 10
180.542206
 20
120.345734
 30
0.0
 70
    48
  0
VERTEX
  5
39F
100
AcDbEntity
  8
0
390
0
100
AcDbVertex
100
AcDb3dPolylineVertex
 10
180.701874
 20
120.457848
 30
0.0
 70
    48
  0
VERTEX
  5
3A0
100
AcDbEntity
  8
0
390
0
100
AcDbVertex
100
AcDb3dPolylineVertex
 10
180.701874
 20
120.457848
 30
0.0
 70
    48
  0
VERTEX
  5
3A1
100
AcDbEntity
  8
0
390
0
100
AcDbVertex
100
AcDb3dPolylineVertex
 10
180.78299
 20
120.5159
 30
0.0
 70
    40
  0
VERTEX
  5
3A2
100
AcDbEntity
  8
0
390
0
100
AcDbVertex
100
AcDb3dPolylineVertex
 10
180.701874
 20
120.457848
 30
0.0
 70
    48
  0
VERTEX
  5
3A3
100
AcDbEntity
  8
0
390
0
100
AcDbVertex
100
AcDb3dPolylineVertex
 10
180.78299
 20
120.5159
 30
0.0
 70
    48
  0
VERTEX
  5
3A4
100
AcDbEntity
  8
0
390
0
100
AcDbVertex
100
AcDb3dPolylineVertex
 10
180.78299
 20
120.5159
 30
0.0
 70
    48
  0
VERTEX
  5
3A5
100
AcDbEntity
  8
0
390
0
100
AcDbVertex
100
AcDb3dPolylineVertex
 10
180.781464
 20
120.514755
 30
0.0
 70
    40
  0
VERTEX
  5
3A6
100
AcDbEntity
  8
0
390
0
100
AcDbVertex
100
AcDb3dPolylineVertex
 10
180.78299
 20
120.5159
 30
0.0
 70
    48
  0
VERTEX
  5
3A7
100
AcDbEntity
  8
0
390
0
100
AcDbVertex
100
AcDb3dPolylineVertex
 10
180.781464
 20
120.514755
 30
0.0
 70
    48
  0
VERTEX
  5
3A8
100
AcDbEntity
  8
0
390
0
100
AcDbVertex
100
AcDb3dPolylineVertex
 10
180.781464
 20
120.514755
 30
0.0
 70
    48
  0
SEQEND
  5
3A9
100
AcDbEntity
  8
0
390
0
  0
LINE
  5
3AA
100
AcDbEntity
  8
ARMATUR
390
0
  6
_GESTRICHELT
 62
     5
100
AcDbLine
 10
178.852112
 20
96.854637
 30
0.0
 11
178.852112
 21
91.897514
 31
0.0
  0
LINE
  5
3AB
100
AcDbEntity
  8
ARMATUR
390
0
  6
_GESTRICHELT
 62
     5
100
AcDbLine
 10
174.194489
 20
96.854637
 30
0.0
 11
174.194489
 21
91.897514
 31
0.0
  0
LINE
  5
3AC
100
AcDbEntity
  8
ARMATUR
390
0
  6
DURCHGEHEND
 62
     1
100
AcDbLine
 10
180.792206
 20
129.396667
 30
0.0
 11
172.292206
 21
129.396667
 31
0.0
  0
POLYLINE
  5
3AD
100
AcDbEntity
  8
ARMATUR
390
0
  6
DURCHGEHEND
 62
     3
100
AcDb3dPolyline
 66
     1
 10
0.0
 20
0.0
 30
0.0
 70
    12
 75
     5
  0
VERTEX
  5
3AE
100
AcDbEntity
  8
0
390
0
100
AcDbVertex
100
AcDb3dPolylineVertex
 10
172.90387
 20
118.611374
 30
0.0
 70
    48
  0
VERTEX
  5
3AF
100
AcDbEntity
  8
0
390
0
100
AcDbVertex
100
AcDb3dPolylineVertex
 10
172.90387
 20
118.611374
 30
0.0
 70
    40
  0
VERTEX
  5
3B0
100
AcDbEntity
  8
0
390
0
100
AcDbVertex
100
AcDb3dPolylineVertex
 10
173.138748
 20
118.423744
 30
0.0
 70
    40
  0
VERTEX
  5
3B1
100
AcDbEntity
  8
0
390
0
100
AcDbVertex
100
AcDb3dPolylineVertex
 10
173.805588
 20
118.013428
 30
0.0
 70
    40
  0
VERTEX
  5
3B2
100
AcDbEntity
  8
0
390
0
100
AcDbVertex
100
AcDb3dPolylineVertex
 10
174.847687
 20
117.609306
 30
0.0
 70
    40
  0
VERTEX
  5
3B3
100
AcDbEntity
  8
0
390
0
100
AcDbVertex
100
AcDb3dPolylineVertex
 10
176.208359
 20
117.440231
 30
0.0
 70
    40
  0
VERTEX
  5
3B4
100
AcDbEntity
  8
0
390
0
100
AcDbVertex
100
AcDb3dPolylineVertex
 10
177.830872
 20
117.735077
 30
0.0
 70
    40
  0
VERTEX
  5
3B5
100
AcDbEntity
  8
0
390
0
100
AcDbVertex
100
AcDb3dPolylineVertex
 10
179.658539
 20
118.72271
 30
0.0
 70
    40
  0
VERTEX
  5
3B6
100
AcDbEntity
  8
0
390
0
100
AcDbVertex
100
AcDb3dPolylineVertex
 10
172.90387
 20
118.611374
 30
0.0
 70
    48
  0
VERTEX
  5
3B7
100
AcDbEntity
  8
0
390
0
100
AcDbVertex
100
AcDb3dPolylineVertex
 10
175.835846
 20
115.902077
 30
0.0
 70
    48
  0
VERTEX
  5
3B8
100
AcDbEntity
  8
0
390
0
100
AcDbVertex
100
AcDb3dPolylineVertex
 10
179.658539
 20
118.72271
 30
0.0
 70
    48
  0
SEQEND
  5
3B9
100
AcDbEntity
  8
0
390
0
  0
LINE
  5
3BA
100
AcDbEntity
  8
ARMATUR
390
0
  6
DURCHGEHEND
 62
     1
100
AcDbLine
 10
173.059631
 20
110.415657
 30
0.0
 11
173.684631
 21
110.415657
 31
0.0
  0
LINE
  5
3BB
100
AcDbEntity
  8
ARMATUR
390
0
  6
DURCHGEHEND
 62
     1
100
AcDbLine
 10
173.684631
 20
113.665657
 30
0.0
 11
173.059631
 21
113.665657
 31
0.0
  0
LINE
  5
3BC
100
AcDbEntity
  8
ARMATUR
390
0
  6
DURCHGEHEND
 62
     1
100
AcDbLine
 10
171.559631
 20
110.45031
 30
0.0
 11
172.934631
 21
110.45031
 31
0.0
  0
LINE
  5
3BD
100
AcDbEntity
  8
ARMATUR
390
0
  6
DURCHGEHEND
 62
     1
100
AcDbLine
 10
171.559631
 20
113.608696
 30
0.0
 11
172.934631
 21
113.608696
 31
0.0
  0
LINE
  5
3BE
100
AcDbEntity
  8
ARMATUR
390
0
  6
DURCHGEHEND
 62
     1
100
AcDbLine
 10
172.934631
 20
110.45031
 30
0.0
 11
172.934631
 21
113.608696
 31
0.0
  0
LINE
  5
3BF
100
AcDbEntity
  8
ARMATUR
390
0
  6
DURCHGEHEND
 62
     1
100
AcDbLine
 10
173.059631
 20
114.514366
 30
0.0
 11
173.059631
 21
113.608696
 31
0.0
  0
LINE
  5
3C0
100
AcDbEntity
  8
ARMATUR
390
0
  6
DURCHGEHEND
 62
     1
100
AcDbLine
 10
173.059631
 20
113.608696
 30
0.0
 11
172.934631
 21
113.608696
 31
0.0
  0
LINE
  5
3C1
100
AcDbEntity
  8
ARMATUR
390
0
  6
DURCHGEHEND
 62
     1
100
AcDbLine
 10
171.559631
 20
114.514366
 30
0.0
 11
171.559631
 21
113.608696
 31
0.0
  0
LINE
  5
3C2
100
AcDbEntity
  8
ARMATUR
390
0
  6
DURCHGEHEND
 62
     1
100
AcDbLine
 10
173.059631
 20
110.45031
 30
0.0
 11
172.934631
 21
110.45031
 31
0.0
  0
LINE
  5
3C3
100
AcDbEntity
  8
ARMATUR
390
0
  6
DURCHGEHEND
 62
     1
100
AcDbLine
 10
171.559631
 20
109.556648
 30
0.0
 11
173.059631
 21
109.556648
 31
0.0
  0
LINE
  5
3C4
100
AcDbEntity
  8
ARMATUR
390
0
  6
DURCHGEHEND
 62
     1
100
AcDbLine
 10
173.059631
 20
110.45031
 30
0.0
 11
173.059631
 21
109.556648
 31
0.0
  0
LINE
  5
3C5
100
AcDbEntity
  8
ARMATUR
390
0
  6
DURCHGEHEND
 62
     1
100
AcDbLine
 10
171.559631
 20
110.45031
 30
0.0
 11
171.559631
 21
109.556648
 31
0.0
  0
LINE
  5
3C6
100
AcDbEntity
  8
ARMATUR
390
0
  6
DURCHGEHEND
 62
     1
100
AcDbLine
 10
171.967163
 20
114.540657
 30
0.0
 11
173.059631
 21
114.540657
 31
0.0
  0
LINE
  5
3C7
100
AcDbEntity
  8
ARMATUR
390
0
  6
DURCHGEHEND
 62
     1
100
AcDbLine
 10
171.559631
 20
114.540657
 30
0.0
 11
171.967163
 21
114.540657
 31
0.0
  0
LINE
  5
3C8
100
AcDbEntity
  8
ARMATUR
390
0
  6
DURCHGEHEND
 62
     1
100
AcDbLine
 10
173.059631
 20
114.540657
 30
0.0
 11
173.059631
 21
114.514366
 31
0.0
  0
LINE
  5
3C9
100
AcDbEntity
  8
ARMATUR
390
0
  6
DURCHGEHEND
 62
     1
100
AcDbLine
 10
171.559631
 20
114.540657
 30
0.0
 11
171.559631
 21
114.514366
 31
0.0
  0
POLYLINE
  5
3CA
100
AcDbEntity
  8
ARMATUR
390
0
  6
DURCHGEHEND
 62
     1
100
AcDb3dPolyline
 66
     1
 10
0.0
 20
0.0
 30
0.0
 70
    12
 75
     5
  0
VERTEX
  5
3CB
100
AcDbEntity
  8
0
390
0
100
AcDbVertex
100
AcDb3dPolylineVertex
 10
173.172424
 20
109.38752
 30
0.0
 70
    48
  0
VERTEX
  5
3CC
100
AcDbEntity
  8
0
390
0
100
AcDbVertex
100
AcDb3dPolylineVertex
 10
173.172424
 20
109.38752
 30
0.0
 70
    40
  0
VERTEX
  5
3CD
100
AcDbEntity
  8
0
390
0
100
AcDbVertex
100
AcDb3dPolylineVertex
 10
173.085327
 20
109.499702
 30
0.0
 70
    40
  0
VERTEX
  5
3CE
100
AcDbEntity
  8
0
390
0
100
AcDbVertex
100
AcDb3dPolylineVertex
 10
173.172424
 20
109.38752
 30
0.0
 70
    48
  0
VERTEX
  5
3CF
100
AcDbEntity
  8
0
390
0
100
AcDbVertex
100
AcDb3dPolylineVertex
 10
173.085327
 20
109.499702
 30
0.0
 70
    48
  0
VERTEX
  5
3D0
100
AcDbEntity
  8
0
390
0
100
AcDbVertex
100
AcDb3dPolylineVertex
 10
173.085327
 20
109.499702
 30
0.0
 70
    48
  0
VERTEX
  5
3D1
100
AcDbEntity
  8
0
390
0
100
AcDbVertex
100
AcDb3dPolylineVertex
 10
173.059631
 20
109.536171
 30
0.0
 70
    40
  0
VERTEX
  5
3D2
100
AcDbEntity
  8
0
390
0
100
AcDbVertex
100
AcDb3dPolylineVertex
 10
173.085327
 20
109.499702
 30
0.0
 70
    48
  0
VERTEX
  5
3D3
100
AcDbEntity
  8
0
390
0
100
AcDbVertex
100
AcDb3dPolylineVertex
 10
173.059631
 20
109.536171
 30
0.0
 70
    48
  0
VERTEX
  5
3D4
100
AcDbEntity
  8
0
390
0
100
AcDbVertex
100
AcDb3dPolylineVertex
 10
173.059631
 20
109.536171
 30
0.0
 70
    48
  0
SEQEND
  5
3D5
100
AcDbEntity
  8
0
390
0
  0
POLYLINE
  5
3D6
100
AcDbEntity
  8
ARMATUR
390
0
  6
DURCHGEHEND
 62
     1
100
AcDb3dPolyline
 66
     1
 10
0.0
 20
0.0
 30
0.0
 70
    12
 75
     5
  0
VERTEX
  5
3D7
100
AcDbEntity
  8
0
390
0
100
AcDbVertex
100
AcDb3dPolylineVertex
 10
173.059631
 20
114.560158
 30
0.0
 70
    48
  0
VERTEX
  5
3D8
100
AcDbEntity
  8
0
390
0
100
AcDbVertex
100
AcDb3dPolylineVertex
 10
173.059631
 20
114.560158
 30
0.0
 70
    40
  0
VERTEX
  5
3D9
100
AcDbEntity
  8
0
390
0
100
AcDbVertex
100
AcDb3dPolylineVertex
 10
173.089935
 20
114.705353
 30
0.0
 70
    40
  0
VERTEX
  5
3DA
100
AcDbEntity
  8
0
390
0
100
AcDbVertex
100
AcDb3dPolylineVertex
 10
173.059631
 20
114.560158
 30
0.0
 70
    48
  0
VERTEX
  5
3DB
100
AcDbEntity
  8
0
390
0
100
AcDbVertex
100
AcDb3dPolylineVertex
 10
173.089935
 20
114.705353
 30
0.0
 70
    48
  0
VERTEX
  5
3DC
100
AcDbEntity
  8
0
390
0
100
AcDbVertex
100
AcDb3dPolylineVertex
 10
173.089935
 20
114.705353
 30
0.0
 70
    48
  0
VERTEX
  5
3DD
100
AcDbEntity
  8
0
390
0
100
AcDbVertex
100
AcDb3dPolylineVertex
 10
173.218536
 20
114.985878
 30
0.0
 70
    40
  0
VERTEX
  5
3DE
100
AcDbEntity
  8
0
390
0
100
AcDbVertex
100
AcDb3dPolylineVertex
 10
173.089935
 20
114.705353
 30
0.0
 70
    48
  0
VERTEX
  5
3DF
100
AcDbEntity
  8
0
390
0
100
AcDbVertex
100
AcDb3dPolylineVertex
 10
173.218536
 20
114.985878
 30
0.0
 70
    48
  0
VERTEX
  5
3E0
100
AcDbEntity
  8
0
390
0
100
AcDbVertex
100
AcDb3dPolylineVertex
 10
173.218536
 20
114.985878
 30
0.0
 70
    48
  0
VERTEX
  5
3E1
100
AcDbEntity
  8
0
390
0
100
AcDbVertex
100
AcDb3dPolylineVertex
 10
173.308228
 20
115.159004
 30
0.0
 70
    40
  0
VERTEX
  5
3E2
100
AcDbEntity
  8
0
390
0
100
AcDbVertex
100
AcDb3dPolylineVertex
 10
173.218536
 20
114.985878
 30
0.0
 70
    48
  0
VERTEX
  5
3E3
100
AcDbEntity
  8
0
390
0
100
AcDbVertex
100
AcDb3dPolylineVertex
 10
173.308228
 20
115.159004
 30
0.0
 70
    48
  0
VERTEX
  5
3E4
100
AcDbEntity
  8
0
390
0
100
AcDbVertex
100
AcDb3dPolylineVertex
 10
173.308228
 20
115.159004
 30
0.0
 70
    48
  0
VERTEX
  5
3E5
100
AcDbEntity
  8
0
390
0
100
AcDbVertex
100
AcDb3dPolylineVertex
 10
173.309631
 20
115.161766
 30
0.0
 70
    40
  0
VERTEX
  5
3E6
100
AcDbEntity
  8
0
390
0
100
AcDbVertex
100
AcDb3dPolylineVertex
 10
173.308228
 20
115.159004
 30
0.0
 70
    48
  0
VERTEX
  5
3E7
100
AcDbEntity
  8
0
390
0
100
AcDbVertex
100
AcDb3dPolylineVertex
 10
173.309631
 20
115.161766
 30
0.0
 70
    48
  0
VERTEX
  5
3E8
100
AcDbEntity
  8
0
390
0
100
AcDbVertex
100
AcDb3dPolylineVertex
 10
173.309631
 20
115.161766
 30
0.0
 70
    48
  0
SEQEND
  5
3E9
100
AcDbEntity
  8
0
390
0
  0
POLYLINE
  5
3EA
100
AcDbEntity
  8
ARMATUR
390
0
  6
DURCHGEHEND
 62
     1
100
AcDb3dPolyline
 66
     1
 10
0.0
 20
0.0
 30
0.0
 70
    12
 75
     5
  0
VERTEX
  5
3EB
100
AcDbEntity
  8
0
390
0
100
AcDbVertex
100
AcDb3dPolylineVertex
 10
171.559631
 20
114.540657
 30
0.0
 70
    48
  0
VERTEX
  5
3EC
100
AcDbEntity
  8
0
390
0
100
AcDbVertex
100
AcDb3dPolylineVertex
 10
171.559631
 20
114.540657
 30
0.0
 70
    40
  0
VERTEX
  5
3ED
100
AcDbEntity
  8
0
390
0
100
AcDbVertex
100
AcDb3dPolylineVertex
 10
171.673676
 20
114.549377
 30
0.0
 70
    40
  0
VERTEX
  5
3EE
100
AcDbEntity
  8
0
390
0
100
AcDbVertex
100
AcDb3dPolylineVertex
 10
171.559631
 20
114.540657
 30
0.0
 70
    48
  0
VERTEX
  5
3EF
100
AcDbEntity
  8
0
390
0
100
AcDbVertex
100
AcDb3dPolylineVertex
 10
171.673676
 20
114.549377
 30
0.0
 70
    48
  0
VERTEX
  5
3F0
100
AcDbEntity
  8
0
390
0
100
AcDbVertex
100
AcDb3dPolylineVertex
 10
171.673676
 20
114.549377
 30
0.0
 70
    48
  0
VERTEX
  5
3F1
100
AcDbEntity
  8
0
390
0
100
AcDbVertex
100
AcDb3dPolylineVertex
 10
171.809998
 20
114.583672
 30
0.0
 70
    40
  0
VERTEX
  5
3F2
100
AcDbEntity
  8
0
390
0
100
AcDbVertex
100
AcDb3dPolylineVertex
 10
171.673676
 20
114.549377
 30
0.0
 70
    48
  0
VERTEX
  5
3F3
100
AcDbEntity
  8
0
390
0
100
AcDbVertex
100
AcDb3dPolylineVertex
 10
171.809998
 20
114.583672
 30
0.0
 70
    48
  0
VERTEX
  5
3F4
100
AcDbEntity
  8
0
390
0
100
AcDbVertex
100
AcDb3dPolylineVertex
 10
171.809998
 20
114.583672
 30
0.0
 70
    48
  0
VERTEX
  5
3F5
100
AcDbEntity
  8
0
390
0
100
AcDbVertex
100
AcDb3dPolylineVertex
 10
172.023895
 20
114.70163
 30
0.0
 70
    40
  0
VERTEX
  5
3F6
100
AcDbEntity
  8
0
390
0
100
AcDbVertex
100
AcDb3dPolylineVertex
 10
171.809998
 20
114.583672
 30
0.0
 70
    48
  0
VERTEX
  5
3F7
100
AcDbEntity
  8
0
390
0
100
AcDbVertex
100
AcDb3dPolylineVertex
 10
172.023895
 20
114.70163
 30
0.0
 70
    48
  0
VERTEX
  5
3F8
100
AcDbEntity
  8
0
390
0
100
AcDbVertex
100
AcDb3dPolylineVertex
 10
172.023895
 20
114.70163
 30
0.0
 70
    48
  0
VERTEX
  5
3F9
100
AcDbEntity
  8
0
390
0
100
AcDbVertex
100
AcDb3dPolylineVertex
 10
172.205292
 20
114.90905
 30
0.0
 70
    40
  0
VERTEX
  5
3FA
100
AcDbEntity
  8
0
390
0
100
AcDbVertex
100
AcDb3dPolylineVertex
 10
172.023895
 20
114.70163
 30
0.0
 70
    48
  0
VERTEX
  5
3FB
100
AcDbEntity
  8
0
390
0
100
AcDbVertex
100
AcDb3dPolylineVertex
 10
172.205292
 20
114.90905
 30
0.0
 70
    48
  0
VERTEX
  5
3FC
100
AcDbEntity
  8
0
390
0
100
AcDbVertex
100
AcDb3dPolylineVertex
 10
172.205292
 20
114.90905
 30
0.0
 70
    48
  0
VERTEX
  5
3FD
100
AcDbEntity
  8
0
390
0
100
AcDbVertex
100
AcDb3dPolylineVertex
 10
172.292206
 20
115.12989
 30
0.0
 70
    40
  0
VERTEX
  5
3FE
100
AcDbEntity
  8
0
390
0
100
AcDbVertex
100
AcDb3dPolylineVertex
 10
172.205292
 20
114.90905
 30
0.0
 70
    48
  0
VERTEX
  5
3FF
100
AcDbEntity
  8
0
390
0
100
AcDbVertex
100
AcDb3dPolylineVertex
 10
172.292206
 20
115.12989
 30
0.0
 70
    48
  0
VERTEX
  5
400
100
AcDbEntity
  8
0
390
0
100
AcDbVertex
100
AcDb3dPolylineVertex
 10
172.292206
 20
115.12989
 30
0.0
 70
    48
  0
SEQEND
  5
401
100
AcDbEntity
  8
0
390
0
  0
POLYLINE
  5
402
100
AcDbEntity
  8
ARMATUR
390
0
  6
DURCHGEHEND
 62
     1
100
AcDb3dPolyline
 66
     1
 10
0.0
 20
0.0
 30
0.0
 70
    12
 75
     5
  0
VERTEX
  5
403
100
AcDbEntity
  8
0
390
0
100
AcDbVertex
100
AcDb3dPolylineVertex
 10
172.658478
 20
115.161766
 30
0.0
 70
    48
  0
VERTEX
  5
404
100
AcDbEntity
  8
0
390
0
100
AcDbVertex
100
AcDb3dPolylineVertex
 10
172.658478
 20
115.161766
 30
0.0
 70
    40
  0
VERTEX
  5
405
100
AcDbEntity
  8
0
390
0
100
AcDbVertex
100
AcDb3dPolylineVertex
 10
172.589783
 20
115.173508
 30
0.0
 70
    40
  0
VERTEX
  5
406
100
AcDbEntity
  8
0
390
0
100
AcDbVertex
100
AcDb3dPolylineVertex
 10
172.658478
 20
115.161766
 30
0.0
 70
    48
  0
VERTEX
  5
407
100
AcDbEntity
  8
0
390
0
100
AcDbVertex
100
AcDb3dPolylineVertex
 10
172.589783
 20
115.173508
 30
0.0
 70
    48
  0
VERTEX
  5
408
100
AcDbEntity
  8
0
390
0
100
AcDbVertex
100
AcDb3dPolylineVertex
 10
172.589783
 20
115.173508
 30
0.0
 70
    48
  0
VERTEX
  5
409
100
AcDbEntity
  8
0
390
0
100
AcDbVertex
100
AcDb3dPolylineVertex
 10
172.523499
 20
115.18087
 30
0.0
 70
    40
  0
VERTEX
  5
40A
100
AcDbEntity
  8
0
390
0
100
AcDbVertex
100
AcDb3dPolylineVertex
 10
172.589783
 20
115.173508
 30
0.0
 70
    48
  0
VERTEX
  5
40B
100
AcDbEntity
  8
0
390
0
100
AcDbVertex
100
AcDb3dPolylineVertex
 10
172.523499
 20
115.18087
 30
0.0
 70
    48
  0
VERTEX
  5
40C
100
AcDbEntity
  8
0
390
0
100
AcDbVertex
100
AcDb3dPolylineVertex
 10
172.523499
 20
115.18087
 30
0.0
 70
    48
  0
VERTEX
  5
40D
100
AcDbEntity
  8
0
390
0
100
AcDbVertex
100
AcDb3dPolylineVertex
 10
172.461975
 20
115.183586
 30
0.0
 70
    40
  0
VERTEX
  5
40E
100
AcDbEntity
  8
0
390
0
100
AcDbVertex
100
AcDb3dPolylineVertex
 10
172.523499
 20
115.18087
 30
0.0
 70
    48
  0
VERTEX
  5
40F
100
AcDbEntity
  8
0
390
0
100
AcDbVertex
100
AcDb3dPolylineVertex
 10
172.461975
 20
115.183586
 30
0.0
 70
    48
  0
VERTEX
  5
410
100
AcDbEntity
  8
0
390
0
100
AcDbVertex
100
AcDb3dPolylineVertex
 10
172.461975
 20
115.183586
 30
0.0
 70
    48
  0
VERTEX
  5
411
100
AcDbEntity
  8
0
390
0
100
AcDbVertex
100
AcDb3dPolylineVertex
 10
172.40741
 20
115.181557
 30
0.0
 70
    40
  0
VERTEX
  5
412
100
AcDbEntity
  8
0
390
0
100
AcDbVertex
100
AcDb3dPolylineVertex
 10
172.461975
 20
115.183586
 30
0.0
 70
    48
  0
VERTEX
  5
413
100
AcDbEntity
  8
0
390
0
100
AcDbVertex
100
AcDb3dPolylineVertex
 10
172.40741
 20
115.181557
 30
0.0
 70
    48
  0
VERTEX
  5
414
100
AcDbEntity
  8
0
390
0
100
AcDbVertex
100
AcDb3dPolylineVertex
 10
172.40741
 20
115.181557
 30
0.0
 70
    48
  0
VERTEX
  5
415
100
AcDbEntity
  8
0
390
0
100
AcDbVertex
100
AcDb3dPolylineVertex
 10
172.361725
 20
115.174858
 30
0.0
 70
    40
  0
VERTEX
  5
416
100
AcDbEntity
  8
0
390
0
100
AcDbVertex
100
AcDb3dPolylineVertex
 10
172.40741
 20
115.181557
 30
0.0
 70
    48
  0
VERTEX
  5
417
100
AcDbEntity
  8
0
390
0
100
AcDbVertex
100
AcDb3dPolylineVertex
 10
172.361725
 20
115.174858
 30
0.0
 70
    48
  0
VERTEX
  5
418
100
AcDbEntity
  8
0
390
0
100
AcDbVertex
100
AcDb3dPolylineVertex
 10
172.361725
 20
115.174858
 30
0.0
 70
    48
  0
VERTEX
  5
419
100
AcDbEntity
  8
0
390
0
100
AcDbVertex
100
AcDb3dPolylineVertex
 10
172.326538
 20
115.163727
 30
0.0
 70
    40
  0
VERTEX
  5
41A
100
AcDbEntity
  8
0
390
0
100
AcDbVertex
100
AcDb3dPolylineVertex
 10
172.361725
 20
115.174858
 30
0.0
 70
    48
  0
VERTEX
  5
41B
100
AcDbEntity
  8
0
390
0
100
AcDbVertex
100
AcDb3dPolylineVertex
 10
172.326538
 20
115.163727
 30
0.0
 70
    48
  0
VERTEX
  5
41C
100
AcDbEntity
  8
0
390
0
100
AcDbVertex
100
AcDb3dPolylineVertex
 10
172.326538
 20
115.163727
 30
0.0
 70
    48
  0
VERTEX
  5
41D
100
AcDbEntity
  8
0
390
0
100
AcDbVertex
100
AcDb3dPolylineVertex
 10
172.303101
 20
115.148552
 30
0.0
 70
    40
  0
VERTEX
  5
41E
100
AcDbEntity
  8
0
390
0
100
AcDbVertex
100
AcDb3dPolylineVertex
 10
172.326538
 20
115.163727
 30
0.0
 70
    48
  0
VERTEX
  5
41F
100
AcDbEntity
  8
0
390
0
100
AcDbVertex
100
AcDb3dPolylineVertex
 10
172.303101
 20
115.148552
 30
0.0
 70
    48
  0
VERTEX
  5
420
100
AcDbEntity
  8
0
390
0
100
AcDbVertex
100
AcDb3dPolylineVertex
 10
172.303101
 20
115.148552
 30
0.0
 70
    48
  0
VERTEX
  5
421
100
AcDbEntity
  8
0
390
0
100
AcDbVertex
100
AcDb3dPolylineVertex
 10
172.292206
 20
115.12989
 30
0.0
 70
    40
  0
VERTEX
  5
422
100
AcDbEntity
  8
0
390
0
100
AcDbVertex
100
AcDb3dPolylineVertex
 10
172.303101
 20
115.148552
 30
0.0
 70
    48
  0
VERTEX
  5
423
100
AcDbEntity
  8
0
390
0
100
AcDbVertex
100
AcDb3dPolylineVertex
 10
172.292206
 20
115.12989
 30
0.0
 70
    48
  0
VERTEX
  5
424
100
AcDbEntity
  8
0
390
0
100
AcDbVertex
100
AcDb3dPolylineVertex
 10
172.292206
 20
115.12989
 30
0.0
 70
    48
  0
SEQEND
  5
425
100
AcDbEntity
  8
0
390
0
  0
LINE
  5
426
100
AcDbEntity
  8
ARMATUR
390
0
  6
DURCHGEHEND
 62
     1
100
AcDbLine
 10
172.658478
 20
115.161766
 30
0.0
 11
173.309631
 21
115.161766
 31
0.0
  0
LINE
  5
427
100
AcDbEntity
  8
ARMATUR
390
0
  6
DURCHGEHEND
 62
     1
100
AcDbLine
 10
173.059631
 20
114.560158
 30
0.0
 11
173.059631
 21
114.540657
 31
0.0
  0
LINE
  5
428
100
AcDbEntity
  8
ARMATUR
390
0
  6
DURCHGEHEND
 62
     1
100
AcDbLine
 10
172.292206
 20
115.12989
 30
0.0
 11
172.309631
 21
115.290657
 31
0.0
  0
LINE
  5
429
100
AcDbEntity
  8
ARMATUR
390
0
  6
DURCHGEHEND
 62
     1
100
AcDbLine
 10
173.059631
 20
109.556648
 30
0.0
 11
173.059631
 21
109.540657
 31
0.0
  0
LINE
  5
42A
100
AcDbEntity
  8
ARMATUR
390
0
  6
DURCHGEHEND
 62
     1
100
AcDbLine
 10
171.559631
 20
109.556648
 30
0.0
 11
171.559631
 21
109.540657
 31
0.0
  0
POLYLINE
  5
42B
100
AcDbEntity
  8
ARMATUR
390
0
  6
DURCHGEHEND
 62
     1
100
AcDb3dPolyline
 66
     1
 10
0.0
 20
0.0
 30
0.0
 70
    12
 75
     5
  0
VERTEX
  5
42C
100
AcDbEntity
  8
0
390
0
100
AcDbVertex
100
AcDb3dPolylineVertex
 10
172.434631
 20
109.138237
 30
0.0
 70
    48
  0
VERTEX
  5
42D
100
AcDbEntity
  8
0
390
0
100
AcDbVertex
100
AcDb3dPolylineVertex
 10
172.434631
 20
109.138237
 30
0.0
 70
    40
  0
VERTEX
  5
42E
100
AcDbEntity
  8
0
390
0
100
AcDbVertex
100
AcDb3dPolylineVertex
 10
172.42749
 20
109.137169
 30
0.0
 70
    40
  0
VERTEX
  5
42F
100
AcDbEntity
  8
0
390
0
100
AcDbVertex
100
AcDb3dPolylineVertex
 10
172.434631
 20
109.138237
 30
0.0
 70
    48
  0
VERTEX
  5
430
100
AcDbEntity
  8
0
390
0
100
AcDbVertex
100
AcDb3dPolylineVertex
 10
172.42749
 20
109.137169
 30
0.0
 70
    48
  0
VERTEX
  5
431
100
AcDbEntity
  8
0
390
0
100
AcDbVertex
100
AcDb3dPolylineVertex
 10
172.42749
 20
109.137169
 30
0.0
 70
    48
  0
VERTEX
  5
432
100
AcDbEntity
  8
0
390
0
100
AcDbVertex
100
AcDb3dPolylineVertex
 10
172.41922
 20
109.133301
 30
0.0
 70
    40
  0
VERTEX
  5
433
100
AcDbEntity
  8
0
390
0
100
AcDbVertex
100
AcDb3dPolylineVertex
 10
172.42749
 20
109.137169
 30
0.0
 70
    48
  0
VERTEX
  5
434
100
AcDbEntity
  8
0
390
0
100
AcDbVertex
100
AcDb3dPolylineVertex
 10
172.41922
 20
109.133301
 30
0.0
 70
    48
  0
VERTEX
  5
435
100
AcDbEntity
  8
0
390
0
100
AcDbVertex
100
AcDb3dPolylineVertex
 10
172.41922
 20
109.133301
 30
0.0
 70
    48
  0
VERTEX
  5
436
100
AcDbEntity
  8
0
390
0
100
AcDbVertex
100
AcDb3dPolylineVertex
 10
172.407074
 20
109.12252
 30
0.0
 70
    40
  0
VERTEX
  5
437
100
AcDbEntity
  8
0
390
0
100
AcDbVertex
100
AcDb3dPolylineVertex
 10
172.41922
 20
109.133301
 30
0.0
 70
    48
  0
VERTEX
  5
438
100
AcDbEntity
  8
0
390
0
100
AcDbVertex
100
AcDb3dPolylineVertex
 10
172.407074
 20
109.12252
 30
0.0
 70
    48
  0
VERTEX
  5
439
100
AcDbEntity
  8
0
390
0
100
AcDbVertex
100
AcDb3dPolylineVertex
 10
172.407074
 20
109.12252
 30
0.0
 70
    48
  0
VERTEX
  5
43A
100
AcDbEntity
  8
0
390
0
100
AcDbVertex
100
AcDb3dPolylineVertex
 10
172.378052
 20
109.073776
 30
0.0
 70
    40
  0
VERTEX
  5
43B
100
AcDbEntity
  8
0
390
0
100
AcDbVertex
100
AcDb3dPolylineVertex
 10
172.407074
 20
109.12252
 30
0.0
 70
    48
  0
VERTEX
  5
43C
100
AcDbEntity
  8
0
390
0
100
AcDbVertex
100
AcDb3dPolylineVertex
 10
172.378052
 20
109.073776
 30
0.0
 70
    48
  0
VERTEX
  5
43D
100
AcDbEntity
  8
0
390
0
100
AcDbVertex
100
AcDb3dPolylineVertex
 10
172.378052
 20
109.073776
 30
0.0
 70
    48
  0
VERTEX
  5
43E
100
AcDbEntity
  8
0
390
0
100
AcDbVertex
100
AcDb3dPolylineVertex
 10
172.317169
 20
108.865959
 30
0.0
 70
    40
  0
VERTEX
  5
43F
100
AcDbEntity
  8
0
390
0
100
AcDbVertex
100
AcDb3dPolylineVertex
 10
172.378052
 20
109.073776
 30
0.0
 70
    48
  0
VERTEX
  5
440
100
AcDbEntity
  8
0
390
0
100
AcDbVertex
100
AcDb3dPolylineVertex
 10
172.317169
 20
108.865959
 30
0.0
 70
    48
  0
VERTEX
  5
441
100
AcDbEntity
  8
0
390
0
100
AcDbVertex
100
AcDb3dPolylineVertex
 10
172.317169
 20
108.865959
 30
0.0
 70
    48
  0
VERTEX
  5
442
100
AcDbEntity
  8
0
390
0
100
AcDbVertex
100
AcDb3dPolylineVertex
 10
172.309631
 20
108.790657
 30
0.0
 70
    40
  0
VERTEX
  5
443
100
AcDbEntity
  8
0
390
0
100
AcDbVertex
100
AcDb3dPolylineVertex
 10
172.317169
 20
108.865959
 30
0.0
 70
    48
  0
VERTEX
  5
444
100
AcDbEntity
  8
0
390
0
100
AcDbVertex
100
AcDb3dPolylineVertex
 10
172.309631
 20
108.790657
 30
0.0
 70
    48
  0
VERTEX
  5
445
100
AcDbEntity
  8
0
390
0
100
AcDbVertex
100
AcDb3dPolylineVertex
 10
172.309631
 20
108.790657
 30
0.0
 70
    48
  0
SEQEND
  5
446
100
AcDbEntity
  8
0
390
0
  0
ARC
  5
447
100
AcDbEntity
  8
ARMATUR
390
0
  6
DURCHGEHEND
 62
     1
100
AcDbCircle
 10
171.559631
 20
108.790657
 30
0.0
 40
0.75
100
AcDbArc
 50
0.0
 51
90.0
  0
LINE
  5
448
100
AcDbEntity
  8
ARMATUR
390
0
  6
DURCHGEHEND
 62
     1
100
AcDbLine
 10
172.434631
 20
109.138237
 30
0.0
 11
172.434631
 21
109.540657
 31
0.0
  0
LINE
  5
449
100
AcDbEntity
  8
ARMATUR
390
0
  6
DURCHGEHEND
 62
     1
100
AcDbLine
 10
173.309631
 20
109.138237
 30
0.0
 11
172.434631
 21
109.138237
 31
0.0
  0
LINE
  5
44A
100
AcDbEntity
  8
ARMATUR
390
0
  6
DURCHGEHEND
 62
     1
100
AcDbLine
 10
173.309631
 20
109.412971
 30
0.0
 11
173.309631
 21
109.138237
 31
0.0
  0
POLYLINE
  5
44B
100
AcDbEntity
  8
ARMATUR
390
0
  6
DURCHGEHEND
 62
     1
100
AcDb3dPolyline
 66
     1
 10
0.0
 20
0.0
 30
0.0
 70
    12
 75
     5
  0
VERTEX
  5
44C
100
AcDbEntity
  8
0
390
0
100
AcDbVertex
100
AcDb3dPolylineVertex
 10
173.309631
 20
109.138237
 30
0.0
 70
    48
  0
VERTEX
  5
44D
100
AcDbEntity
  8
0
390
0
100
AcDbVertex
100
AcDb3dPolylineVertex
 10
173.309631
 20
109.138237
 30
0.0
 70
    40
  0
VERTEX
  5
44E
100
AcDbEntity
  8
0
390
0
100
AcDbVertex
100
AcDb3dPolylineVertex
 10
173.308197
 20
109.141182
 30
0.0
 70
    40
  0
VERTEX
  5
44F
100
AcDbEntity
  8
0
390
0
100
AcDbVertex
100
AcDb3dPolylineVertex
 10
173.309631
 20
109.138237
 30
0.0
 70
    48
  0
VERTEX
  5
450
100
AcDbEntity
  8
0
390
0
100
AcDbVertex
100
AcDb3dPolylineVertex
 10
173.308197
 20
109.141182
 30
0.0
 70
    48
  0
VERTEX
  5
451
100
AcDbEntity
  8
0
390
0
100
AcDbVertex
100
AcDb3dPolylineVertex
 10
173.308197
 20
109.141182
 30
0.0
 70
    48
  0
VERTEX
  5
452
100
AcDbEntity
  8
0
390
0
100
AcDbVertex
100
AcDb3dPolylineVertex
 10
173.208771
 20
109.327171
 30
0.0
 70
    40
  0
VERTEX
  5
453
100
AcDbEntity
  8
0
390
0
100
AcDbVertex
100
AcDb3dPolylineVertex
 10
173.308197
 20
109.141182
 30
0.0
 70
    48
  0
VERTEX
  5
454
100
AcDbEntity
  8
0
390
0
100
AcDbVertex
100
AcDb3dPolylineVertex
 10
173.208771
 20
109.327171
 30
0.0
 70
    48
  0
VERTEX
  5
455
100
AcDbEntity
  8
0
390
0
100
AcDbVertex
100
AcDb3dPolylineVertex
 10
173.208771
 20
109.327171
 30
0.0
 70
    48
  0
VERTEX
  5
456
100
AcDbEntity
  8
0
390
0
100
AcDbVertex
100
AcDb3dPolylineVertex
 10
173.172424
 20
109.38752
 30
0.0
 70
    40
  0
VERTEX
  5
457
100
AcDbEntity
  8
0
390
0
100
AcDbVertex
100
AcDb3dPolylineVertex
 10
173.208771
 20
109.327171
 30
0.0
 70
    48
  0
VERTEX
  5
458
100
AcDbEntity
  8
0
390
0
100
AcDbVertex
100
AcDb3dPolylineVertex
 10
173.172424
 20
109.38752
 30
0.0
 70
    48
  0
VERTEX
  5
459
100
AcDbEntity
  8
0
390
0
100
AcDbVertex
100
AcDb3dPolylineVertex
 10
173.172424
 20
109.38752
 30
0.0
 70
    48
  0
SEQEND
  5
45A
100
AcDbEntity
  8
0
390
0
  0
LINE
  5
45B
100
AcDbEntity
  8
ARMATUR
390
0
  6
DURCHGEHEND
 62
     1
100
AcDbLine
 10
173.059631
 20
109.540657
 30
0.0
 11
173.059631
 21
109.536171
 31
0.0
  0
LINE
  5
45C
100
AcDbEntity
  8
ARMATUR
390
0
  6
DURCHGEHEND
 62
     1
100
AcDbLine
 10
173.684631
 20
110.415657
 30
0.0
 11
173.684631
 21
113.665657
 31
0.0
  0
LINE
  5
45D
100
AcDbEntity
  8
ARMATUR
390
0
  6
DURCHGEHEND
 62
     1
100
AcDbLine
 10
172.934631
 20
110.45031
 30
0.0
 11
172.934631
 21
113.608696
 31
0.0
  0
LINE
  5
45E
100
AcDbEntity
  8
ARMATUR
390
0
  6
DURCHGEHEND
 62
     1
100
AcDbLine
 10
173.309631
 20
115.161766
 30
0.0
 11
173.309631
 21
113.665657
 31
0.0
  0
LINE
  5
45F
100
AcDbEntity
  8
ARMATUR
390
0
  6
DURCHGEHEND
 62
     1
100
AcDbLine
 10
173.309631
 20
110.415657
 30
0.0
 11
173.309631
 21
109.412971
 31
0.0
  0
LINE
  5
460
100
AcDbEntity
  8
ARMATUR
390
0
  6
STRICHPUNKTIERT
 62
     7
100
AcDbLine
 10
187.547913
 20
89.981316
 30
0.0
 11
172.297913
 21
89.981316
 31
0.0
  0
ARC
  5
461
100
AcDbEntity
  8
ARMATUR
390
0
  6
STRICHPUNKTIERT
 62
     7
100
AcDbCircle
 10
172.297882
 20
91.481316
 30
0.0
 40
1.5
100
AcDbArc
 50
180.0
 51
270.0
  0
LINE
  5
462
100
AcDbEntity
  8
ARMATUR
390
0
  6
STRICHPUNKTIERT
 62
     7
100
AcDbLine
 10
189.047913
 20
130.72052
 30
0.0
 11
189.047913
 21
91.481316
 31
0.0
  0
LINE
  5
463
100
AcDbEntity
  8
ARMATUR
390
0
  6
STRICHPUNKTIERT
 62
     7
100
AcDbLine
 10
170.797882
 20
91.481323
 30
0.0
 11
170.797882
 21
130.72052
 31
0.0
  0
ARC
  5
464
100
AcDbEntity
  8
ARMATUR
390
0
  6
STRICHPUNKTIERT
 62
     7
100
AcDbCircle
 10
172.297882
 20
130.72052
 30
0.0
 40
1.5
100
AcDbArc
 50
90.0
 51
180.0
  0
LINE
  5
465
100
AcDbEntity
  8
ARMATUR
390
0
  6
STRICHPUNKTIERT
 62
     7
100
AcDbLine
 10
172.297882
 20
132.22052
 30
0.0
 11
187.547913
 21
132.22052
 31
0.0
  0
ARC
  5
466
100
AcDbEntity
  8
ARMATUR
390
0
  6
STRICHPUNKTIERT
 62
     7
100
AcDbCircle
 10
187.547913
 20
130.72052
 30
0.0
 40
1.5
100
AcDbArc
 50
0.0
 51
90.0
  0
ARC
  5
467
100
AcDbEntity
  8
ARMATUR
390
0
  6
STRICHPUNKTIERT
 62
     7
100
AcDbCircle
 10
187.547913
 20
91.481316
 30
0.0
 40
1.5
100
AcDbArc
 50
270.0
 51
360.0
  0
LINE
  5
468
100
AcDbEntity
  8
ARMATUR
390
0
  6
DURCHGEHEND
 62
     1
100
AcDbLine
 10
170.809631
 20
110.415657
 30
0.0
 11
171.559631
 21
110.415657
 31
0.0
  0
LINE
  5
469
100
AcDbEntity
  8
ARMATUR
390
0
  6
DURCHGEHEND
 62
     1
100
AcDbLine
 10
171.559631
 20
113.665657
 30
0.0
 11
170.809631
 21
113.665657
 31
0.0
  0
LINE
  5
46A
100
AcDbEntity
  8
ARMATUR
390
0
  6
DURCHGEHEND
 62
     1
100
AcDbLine
 10
171.559631
 20
113.608696
 30
0.0
 11
171.559631
 21
110.45031
 31
0.0
  0
LINE
  5
46B
100
AcDbEntity
  8
ARMATUR
390
0
  6
DURCHGEHEND
 62
     1
100
AcDbLine
 10
171.559631
 20
110.45031
 30
0.0
 11
171.559631
 21
113.608696
 31
0.0
  0
LINE
  5
46C
100
AcDbEntity
  8
ARMATUR
390
0
  6
DURCHGEHEND
 62
     1
100
AcDbLine
 10
170.809631
 20
110.415657
 30
0.0
 11
170.809631
 21
113.665657
 31
0.0
  0
LINE
  5
46D
100
AcDbEntity
  8
ARMATUR
390
0
  6
DURCHGEHEND
 62
     1
100
AcDbLine
 10
170.792206
 20
122.816216
 30
0.0
 11
171.542206
 21
122.816216
 31
0.0
  0
LINE
  5
46E
100
AcDbEntity
  8
ARMATUR
390
0
  6
DURCHGEHEND
 62
     1
100
AcDbLine
 10
171.542206
 20
126.066216
 30
0.0
 11
170.792206
 21
126.066216
 31
0.0
  0
LINE
  5
46F
100
AcDbEntity
  8
ARMATUR
390
0
  6
DURCHGEHEND
 62
     1
100
AcDbLine
 10
171.542206
 20
126.009254
 30
0.0
 11
171.542206
 21
122.850868
 31
0.0
  0
LINE
  5
470
100
AcDbEntity
  8
ARMATUR
390
0
  6
DURCHGEHEND
 62
     1
100
AcDbLine
 10
171.542206
 20
122.850868
 30
0.0
 11
171.542206
 21
126.009254
 31
0.0
  0
LINE
  5
471
100
AcDbEntity
  8
ARMATUR
390
0
  6
DURCHGEHEND
 62
     1
100
AcDbLine
 10
170.792206
 20
122.816216
 30
0.0
 11
170.792206
 21
126.066216
 31
0.0
  0
TEXT
  5
472
100
AcDbEntity
  8
ARMATUR
390
0
100
AcDbText
 10
60.396935
 20
146.079468
 30
0.0
 40
7.055555
  1
47
100
AcDbText
  0
LINE
  5
473
100
AcDbEntity
  8
ARMATUR
390
0
  6
DURCHGEHEND
 62
     3
100
AcDbLine
 10
59.691879
 20
146.709839
 30
0.0
 11
57.51799
 21
144.263702
 31
0.0
  0
LINE
  5
474
100
AcDbEntity
  8
ARMATUR
390
0
  6
DURCHGEHEND
 62
     3
100
AcDbLine
 10
71.613976
 20
146.811554
 30
0.0
 11
69.440086
 21
144.365417
 31
0.0
  0
LINE
  5
475
100
AcDbEntity
  8
ARMATUR
390
0
  6
DURCHGEHEND
 62
     3
100
AcDbLine
 10
57.679039
 20
145.486755
 30
0.0
 11
71.539673
 21
145.486755
 31
0.0
  0
LINE
  5
476
100
AcDbEntity
  8
ARMATUR
390
0
  6
DURCHGEHEND
 62
     3
100
AcDbLine
 10
58.631546
 20
146.48172
 30
0.0
 11
58.631546
 21
126.980827
 31
0.0
  0
LINE
  5
477
100
AcDbEntity
  8
ARMATUR
390
0
  6
DURCHGEHEND
 62
     3
100
AcDbLine
 10
56.157413
 20
155.880432
 30
0.0
 11
56.157413
 21
110.138222
 31
0.0
  0
LINE
  5
478
100
AcDbEntity
  8
ACHSEN
390
0
  6
STRICHPUNKTIERT
 62
     4
100
AcDbLine
 10
64.541801
 20
89.823044
 30
0.0
 11
64.541801
 21
131.178192
 31
0.0
  0
LINE
  5
479
100
AcDbEntity
  8
ACHSEN
390
0
  6
STRICHPUNKTIERT
 62
     4
100
AcDbLine
 10
176.548309
 20
90.319038
 30
0.0
 11
176.548309
 21
131.206146
 31
0.0
  0
LINE
  5
47A
100
AcDbEntity
  8
ACHSEN
390
0
  6
STRICHPUNKTIERT
 62
     4
100
AcDbLine
 10
181.343384
 20
108.131584
 30
0.0
 11
189.276276
 21
108.131584
 31
0.0
  0
LINE
  5
47B
100
AcDbEntity
  8
ACHSEN
390
0
  6
STRICHPUNKTIERT
 62
     4
100
AcDbLine
 10
54.80072
 20
113.157646
 30
0.0
 11
73.811394
 21
113.157646
 31
0.0
  0
LINE
  5
47C
100
AcDbEntity
  8
ACHSEN
390
0
  6
STRICHPUNKTIERT
 62
     4
100
AcDbLine
 10
68.584259
 20
124.398888
 30
0.0
 11
72.368141
 21
124.398888
 31
0.0
  0
LINE
  5
47D
100
AcDbEntity
  8
ACHSEN
390
0
  6
STRICHPUNKTIERT
 62
     4
100
AcDbLine
 10
60.176994
 20
97.625603
 30
0.0
 11
60.176994
 21
90.31955
 31
0.0
  0
LINE
  5
47E
100
AcDbEntity
  8
ACHSEN
390
0
  6
STRICHPUNKTIERT
 62
     4
100
AcDbLine
 10
68.6334
 20
97.625603
 30
0.0
 11
68.6334
 21
90.31955
 31
0.0
  0
LINE
  5
47F
100
AcDbEntity
  8
ACHSEN
390
0
  6
STRICHPUNKTIERT
 62
     4
100
AcDbLine
 10
55.015602
 20
103.157646
 30
0.0
 11
74.524452
 21
103.157646
 31
0.0
  0
LINE
  5
480
100
AcDbEntity
  8
ACHSEN
390
0
  6
STRICHPUNKTIERT
 62
     4
100
AcDbLine
 10
70.419182
 20
122.227646
 30
0.0
 11
70.419182
 21
126.686249
 31
0.0
  0
LINE
  5
481
100
AcDbEntity
  8
ACHSEN
390
0
  6
STRICHPUNKTIERT
 62
     4
100
AcDbLine
 10
177.958008
 20
113.157646
 30
0.0
 11
217.4758
 21
113.157646
 31
0.0
  0
LINE
  5
482
100
AcDbEntity
  8
ACHSEN
390
0
  6
STRICHPUNKTIERT
 62
     4
100
AcDbLine
 10
179.017426
 20
103.157646
 30
0.0
 11
190.820984
 21
103.157646
 31
0.0
  0
LINE
  5
483
100
AcDbEntity
  8
ACHSEN
390
0
  6
STRICHPUNKTIERT
 62
     4
100
AcDbLine
 10
55.118637
 20
106.233192
 30
0.0
 11
55.118637
 21
113.990974
 31
0.0
  0
LINE
  5
484
100
AcDbEntity
  8
ACHSEN
390
0
  6
STRICHPUNKTIERT
 62
     4
100
AcDbLine
 10
53.118164
 20
108.147522
 30
0.0
 11
56.398163
 21
108.147522
 31
0.0
  0
LINE
  5
485
100
AcDbEntity
  8
ACHSEN
390
0
  6
STRICHPUNKTIERT
 62
     4
100
AcDbLine
 10
74.05455
 20
106.233192
 30
0.0
 11
74.05455
 21
114.171867
 31
0.0
  0
LINE
  5
486
100
AcDbEntity
  8
ACHSEN
390
0
  6
STRICHPUNKTIERT
 62
     4
100
AcDbLine
 10
72.805168
 20
108.147522
 30
0.0
 11
76.08139
 21
108.147522
 31
0.0
  0
LINE
  5
487
100
AcDbEntity
  8
ACHSEN
390
0
  6
STRICHPUNKTIERT
 62
     4
100
AcDbLine
 10
47.377258
 20
109.282646
 30
0.0
 11
81.879242
 21
109.282646
 31
0.0
  0
LINE
  5
488
100
AcDbEntity
  8
ACHSEN
390
0
  6
STRICHPUNKTIERT
 62
     4
100
AcDbLine
 10
60.499344
 20
124.398888
 30
0.0
 11
56.715462
 21
124.398888
 31
0.0
  0
LINE
  5
489
100
AcDbEntity
  8
ACHSEN
390
0
  6
STRICHPUNKTIERT
 62
     4
100
AcDbLine
 10
58.664421
 20
122.227646
 30
0.0
 11
58.664421
 21
126.686249
 31
0.0
  0
LINE
  5
48A
100
AcDbEntity
  8
ACHSEN
390
0
  6
STRICHPUNKTIERT
 62
     4
100
AcDbLine
 10
53.118164
 20
111.968872
 30
0.0
 11
56.398163
 21
111.968872
 31
0.0
  0
LINE
  5
48B
100
AcDbEntity
  8
ACHSEN
390
0
  6
STRICHPUNKTIERT
 62
     4
100
AcDbLine
 10
72.805168
 20
111.968872
 30
0.0
 11
76.08139
 21
111.968872
 31
0.0
  0
LINE
  5
48C
100
AcDbEntity
  8
ACHSEN
390
0
  6
STRICHPUNKTIERT
 62
     4
100
AcDbLine
 10
170.243835
 20
111.801117
 30
0.0
 11
174.488983
 21
111.801117
 31
0.0
  0
LINE
  5
48D
100
AcDbEntity
  8
ACHSEN
390
0
  6
STRICHPUNKTIERT
 62
     4
100
AcDbLine
 10
170.243835
 20
124.032921
 30
0.0
 11
174.488983
 21
124.032921
 31
0.0
  0
TEXT
  5
48E
100
AcDbEntity
  8
TEXT
390
0
100
AcDbText
 10
186.858749
 20
155.312866
 30
0.0
 40
7.055555
  1
174
100
AcDbText
  0
TEXT
  5
48F
100
AcDbEntity
  8
TEXT
390
0
100
AcDbText
 10
15.379822
 20
97.581215
 30
0.0
 40
7.055555
  1
85
 50
90.0
100
AcDbText
  0
TEXT
  5
490
100
AcDbEntity
  8
TEXT
390
0
100
AcDbText
 10
159.669113
 20
74.999336
 30
0.0
 40
7.055555
  1
23
100
AcDbText
  0
TEXT
  5
491
100
AcDbEntity
  8
TEXT
390
0
100
AcDbText
 10
99.79895
 20
113.544754
 30
0.0
 40
7.055555
  1
50
 50
90.0
100
AcDbText
  0
TEXT
  5
492
100
AcDbEntity
  8
TEXT
390
0
100
AcDbText
 10
99.473282
 20
97.114601
 30
0.0
 40
7.055555
  1
80
 50
90.0
100
AcDbText
  0
TEXT
  5
493
100
AcDbEntity
  8
TEXT
390
0
100
AcDbText
 10
153.831726
 20
103.002632
 30
0.0
 40
7.055555
  1
150
 50
90.0
100
AcDbText
  0
TEXT
  5
494
100
AcDbEntity
  8
TEXT
390
0
100
AcDbText
 10
50.270462
 20
54.460457
 30
0.0
 40
7.055555
  1
17
100
AcDbText
  0
TEXT
  5
495
100
AcDbEntity
  8
TEXT
390
0
100
AcDbText
 10
68.6334
 20
54.591522
 30
0.0
 40
7.055555
  1
17
100
AcDbText
  0
TEXT
  5
496
100
AcDbEntity
  8
TEXT
390
0
100
AcDbText
 10
60.396935
 20
155.148438
 30
0.0
 40
7.055555
  1
67
100
AcDbText
  0
TEXT
  5
497
100
AcDbEntity
  8
TEXT
390
0
100
AcDbText
 10
173.416885
 20
53.01812
 30
0.0
 40
7.055555
  1
min.
100
AcDbText
  0
TEXT
  5
498
100
AcDbEntity
  8
TEXT
390
0
100
AcDbText
 10
89.448204
 20
146.535187
 30
0.0
 40
7.055555
  1
6
100
AcDbText
  0
CIRCLE
  5
499
100
AcDbEntity
  8
TEXT
390
0
  6
DURCHGEHEND
 62
     9
100
AcDbCircle
 10
86.612778
 20
148.741394
 30
0.0
 40
1.875
  0
LINE
  5
49A
100
AcDbEntity
  8
TEXT
390
0
  6
DURCHGEHEND
 62
     9
100
AcDbLine
 10
88.910248
 20
151.038879
 30
0.0
 11
84.444138
 21
146.572754
 31
0.0
  0
TEXT
  5
49B
100
AcDbEntity
  8
TEXT
390
0
100
AcDbText
 10
25.946022
 20
92.203239
 30
0.0
 40
7.055555
  1
15,5
 50
90.0
100
AcDbText
  0
TEXT
  5
49C
100
AcDbEntity
  8
TEXT
390
0
100
AcDbText
 10
86.027298
 20
65.677284
 30
0.0
 40
7.055555
  1
3/4-14NPT
100
AcDbText
  0
TEXT
  5
49D
100
AcDbEntity
  8
TEXT
390
0
100
AcDbText
 10
57.731297
 20
42.714951
 30
0.0
 40
7.055555
  1
120
100
AcDbText
  0
TEXT
  5
49E
100
AcDbEntity
  8
TEXT
390
0
100
AcDbText
 10
110.947197
 20
103.536079
 30
0.0
 40
7.055555
  1
170
 50
90.0
100
AcDbText
  0
TEXT
  5
49F
100
AcDbEntity
  8
TEXT
390
0
100
AcDbText
 10
174.93486
 20
146.167389
 30
0.0
 40
7.055555
  1
76
100
AcDbText
  0
TEXT
  5
4A0
100
AcDbEntity
  8
TEXT
390
0
100
AcDbText
 10
163.883881
 20
155.364334
 30
0.0
 40
7.055555
  1
3
100
AcDbText
  0
TEXT
  5
4A1
100
AcDbEntity
  8
TEXT
390
0
100
AcDbText
 10
4.875549
 20
65.888557
 30
0.0
 40
7.055555
  1
3/4-14NPT
100
AcDbText
  0
TEXT
  5
4A2
100
AcDbEntity
  8
TEXT
390
0
100
AcDbText
 10
4.574429
 20
146.948715
 30
0.0
 40
7.055555
  1
3/4-14NPT
100
AcDbText
  0
TEXT
  5
4A3
100
AcDbEntity
  8
TEXT
390
0
100
AcDbText
 10
179.828964
 20
43.076286
 30
0.0
 40
7.055555
  1
max.
100
AcDbText
  0
LINE
  5
4A4
100
AcDbEntity
  8
BEMASSUNG
390
0
  6
DURCHGEHEND
 62
     3
100
AcDbLine
 10
16.471352
 20
114.140923
 30
0.0
 11
16.471352
 21
90.73391
 31
0.0
  0
LINE
  5
4A5
100
AcDbEntity
  8
BEMASSUNG
390
0
  6
DURCHGEHEND
 62
     3
100
AcDbLine
 10
14.960068
 20
113.157646
 30
0.0
 11
54.102348
 21
113.157646
 31
0.0
  0
LINE
  5
4A6
100
AcDbEntity
  8
BEMASSUNG
390
0
  6
DURCHGEHEND
 62
     3
100
AcDbLine
 10
15.200417
 20
114.132797
 30
0.0
 11
17.646553
 21
111.958939
 31
0.0
  0
LINE
  5
4A7
100
AcDbEntity
  8
BEMASSUNG
390
0
  6
DURCHGEHEND
 62
     3
100
AcDbLine
 10
171.542206
 20
127.727112
 30
0.0
 11
171.542206
 21
143.02684
 31
0.0
  0
LINE
  5
4A8
100
AcDbEntity
  8
BEMASSUNG
390
0
  6
DURCHGEHEND
 62
     3
100
AcDbLine
 10
171.542206
 20
149.08046
 30
0.0
 11
171.542206
 21
155.922913
 31
0.0
  0
LINE
  5
4A9
100
AcDbEntity
  8
BEMASSUNG
390
0
  6
DURCHGEHEND
 62
     3
100
AcDbLine
 10
163.015625
 20
154.555725
 30
0.0
 11
216.122101
 21
154.555725
 31
0.0
  0
LINE
  5
4AA
100
AcDbEntity
  8
BEMASSUNG
390
0
  6
DURCHGEHEND
 62
     3
100
AcDbLine
 10
172.602539
 20
155.731781
 30
0.0
 11
170.42865
 21
153.285645
 31
0.0
  0
LINE
  5
4AB
100
AcDbEntity
  8
BEMASSUNG
390
0
  6
DURCHGEHEND
 62
     3
100
AcDbLine
 10
215.821289
 20
155.533508
 30
0.0
 11
213.6474
 21
153.087341
 31
0.0
  0
LINE
  5
4AC
100
AcDbEntity
  8
BEMASSUNG
390
0
  6
DURCHGEHEND
 62
     3
100
AcDbLine
 10
214.917206
 20
121.365433
 30
0.0
 11
214.917206
 21
155.602234
 31
0.0
  0
LINE
  5
4AD
100
AcDbEntity
  8
BEMASSUNG
390
0
  6
DURCHGEHEND
 62
     3
100
AcDbLine
 10
15.200417
 20
93.017578
 30
0.0
 11
17.646553
 21
90.843719
 31
0.0
  0
LINE
  5
4AE
100
AcDbEntity
  8
BEMASSUNG
390
0
  6
DURCHGEHEND
 62
     3
100
AcDbLine
 10
171.005798
 20
129.307404
 30
0.0
 11
153.798431
 21
129.307404
 31
0.0
  0
LINE
  5
4AF
100
AcDbEntity
  8
BEMASSUNG
390
0
  6
DURCHGEHEND
 62
     3
100
AcDbLine
 10
171.408081
 20
91.897522
 30
0.0
 11
153.798431
 21
91.897522
 31
0.0
  0
LINE
  5
4B0
100
AcDbEntity
  8
BEMASSUNG
390
0
  6
DURCHGEHEND
 62
     3
100
AcDbLine
 10
102.447113
 20
124.243965
 30
0.0
 11
72.942337
 21
124.243965
 31
0.0
  0
LINE
  5
4B1
100
AcDbEntity
  8
BEMASSUNG
390
0
  6
DURCHGEHEND
 62
     3
100
AcDbLine
 10
101.755676
 20
111.968872
 30
0.0
 11
76.274162
 21
111.968872
 31
0.0
  0
LINE
  5
4B2
100
AcDbEntity
  8
BEMASSUNG
390
0
  6
DURCHGEHEND
 62
     3
100
AcDbLine
 10
100.695297
 20
125.696571
 30
0.0
 11
100.695297
 21
90.864166
 31
0.0
  0
LINE
  5
4B3
100
AcDbEntity
  8
BEMASSUNG
390
0
  6
DURCHGEHEND
 62
     3
100
AcDbLine
 10
155.141968
 20
130.932587
 30
0.0
 11
155.141968
 21
90.90033
 31
0.0
  0
LINE
  5
4B4
100
AcDbEntity
  8
BEMASSUNG
390
0
  6
DURCHGEHEND
 62
     3
100
AcDbLine
 10
99.473282
 20
125.393044
 30
0.0
 11
101.919418
 21
123.219154
 31
0.0
  0
LINE
  5
4B5
100
AcDbEntity
  8
BEMASSUNG
390
0
  6
DURCHGEHEND
 62
     3
100
AcDbLine
 10
99.123032
 20
113.138824
 30
0.0
 11
101.569168
 21
110.964935
 31
0.0
  0
LINE
  5
4B6
100
AcDbEntity
  8
BEMASSUNG
390
0
  6
DURCHGEHEND
 62
     3
100
AcDbLine
 10
99.473282
 20
93.073318
 30
0.0
 11
101.919418
 21
90.899429
 31
0.0
  0
LINE
  5
4B7
100
AcDbEntity
  8
BEMASSUNG
390
0
  6
DURCHGEHEND
 62
     3
100
AcDbLine
 10
153.833832
 20
130.483215
 30
0.0
 11
156.279968
 21
128.309326
 31
0.0
  0
LINE
  5
4B8
100
AcDbEntity
  8
BEMASSUNG
390
0
  6
DURCHGEHEND
 62
     3
100
AcDbLine
 10
153.833832
 20
93.073318
 30
0.0
 11
156.279968
 21
90.899429
 31
0.0
  0
LINE
  5
4B9
100
AcDbEntity
  8
BEMASSUNG
390
0
  6
DURCHGEHEND
 62
     3
100
AcDbLine
 10
60.176994
 20
89.575752
 30
0.0
 11
60.176994
 21
52.313976
 31
0.0
  0
LINE
  5
4BA
100
AcDbEntity
  8
BEMASSUNG
390
0
  6
DURCHGEHEND
 62
     3
100
AcDbLine
 10
64.405197
 20
88.96656
 30
0.0
 11
64.405197
 21
52.437004
 31
0.0
  0
LINE
  5
4BB
100
AcDbEntity
  8
BEMASSUNG
390
0
  6
DURCHGEHEND
 62
     3
100
AcDbLine
 10
68.6334
 20
89.466675
 30
0.0
 11
68.6334
 21
52.313976
 31
0.0
  0
LINE
  5
4BC
100
AcDbEntity
  8
BEMASSUNG
390
0
  6
DURCHGEHEND
 62
     3
100
AcDbLine
 10
50.437382
 20
53.969585
 30
0.0
 11
77.770325
 21
53.969585
 31
0.0
  0
LINE
  5
4BD
100
AcDbEntity
  8
BEMASSUNG
390
0
  6
DURCHGEHEND
 62
     3
100
AcDbLine
 10
69.667152
 20
55.131012
 30
0.0
 11
67.493263
 21
52.684872
 31
0.0
  0
LINE
  5
4BE
100
AcDbEntity
  8
BEMASSUNG
390
0
  6
DURCHGEHEND
 62
     3
100
AcDbLine
 10
65.417152
 20
55.131012
 30
0.0
 11
63.243263
 21
52.684872
 31
0.0
  0
LINE
  5
4BF
100
AcDbEntity
  8
BEMASSUNG
390
0
  6
DURCHGEHEND
 62
     3
100
AcDbLine
 10
61.167152
 20
55.131012
 30
0.0
 11
58.993263
 21
52.684872
 31
0.0
  0
LINE
  5
4C0
100
AcDbEntity
  8
BEMASSUNG
390
0
  6
DURCHGEHEND
 62
     3
100
AcDbLine
 10
73.027809
 20
155.686096
 30
0.0
 11
73.027809
 21
109.635704
 31
0.0
  0
LINE
  5
4C1
100
AcDbEntity
  8
BEMASSUNG
390
0
  6
DURCHGEHEND
 62
     3
100
AcDbLine
 10
57.360771
 20
155.967178
 30
0.0
 11
55.186882
 21
153.521042
 31
0.0
  0
LINE
  5
4C2
100
AcDbEntity
  8
BEMASSUNG
390
0
  6
DURCHGEHEND
 62
     3
100
AcDbLine
 10
70.476906
 20
146.657837
 30
0.0
 11
70.476906
 21
126.828293
 31
0.0
  0
LINE
  5
4C3
100
AcDbEntity
  8
BEMASSUNG
390
0
  6
DURCHGEHEND
 62
     3
100
AcDbLine
 10
74.204094
 20
155.880524
 30
0.0
 11
72.030205
 21
153.434387
 31
0.0
  0
LINE
  5
4C4
100
AcDbEntity
  8
BEMASSUNG
390
0
  6
DURCHGEHEND
 62
     3
100
AcDbLine
 10
54.3507
 20
154.555725
 30
0.0
 11
74.671356
 21
154.555725
 31
0.0
  0
LINE
  5
4C5
100
AcDbEntity
  8
BEMASSUNG
390
0
  6
DURCHGEHEND
 62
     3
100
AcDbLine
 10
169.706573
 20
51.92659
 30
0.0
 11
191.502625
 21
51.92659
 31
0.0
  0
LINE
  5
4C6
100
AcDbEntity
  8
BEMASSUNG
390
0
  6
DURCHGEHEND
 62
     3
100
AcDbLine
 10
190.12323
 20
74.610931
 30
0.0
 11
190.12323
 21
50.866764
 31
0.0
  0
LINE
  5
4C7
100
AcDbEntity
  8
BEMASSUNG
390
0
  6
DURCHGEHEND
 62
     3
100
AcDbLine
 10
191.358337
 20
53.199432
 30
0.0
 11
189.184448
 21
50.753265
 31
0.0
  0
LINE
  5
4C8
100
AcDbEntity
  8
BEMASSUNG
390
0
  6
DURCHGEHEND
 62
     3
100
AcDbLine
 10
171.849274
 20
53.121727
 30
0.0
 11
169.675385
 21
50.67556
 31
0.0
  0
LINE
  5
4C9
100
AcDbEntity
  8
BEMASSUNG
390
0
  6
DURCHGEHEND
 62
     3
100
AcDbLine
 10
26.365997
 20
110.404053
 30
0.0
 11
28.812149
 21
108.230194
 31
0.0
  0
LINE
  5
4CA
100
AcDbEntity
  8
BEMASSUNG
390
0
  6
DURCHGEHEND
 62
     3
100
AcDbLine
 10
60.115303
 20
91.930084
 30
0.0
 11
45.351402
 21
64.42659
 31
0.0
  0
LINE
  5
4CB
100
AcDbEntity
  8
BEMASSUNG
390
0
  6
DURCHGEHEND
 62
     3
100
AcDbLine
 10
45.351402
 20
64.42659
 30
0.0
 11
4.053143
 21
64.42659
 31
0.0
  0
LINE
  5
4CC
100
AcDbEntity
  8
BEMASSUNG
390
0
  6
DURCHGEHEND
 62
     3
100
AcDbLine
 10
68.576317
 20
91.930084
 30
0.0
 11
86.239784
 21
64.42659
 31
0.0
  0
LINE
  5
4CD
100
AcDbEntity
  8
BEMASSUNG
390
0
  6
DURCHGEHEND
 62
     3
100
AcDbLine
 10
86.239784
 20
64.42659
 30
0.0
 11
127.88427
 21
64.42659
 31
0.0
  0
LINE
  5
4CE
100
AcDbEntity
  8
BEMASSUNG
390
0
  6
DURCHGEHEND
 62
     3
100
AcDbLine
 10
94.55809
 20
145.169006
 30
0.0
 11
83.341064
 21
145.169006
 31
0.0
  0
LINE
  5
4CF
100
AcDbEntity
  8
BEMASSUNG
390
0
  6
DURCHGEHEND
 62
     3
100
AcDbLine
 10
83.341064
 20
145.169006
 30
0.0
 11
70.880119
 21
123.993828
 31
0.0
  0
CIRCLE
  5
4D0
100
AcDbEntity
  8
BEMASSUNG
390
0
  6
DURCHGEHEND
 62
     1
100
AcDbCircle
 10
60.115303
 20
91.930084
 30
0.0
 40
0.625
  0
CIRCLE
  5
4D1
100
AcDbEntity
  8
BEMASSUNG
390
0
  6
DURCHGEHEND
 62
     1
100
AcDbCircle
 10
68.576317
 20
91.930084
 30
0.0
 40
0.625
  0
LINE
  5
4D2
100
AcDbEntity
  8
BEMASSUNG
390
0
  6
DURCHGEHEND
 62
     3
100
AcDbLine
 10
26.449501
 20
109.282646
 30
0.0
 11
46.764793
 21
109.282646
 31
0.0
  0
LINE
  5
4D3
100
AcDbEntity
  8
BEMASSUNG
390
0
  6
DURCHGEHEND
 62
     3
100
AcDbLine
 10
27.602135
 20
114.392601
 30
0.0
 11
27.602135
 21
93.056496
 31
0.0
  0
LINE
  5
4D4
100
AcDbEntity
  8
BEMASSUNG
390
0
  6
DURCHGEHEND
 62
     3
100
AcDbLine
 10
26.365997
 20
114.261879
 30
0.0
 11
28.812149
 21
112.088013
 31
0.0
  0
LINE
  5
4D5
100
AcDbEntity
  8
BEMASSUNG
390
0
  6
DURCHGEHEND
 62
     3
100
AcDbLine
 10
101.500687
 20
91.897522
 30
0.0
 11
73.952454
 21
91.897522
 31
0.0
  0
LINE
  5
4D6
100
AcDbEntity
  8
BEMASSUNG
390
0
  6
DURCHGEHEND
 62
     3
100
AcDbLine
 10
55.113777
 20
91.897522
 30
0.0
 11
15.101624
 21
91.897522
 31
0.0
  0
LINE
  5
4D7
100
AcDbEntity
  8
BEMASSUNG
390
0
  6
DURCHGEHEND
 62
     3
100
AcDbLine
 10
49.541801
 20
40.853912
 30
0.0
 11
49.541801
 21
90.426697
 31
0.0
  0
LINE
  5
4D8
100
AcDbEntity
  8
BEMASSUNG
390
0
  6
DURCHGEHEND
 62
     3
100
AcDbLine
 10
79.541801
 20
40.810081
 30
0.0
 11
79.541801
 21
90.279297
 31
0.0
  0
LINE
  5
4D9
100
AcDbEntity
  8
BEMASSUNG
390
0
  6
DURCHGEHEND
 62
     3
100
AcDbLine
 10
48.511124
 20
41.92659
 30
0.0
 11
81.032608
 21
41.92659
 31
0.0
  0
LINE
  5
4DA
100
AcDbEntity
  8
BEMASSUNG
390
0
  6
DURCHGEHEND
 62
     3
100
AcDbLine
 10
50.797035
 20
43.344742
 30
0.0
 11
48.623146
 21
40.898575
 31
0.0
  0
LINE
  5
4DB
100
AcDbEntity
  8
BEMASSUNG
390
0
  6
DURCHGEHEND
 62
     3
100
AcDbLine
 10
80.719223
 20
43.344742
 30
0.0
 11
78.545334
 21
40.898575
 31
0.0
  0
LINE
  5
4DC
100
AcDbEntity
  8
BEMASSUNG
390
0
  6
DURCHGEHEND
 62
     3
100
AcDbLine
 10
80.084114
 20
89.823044
 30
0.0
 11
113.54068
 21
89.823044
 31
0.0
  0
LINE
  5
4DD
100
AcDbEntity
  8
BEMASSUNG
390
0
  6
DURCHGEHEND
 62
     3
100
AcDbLine
 10
76.955688
 20
132.09198
 30
0.0
 11
113.853455
 21
132.09198
 31
0.0
  0
LINE
  5
4DE
100
AcDbEntity
  8
BEMASSUNG
390
0
  6
DURCHGEHEND
 62
     3
100
AcDbLine
 10
112.200554
 20
133.476166
 30
0.0
 11
112.200554
 21
88.542007
 31
0.0
  0
LINE
  5
4DF
100
AcDbEntity
  8
BEMASSUNG
390
0
  6
DURCHGEHEND
 62
     3
100
AcDbLine
 10
110.872704
 20
133.295898
 30
0.0
 11
113.318848
 21
131.122009
 31
0.0
  0
LINE
  5
4E0
100
AcDbEntity
  8
BEMASSUNG
390
0
  6
DURCHGEHEND
 62
     3
100
AcDbLine
 10
110.977638
 20
90.98835
 30
0.0
 11
113.423767
 21
88.814461
 31
0.0
  0
LINE
  5
4E1
100
AcDbEntity
  8
BEMASSUNG
390
0
  6
DURCHGEHEND
 62
     3
100
AcDbLine
 10
189.066452
 20
146.66423
 30
0.0
 11
189.066452
 21
132.447128
 31
0.0
  0
LINE
  5
4E2
100
AcDbEntity
  8
BEMASSUNG
390
0
  6
DURCHGEHEND
 62
     3
100
AcDbLine
 10
169.81543
 20
145.504868
 30
0.0
 11
190.148987
 21
145.504868
 31
0.0
  0
LINE
  5
4E3
100
AcDbEntity
  8
BEMASSUNG
390
0
  6
DURCHGEHEND
 62
     3
100
AcDbLine
 10
171.936859
 20
146.780243
 30
0.0
 11
169.76297
 21
144.334076
 31
0.0
  0
LINE
  5
4E4
100
AcDbEntity
  8
BEMASSUNG
390
0
  6
DURCHGEHEND
 62
     3
100
AcDbLine
 10
190.270172
 20
146.780243
 30
0.0
 11
188.096283
 21
144.334076
 31
0.0
  0
LINE
  5
4E5
100
AcDbEntity
  8
BEMASSUNG
390
0
  6
DURCHGEHEND
 62
     3
100
AcDbLine
 10
176.548309
 20
89.604286
 30
0.0
 11
176.548309
 21
72.598732
 31
0.0
  0
LINE
  5
4E6
100
AcDbEntity
  8
BEMASSUNG
390
0
  6
DURCHGEHEND
 62
     3
100
AcDbLine
 10
171.922028
 20
155.7314
 30
0.0
 11
169.748138
 21
153.285263
 31
0.0
  0
LINE
  5
4E7
100
AcDbEntity
  8
BEMASSUNG
390
0
  6
DURCHGEHEND
 62
     3
100
AcDbLine
 10
170.809631
 20
131.963257
 30
0.0
 11
170.809631
 21
155.75087
 31
0.0
  0
LINE
  5
4E8
100
AcDbEntity
  8
BEMASSUNG
390
0
  6
DURCHGEHEND
 62
     3
100
AcDbLine
 10
64.541801
 20
129.437973
 30
0.0
 11
45.050282
 21
145.486755
 31
0.0
  0
LINE
  5
4E9
100
AcDbEntity
  8
BEMASSUNG
390
0
  6
DURCHGEHEND
 62
     3
100
AcDbLine
 10
45.050282
 20
145.486755
 30
0.0
 11
3.752022
 21
145.486755
 31
0.0
  0
CIRCLE
  5
4EA
100
AcDbEntity
  8
BEMASSUNG
390
0
  6
DURCHGEHEND
 62
     1
100
AcDbCircle
 10
64.541801
 20
129.437973
 30
0.0
 40
0.625
  0
LINE
  5
4EB
100
AcDbEntity
  8
BEMASSUNG
390
0
  6
DURCHGEHEND
 62
     3
100
AcDbLine
 10
170.756027
 20
40.463676
 30
0.0
 11
170.756027
 21
89.828529
 31
0.0
  0
LINE
  5
4EC
100
AcDbEntity
  8
BEMASSUNG
390
0
  6
DURCHGEHEND
 62
     3
100
AcDbLine
 10
159.787781
 20
74.42659
 30
0.0
 11
177.841187
 21
74.42659
 31
0.0
  0
LINE
  5
4ED
100
AcDbEntity
  8
BEMASSUNG
390
0
  6
DURCHGEHEND
 62
     3
100
AcDbLine
 10
177.744797
 20
75.699432
 30
0.0
 11
175.570908
 21
73.253265
 31
0.0
  0
LINE
  5
4EE
100
AcDbEntity
  8
BEMASSUNG
390
0
  6
DURCHGEHEND
 62
     3
100
AcDbLine
 10
171.789291
 20
75.649673
 30
0.0
 11
169.615402
 21
73.203506
 31
0.0
  0
LINE
  5
4EF
100
AcDbEntity
  8
BEMASSUNG
390
0
  6
DURCHGEHEND
 62
     3
100
AcDbLine
 10
169.419388
 20
41.92659
 30
0.0
 11
205.567108
 21
41.92659
 31
0.0
  0
LINE
  5
4F0
100
AcDbEntity
  8
BEMASSUNG
390
0
  6
DURCHGEHEND
 62
     3
100
AcDbLine
 10
171.818222
 20
43.121857
 30
0.0
 11
169.644333
 21
40.67569
 31
0.0
  0
LINE
  5
4F1
100
AcDbEntity
  8
BEMASSUNG
390
0
  6
DURCHGEHEND
 62
     3
100
AcDbLine
 10
203.87323
 20
74.610931
 30
0.0
 11
203.87323
 21
40.84296
 31
0.0
  0
LINE
  5
4F2
100
AcDbEntity
  8
BEMASSUNG
390
0
  6
DURCHGEHEND
 62
     3
100
AcDbLine
 10
205.108337
 20
43.199432
 30
0.0
 11
202.934448
 21
40.753265
 31
0.0
  0
TEXT
  5
4F3
100
AcDbEntity
  8
BEMASSUNG
390
0
100
AcDbText
 10
268.133331
 20
125.002129
 30
0.0
 40
3.527778
  1
min    max
100
AcDbText
  0
TEXT
  5
4F4
100
AcDbEntity
  8
BEMASSUNG
390
0
100
AcDbText
 10
238.135208
 20
120.416016
 30
0.0
 40
3.527778
  1
Source
100
AcDbText
  0
TEXT
  5
4F5
100
AcDbEntity
  8
BEMASSUNG
390
0
100
AcDbText
 10
268.133331
 20
120.416016
 30
0.0
 40
3.527778
  1
78    
100
AcDbText
  0
TEXT
  5
4F6
100
AcDbEntity
  8
BEMASSUNG
390
0
100
AcDbText
 10
278.13269
 20
120.416016
 30
0.0
 40
3.527778
  1
  114
100
AcDbText
  0
TEXT
  5
4F7
100
AcDbEntity
  8
BEMASSUNG
390
0
100
AcDbText
 10
238.135208
 20
111.243797
 30
0.0
 40
3.527778
  1
Circle
100
AcDbText
  0
TEXT
  5
4F8
100
AcDbEntity
  8
BEMASSUNG
390
0
100
AcDbText
 10
268.133331
 20
111.243797
 30
0.0
 40
3.527778
  1
80
100
AcDbText
  0
TEXT
  5
4F9
100
AcDbEntity
  8
BEMASSUNG
390
0
100
AcDbText
 10
278.13269
 20
111.243797
 30
0.0
 40
3.527778
  1
  110
100
AcDbText
  0
TEXT
  5
4FA
100
AcDbEntity
  8
BEMASSUNG
390
0
100
AcDbText
 10
238.135208
 20
106.657684
 30
0.0
 40
3.527778
  1
Lulu
100
AcDbText
  0
TEXT
  5
4FB
100
AcDbEntity
  8
BEMASSUNG
390
0
100
AcDbText
 10
268.133331
 20
106.657684
 30
0.0
 40
3.527778
  1
80
100
AcDbText
  0
TEXT
  5
4FC
100
AcDbEntity
  8
BEMASSUNG
390
0
100
AcDbText
 10
278.13269
 20
106.657684
 30
0.0
 40
3.527778
  1
  110
100
AcDbText
  0
TEXT
  5
4FD
100
AcDbEntity
  8
BEMASSUNG
390
0
100
AcDbText
 10
238.135208
 20
102.071571
 30
0.0
 40
3.527778
  1
Madison
100
AcDbText
  0
TEXT
  5
4FE
100
AcDbEntity
  8
BEMASSUNG
390
0
100
AcDbText
 10
268.133331
 20
102.071571
 30
0.0
 40
3.527778
  1
80
100
AcDbText
  0
TEXT
  5
4FF
100
AcDbEntity
  8
BEMASSUNG
390
0
100
AcDbText
 10
278.13269
 20
102.071571
 30
0.0
 40
3.527778
  1
  110
100
AcDbText
  0
TEXT
  5
500
100
AcDbEntity
  8
BEMASSUNG
390
0
100
AcDbText
 10
238.135208
 20
97.485458
 30
0.0
 40
3.527778
  1
Madison Flair
100
AcDbText
  0
TEXT
  5
501
100
AcDbEntity
  8
BEMASSUNG
390
0
100
AcDbText
 10
268.133331
 20
97.485458
 30
0.0
 40
3.527778
  1
80
100
AcDbText
  0
TEXT
  5
502
100
AcDbEntity
  8
BEMASSUNG
390
0
100
AcDbText
 10
278.13269
 20
97.485458
 30
0.0
 40
3.527778
  1
  110
100
AcDbText
  0
TEXT
  5
503
100
AcDbEntity
  8
BEMASSUNG
390
0
100
AcDbText
 10
238.135208
 20
92.899353
 30
0.0
 40
3.527778
  1
TARA .LOGIC
100
AcDbText
  0
TEXT
  5
504
100
AcDbEntity
  8
BEMASSUNG
390
0
100
AcDbText
 10
268.133331
 20
92.899353
 30
0.0
 40
3.527778
  1
80
100
AcDbText
  0
TEXT
  5
505
100
AcDbEntity
  8
BEMASSUNG
390
0
100
AcDbText
 10
278.13269
 20
92.899353
 30
0.0
 40
3.527778
  1
  110
100
AcDbText
  0
TEXT
  5
506
100
AcDbEntity
  8
BEMASSUNG
390
0
100
AcDbText
 10
238.135208
 20
88.31324
 30
0.0
 40
3.527778
  1
Meta.02
100
AcDbText
  0
TEXT
  5
507
100
AcDbEntity
  8
BEMASSUNG
390
0
100
AcDbText
 10
268.133331
 20
88.31324
 30
0.0
 40
3.527778
  1
80
100
AcDbText
  0
TEXT
  5
508
100
AcDbEntity
  8
BEMASSUNG
390
0
100
AcDbText
 10
278.13269
 20
88.31324
 30
0.0
 40
3.527778
  1
  110
100
AcDbText
  0
TEXT
  5
509
100
AcDbEntity
  8
BEMASSUNG
390
0
100
AcDbText
 10
238.135208
 20
83.727127
 30
0.0
 40
3.527778
  1
Soul
100
AcDbText
  0
TEXT
  5
50A
100
AcDbEntity
  8
BEMASSUNG
390
0
100
AcDbText
 10
268.133331
 20
83.727127
 30
0.0
 40
3.527778
  1
80
100
AcDbText
  0
TEXT
  5
50B
100
AcDbEntity
  8
BEMASSUNG
390
0
100
AcDbText
 10
278.13269
 20
83.727127
 30
0.0
 40
3.527778
  1
  110
100
AcDbText
  0
TEXT
  5
50C
100
AcDbEntity
  8
BEMASSUNG
390
0
100
AcDbText
 10
238.135208
 20
79.141022
 30
0.0
 40
3.527778
  1
Square
100
AcDbText
  0
TEXT
  5
50D
100
AcDbEntity
  8
BEMASSUNG
390
0
100
AcDbText
 10
268.133331
 20
79.141022
 30
0.0
 40
3.527778
  1
80
100
AcDbText
  0
TEXT
  5
50E
100
AcDbEntity
  8
BEMASSUNG
390
0
100
AcDbText
 10
278.13269
 20
79.141022
 30
0.0
 40
3.527778
  1
  110
100
AcDbText
  0
TEXT
  5
50F
100
AcDbEntity
  8
BEMASSUNG
390
0
100
AcDbText
 10
238.135208
 20
74.554901
 30
0.0
 40
3.527778
  1
Cult
100
AcDbText
  0
TEXT
  5
510
100
AcDbEntity
  8
BEMASSUNG
390
0
100
AcDbText
 10
268.133331
 20
74.554901
 30
0.0
 40
3.527778
  1
80
100
AcDbText
  0
TEXT
  5
511
100
AcDbEntity
  8
BEMASSUNG
390
0
100
AcDbText
 10
278.13269
 20
74.554901
 30
0.0
 40
3.527778
  1
  110
100
AcDbText
  0
TEXT
  5
512
100
AcDbEntity
  8
BEMASSUNG
390
0
100
AcDbText
 10
238.135208
 20
69.968796
 30
0.0
 40
3.527778
  1
L´Aura
100
AcDbText
  0
TEXT
  5
513
100
AcDbEntity
  8
BEMASSUNG
390
0
100
AcDbText
 10
268.133331
 20
69.968796
 30
0.0
 40
3.527778
  1
80
100
AcDbText
  0
TEXT
  5
514
100
AcDbEntity
  8
BEMASSUNG
390
0
100
AcDbText
 10
278.13269
 20
69.968796
 30
0.0
 40
3.527778
  1
  110
100
AcDbText
  0
TEXT
  5
515
100
AcDbEntity
  8
BEMASSUNG
390
0
100
AcDbText
 10
238.135208
 20
60.796577
 30
0.0
 40
3.527778
  1
Domicil
100
AcDbText
  0
TEXT
  5
516
100
AcDbEntity
  8
BEMASSUNG
390
0
100
AcDbText
 10
268.133331
 20
60.796577
 30
0.0
 40
3.527778
  1
85
100
AcDbText
  0
TEXT
  5
517
100
AcDbEntity
  8
BEMASSUNG
390
0
100
AcDbText
 10
278.13269
 20
60.796577
 30
0.0
 40
3.527778
  1
  110
100
AcDbText
  0
TEXT
  5
518
100
AcDbEntity
  8
BEMASSUNG
390
0
100
AcDbText
 10
238.135208
 20
51.624352
 30
0.0
 40
3.527778
  1
Just
100
AcDbText
  0
TEXT
  5
519
100
AcDbEntity
  8
BEMASSUNG
390
0
100
AcDbText
 10
268.133331
 20
51.624352
 30
0.0
 40
3.527778
  1
80
100
AcDbText
  0
TEXT
  5
51A
100
AcDbEntity
  8
BEMASSUNG
390
0
100
AcDbText
 10
278.13269
 20
51.624352
 30
0.0
 40
3.527778
  1
  155
100
AcDbText
  0
TEXT
  5
51B
100
AcDbEntity
  8
BEMASSUNG
390
0
100
AcDbText
 10
238.135208
 20
42.452133
 30
0.0
 40
3.527778
  1
LaFleur
100
AcDbText
  0
TEXT
  5
51C
100
AcDbEntity
  8
BEMASSUNG
390
0
100
AcDbText
 10
268.133331
 20
42.452133
 30
0.0
 40
3.527778
  1
95
100
AcDbText
  0
TEXT
  5
51D
100
AcDbEntity
  8
BEMASSUNG
390
0
100
AcDbText
 10
278.13269
 20
42.452133
 30
0.0
 40
3.527778
  1
  160
100
AcDbText
  0
TEXT
  5
51E
100
AcDbEntity
  8
BEMASSUNG
390
0
100
AcDbText
 10
238.135208
 20
37.86602
 30
0.0
 40
3.527778
  1
SUPERNOVA 
100
AcDbText
  0
TEXT
  5
51F
100
AcDbEntity
  8
BEMASSUNG
390
0
100
AcDbText
 10
268.133331
 20
37.86602
 30
0.0
 40
3.527778
  1
95
100
AcDbText
  0
TEXT
  5
520
100
AcDbEntity
  8
BEMASSUNG
390
0
100
AcDbText
 10
278.13269
 20
37.86602
 30
0.0
 40
3.527778
  1
  160
100
AcDbText
  0
TEXT
  5
521
100
AcDbEntity
  8
BEMASSUNG
390
0
100
AcDbText
 10
238.135208
 20
33.279907
 30
0.0
 40
3.527778
  1
Symetrics
100
AcDbText
  0
TEXT
  5
522
100
AcDbEntity
  8
BEMASSUNG
390
0
100
AcDbText
 10
268.133331
 20
33.279907
 30
0.0
 40
3.527778
  1
95
100
AcDbText
  0
TEXT
  5
523
100
AcDbEntity
  8
BEMASSUNG
390
0
100
AcDbText
 10
278.13269
 20
33.279907
 30
0.0
 40
3.527778
  1
  160
100
AcDbText
  0
TEXT
  5
524
100
AcDbEntity
  8
BEMASSUNG
390
0
100
AcDbText
 10
238.135208
 20
28.693794
 30
0.0
 40
3.527778
  1
DEQUE 
100
AcDbText
  0
TEXT
  5
525
100
AcDbEntity
  8
BEMASSUNG
390
0
100
AcDbText
 10
268.133331
 20
28.693794
 30
0.0
 40
3.527778
  1
95
100
AcDbText
  0
TEXT
  5
526
100
AcDbEntity
  8
BEMASSUNG
390
0
100
AcDbText
 10
278.13269
 20
28.693794
 30
0.0
 40
3.527778
  1
  160
100
AcDbText
  0
TEXT
  5
527
100
AcDbEntity
  8
BEMASSUNG
390
0
100
AcDbText
 10
238.135208
 20
24.107689
 30
0.0
 40
3.527778
  1
Tara.
100
AcDbText
  0
TEXT
  5
528
100
AcDbEntity
  8
BEMASSUNG
390
0
100
AcDbText
 10
268.133331
 20
24.107689
 30
0.0
 40
3.527778
  1
95
100
AcDbText
  0
TEXT
  5
529
100
AcDbEntity
  8
BEMASSUNG
390
0
100
AcDbText
 10
278.13269
 20
24.107689
 30
0.0
 40
3.527778
  1
  160
100
AcDbText
  0
TEXT
  5
52A
100
AcDbEntity
  8
BEMASSUNG
390
0
100
AcDbText
 10
238.135208
 20
14.935463
 30
0.0
 40
3.527778
  1
MEM
100
AcDbText
  0
TEXT
  5
52B
100
AcDbEntity
  8
BEMASSUNG
390
0
100
AcDbText
 10
268.133331
 20
14.935463
 30
0.0
 40
3.527778
  1
115
100
AcDbText
  0
TEXT
  5
52C
100
AcDbEntity
  8
BEMASSUNG
390
0
100
AcDbText
 10
278.13269
 20
14.935463
 30
0.0
 40
3.527778
  1
  156
100
AcDbText
  0
TEXT
  5
52D
100
AcDbEntity
  8
BEMASSUNG
390
0
100
AcDbText
 10
238.135208
 20
10.34935
 30
0.0
 40
3.527778
  1
CL.1
100
AcDbText
  0
TEXT
  5
52E
100
AcDbEntity
  8
BEMASSUNG
390
0
100
AcDbText
 10
268.133331
 20
10.34935
 30
0.0
 40
3.527778
  1
115
100
AcDbText
  0
TEXT
  5
52F
100
AcDbEntity
  8
BEMASSUNG
390
0
100
AcDbText
 10
278.13269
 20
10.34935
 30
0.0
 40
3.527778
  1
  156
100
AcDbText
  0
LINE
  5
530
100
AcDbEntity
  8
BEMASSUNG
390
0
  6
DURCHGEHEND
 62
     3
100
AcDbLine
 10
237.625061
 20
66.865311
 30
0.0
 11
289.067383
 21
66.865311
 31
0.0
  0
LINE
  5
531
100
AcDbEntity
  8
BEMASSUNG
390
0
  6
DURCHGEHEND
 62
     3
100
AcDbLine
 10
237.097794
 20
117.676445
 30
0.0
 11
288.924866
 21
117.676445
 31
0.0
  0
LINE
  5
532
100
AcDbEntity
  8
BEMASSUNG
390
0
  6
DURCHGEHEND
 62
     3
100
AcDbLine
 10
237.833191
 20
58.30233
 30
0.0
 11
288.398132
 21
58.30233
 31
0.0
  0
LINE
  5
533
100
AcDbEntity
  8
BEMASSUNG
390
0
  6
DURCHGEHEND
 62
     3
100
AcDbLine
 10
237.729858
 20
21.335747
 30
0.0
 11
288.2948
 21
21.335747
 31
0.0
  0
LINE
  5
534
100
AcDbEntity
  8
BEMASSUNG
390
0
  6
DURCHGEHEND
 62
     3
100
AcDbLine
 10
237.833191
 20
48.30233
 30
0.0
 11
288.398132
 21
48.30233
 31
0.0
  0
LINE
  5
535
100
AcDbEntity
  8
WAND
390
0
  6
DURCHGEHEND
 62
     6
100
AcDbLine
 10
190.270508
 20
142.028625
 30
0.0
 11
190.270508
 21
121.837502
 31
0.0
  0
LINE
  5
536
100
AcDbEntity
  8
WAND
390
0
  6
DURCHGEHEND
 62
     6
100
AcDbLine
 10
190.270508
 20
96.609779
 30
0.0
 11
190.270508
 21
76.200195
 31
0.0
  0
LINE
  5
537
100
AcDbEntity
  8
WAND
390
0
  6
DURCHGEHEND
 62
     6
100
AcDbLine
 10
204.020508
 20
96.609779
 30
0.0
 11
204.020508
 21
76.200195
 31
0.0
  0
LINE
  5
538
100
AcDbEntity
  8
WAND
390
0
  6
DURCHGEHEND
 62
     6
100
AcDbLine
 10
204.020508
 20
142.028625
 30
0.0
 11
204.020508
 21
121.837502
 31
0.0
  0
ENDSEC
  0
SECTION
  2
OBJECTS
  0
DICTIONARY
  5
19
100
AcDbDictionary
280
     0
281
     1
  3
ACAD_GROUP
350
1A
  3
ACAD_MLINESTYLE
350
1B
  3
ACAD_LAYOUT
350
1E
  3
ACAD_PLOTSETTINGS
350
22
  3
ACAD_PLOTSTYLENAME
350
1F
  3
ACAD_WIPEOUT_VARS
350
23
  0
DICTIONARY
  5
1A
102
{ACAD_REACTORS
330
19
102
}
100
AcDbDictionary
280
     0
281
     1
  0
DICTIONARY
  5
1B
102
{ACAD_REACTORS
330
19
102
}
100
AcDbDictionary
280
     0
281
     1
  3
Standard
350
1C
  0
MLINESTYLE
  5
1C
102
{ACAD_REACTORS
330
1B
102
}
100
AcDbMlineStyle
  2
Standard
 70
     0
  3

 62
     0
 51
90.0
 52
90.0
 71
     2
 49
0.5
 62
   256
  6
ByLayer
 49
-0.5
 62
   256
  6
ByLayer
  0
ACDBDICTIONARYWDFLT
  5
1F
102
{ACAD_REACTORS
330
19
102
}
100
AcDbDictionary
281
     1
  3
Normal
350
1D
100
AcDbDictionaryWithDefault
340
1D
  0
ACDBPLACEHOLDER
  5
1D
102
{ACAD_REACTORS
330
1F
102
}
  0
LAYOUT
  5
20
102
{ACAD_REACTORS
330
1E
102
}
100
AcDbPlotSettings
  1

  2

  4

  6

 40
0.0
 41
0.0
 42
0.0
 43
0.0
 44
0.0
 45
0.0
 46
0.0
 47
0.0
 48
0.0
 49
0.0
140
0.0
141
0.0
142
1.0
143
1.0
 70
  1024
 72
     0
 73
     0
 74
     0
  7

 75
     0
147
1.0
148
0.0
149
0.0
100
AcDbLayout
  1
Model
 70
     0
 71
     0
 10
0.0
 20
0.0
 11
0.0
 21
0.0
 12
0.0
 22
0.0
 32
0.0
 14
0.0
 24
0.0
 34
0.0
 15
0.0
 25
0.0
 35
0.0
146
0.0
 13
0.0
 23
0.0
 33
0.0
 16
0.0
 26
0.0
 36
0.0
 17
0.0
 27
0.0
 37
0.0
 76
     0
330
A
331
0
345
0
346
0
  0
LAYOUT
  5
21
102
{ACAD_REACTORS
330
1E
102
}
100
AcDbPlotSettings
  1

  2

  4

  6

 40
0.0
 41
0.0
 42
0.0
 43
0.0
 44
0.0
 45
0.0
 46
0.0
 47
0.0
 48
0.0
 49
0.0
140
0.0
141
0.0
142
1.0
143
1.0
 70
     0
 72
     0
 73
     0
 74
     0
  7

 75
     0
147
1.0
148
0.0
149
0.0
100
AcDbLayout
  1
Layout1
 70
     0
 71
     0
 10
0.0
 20
0.0
 11
0.0
 21
0.0
 12
0.0
 22
0.0
 32
0.0
 14
0.0
 24
0.0
 34
0.0
 15
0.0
 25
0.0
 35
0.0
146
0.0
 13
0.0
 23
0.0
 33
0.0
 16
0.0
 26
0.0
 36
0.0
 17
0.0
 27
0.0
 37
0.0
 76
     0
330
B
331
0
345
0
346
0
  0
DICTIONARY
  5
1E
102
{ACAD_REACTORS
330
19
102
}
100
AcDbDictionary
280
     0
281
     1
  3
Layout1
350
21
  3
Model
350
20
  0
DICTIONARY
  5
22
102
{ACAD_REACTORS
330
19
102
}
100
AcDbDictionary
280
     0
281
     1
  0
WIPEOUTVARIABLES
  5
23
100
AcDbWipeoutVariables
 70
     1
  0
ENDSEC
  0
EOF
