999
DXF file: 1033_RIGHT.dxf
999
Pro/ENGINEER 2023134 by Parametric Technology Corporation
  0
SECTION
  2
HEADER
  9
$ACADVER
  1
AC1032
  9
$DWGCODEPAGE
  3
ANSI_1252
  9
$EXTMAX
 10
22.0
 20
17.0
 30
0.0
  9
$EXTMIN
 10
0.0
 20
0.0
 30
0.0
  9
$LIMMIN
 10
0.0
 20
0.0
  9
$LIMMAX
 10
22.0
 20
17.0
  9
$VIEWCTR
 10
11.0
 20
8.5
  9
$VIEWSIZE
 40
17.0
  9
$CLAYER
  8
0
  9
$LTSCALE
 40
1.21
  9
$CELTYPE
  6
BYLAYER
  9
$DIMSCALE
 40
1.0
  9
$DIMASZ
 40
0.1
  9
$DIMEXO
 40
0.0625
  9
$DIMDLI
 40
0.836
  9
$DIMEXE
 40
0.125
  9
$DIMCEN
 40
0.198
  9
$DIMLFAC
 40
1.0
  9
$DIMBLK
  1
_FILLED
  9
$DIMALT
 70
1
  9
$DIMALTD
 70
2
  9
$DIMALTTD
 70
2
  9
$DIMALTF
 40
25.4
  9
$DIMTXT
 40
0.08
  9
$DIMTOL
 70
1
  9
$DIMLIM
 70
0
  9
$DIMTFAC
 40
1.0
  9
$DIMTP
 40
0.001
  9
$DIMTM
 40
0.001
  9
$DIMGAP
 40
0.09
  9
$DIMDSEP
 70
46
  9
$AUNITS
 70
0
  9
$PDMODE
 70
3
  9
$PDSIZE
 40
0.3125
  9
$HANDSEED
  5
2A4
  9
$TILEMODE
 70
1
  9
$MEASUREMENT
 70
0
  9
$INSUNITS
 70
1
  0
ENDSEC
  0
SECTION
  2
CLASSES
  0
CLASS
  1
ACDBDICTIONARYWDFLT
  2
AcDbDictionaryWithDefault
  3
AutoCAD 2000
 90
0
 91
1
280
0
281
0
  0
CLASS
  1
ACDBPLACEHOLDER
  2
AcDbPlaceHolder
  3
AutoCAD 2000
 90
0
 91
1
280
0
281
0
  0
CLASS
  1
LAYOUT
  2
AcDbLayout
  3
AutoCAD 2000
 90
0
 91
0
280
0
281
0
  0
ENDSEC
  0
SECTION
  2
TABLES
  0
TABLE
  2
VPORT
  5
8
100
AcDbSymbolTable
 70
2
  0
VPORT
  5
1F4
100
AcDbSymbolTableRecord
100
AcDbViewportTableRecord
  2
*ACTIVE
 70
0
 10
0.0
 20
0.0
 11
1.0
 21
1.0
 12
11.0
 22
8.5
 13
0.0
 23
0.0
 14
1.0
 24
1.0
 15
0.0
 25
0.0
 16
0.0
 26
0.0
 36
1.0
 17
0.0
 27
0.0
 37
0.0
 40
17.0
 41
1.2941176471
 42
50.0
 43
0.0
 44
0.0
 50
0.0
 51
0.0
 71
0
 72
100
 73
1
 74
1
 75
0
 76
0
 77
0
 78
0
  0
ENDTAB
  0
TABLE
  2
LTYPE
  5
5
100
AcDbSymbolTable
 70
6
  0
LTYPE
  5
14
100
AcDbSymbolTableRecord
100
AcDbLinetypeTableRecord
  2
BYBLOCK
 70
0
  3

 72
65
 73
0
 40
0.0
  0
LTYPE
  5
15
100
AcDbSymbolTableRecord
100
AcDbLinetypeTableRecord
  2
BYLAYER
 70
0
  3

 72
65
 73
0
 40
0.0
  0
LTYPE
  5
16
100
AcDbSymbolTableRecord
100
AcDbLinetypeTableRecord
  2
CONTINUOUS
 70
64
  3
Solid line
 72
65
 73
0
 40
0.0
  0
LTYPE
  5
1F5
100
AcDbSymbolTableRecord
100
AcDbLinetypeTableRecord
  2
CENTER
 70
64
  3
____ _ ____ _ ____ _ ____ _ ____ _ ____ _ ____
 72
65
 73
4
 40
0.6
 49
0.375
 74
0
 49
-0.075
 74
0
 49
0.075
 74
0
 49
-0.075
 74
0
  0
LTYPE
  5
1F6
100
AcDbSymbolTableRecord
100
AcDbLinetypeTableRecord
  2
HIDDEN
 70
64
  3
- - - - - - - - - - - - - - - - - - - -
 72
65
 73
2
 40
0.2
 49
0.1
 74
0
 49
-0.1
 74
0
  0
LTYPE
  5
1F7
100
AcDbSymbolTableRecord
100
AcDbLinetypeTableRecord
  2
PHANTOM
 70
64
  3
_____ _ _ _____ _ _ _____ _ _ _____
 72
65
 73
6
 40
0.8
 49
0.45
 74
0
 49
-0.05
 74
0
 49
0.1
 74
0
 49
-0.05
 74
0
 49
0.1
 74
0
 49
-0.05
 74
0
  0
LTYPE
  5
1F8
100
AcDbSymbolTableRecord
100
AcDbLinetypeTableRecord
  2
DOT
 70
64
  3
. . . . . . . . . . . . . . . . . . . .
 72
65
 73
2
 40
0.2
 49
0.1
 74
0
 49
-0.1
 74
0
  0
LTYPE
  5
1F9
100
AcDbSymbolTableRecord
100
AcDbLinetypeTableRecord
  2
DASHED
 70
64
  3
- - - - - - - - - - - - - - - - - - - -
 72
65
 73
2
 40
0.2
 49
0.1
 74
0
 49
-0.1
 74
0
  0
ENDTAB
  0
TABLE
  2
LAYER
  5
2
100
AcDbSymbolTable
 70
36
  0
LAYER
  5
10
100
AcDbSymbolTableRecord
100
AcDbLayerTableRecord
  2
0
 70
0
 62
7
  6
CONTINUOUS
370
-3
390
F
  0
LAYER
  5
1FA
100
AcDbSymbolTableRecord
100
AcDbLayerTableRecord
  2
DEFAULT_1
 70
0
 62
7
  6
CENTER
370
-3
390
F
  0
LAYER
  5
1FB
100
AcDbSymbolTableRecord
100
AcDbLayerTableRecord
  2
DEFAULT_2
 70
0
 62
8
  6
HIDDEN
370
-3
390
F
  0
LAYER
  5
1FC
100
AcDbSymbolTableRecord
100
AcDbLayerTableRecord
  2
DEFAULT_3
 70
0
 62
7
  6
PHANTOM
370
-3
390
F
  0
LAYER
  5
1FD
100
AcDbSymbolTableRecord
100
AcDbLayerTableRecord
  2
DEFAULT_COORDINATE_SYSTEM
 70
0
 62
7
  6
CONTINUOUS
370
-3
390
F
  0
LAYER
  5
1FE
100
AcDbSymbolTableRecord
100
AcDbLayerTableRecord
  2
DEFAULT_DATUM_AXES
 70
0
 62
7
  6
CONTINUOUS
370
-3
390
F
  0
LAYER
  5
1FF
100
AcDbSymbolTableRecord
100
AcDbLayerTableRecord
  2
DEFAULT_DATUM_PLANES
 70
0
 62
7
  6
CONTINUOUS
370
-3
390
F
  0
ENDTAB
  0
TABLE
  2
STYLE
  5
3
100
AcDbSymbolTable
 70
1
  0
STYLE
  5
11
100
AcDbSymbolTableRecord
100
AcDbTextStyleTableRecord
  2
STANDARD
 70
0
 40
0.0
 41
0.8
 50
0.0
 71
0
 42
0.2
  3
txt
  4

  0
STYLE
  5
200
100
AcDbSymbolTableRecord
100
AcDbTextStyleTableRecord
  2
TEXTSTYLE_1
 70
0
 40
0.0
 41
0.8
 50
0.0
 71
0
 42
0.2
  3
gdt
  4

  0
ENDTAB
  0
TABLE
  2
VIEW
  5
6
100
AcDbSymbolTable
 70
0
  0
ENDTAB
  0
TABLE
  2
UCS
  5
7
100
AcDbSymbolTable
 70
0
  0
ENDTAB
  0
TABLE
  2
APPID
  5
9
100
AcDbSymbolTable
 70
1
  0
APPID
  5
201
100
AcDbSymbolTableRecord
100
AcDbRegAppTableRecord
  2
ACAD
 70
0
  0
ENDTAB
  0
TABLE
  2
BLOCK_RECORD
  5
1
100
AcDbSymbolTable
 70
0
  0
BLOCK_RECORD
  5
202
100
AcDbSymbolTableRecord
100
AcDbBlockTableRecord
  2
*Model_Space
  0
BLOCK_RECORD
  5
203
100
AcDbSymbolTableRecord
100
AcDbBlockTableRecord
  2
*Paper_Space
  0
BLOCK_RECORD
  5
204
100
AcDbSymbolTableRecord
100
AcDbBlockTableRecord
  2
_FILLED
  0
ENDTAB
  0
TABLE
  2
DIMSTYLE
  5
A
100
AcDbSymbolTable
 70
1
100
AcDbDimStyleTable
 71
0
  0
DIMSTYLE
105
205
100
AcDbSymbolTableRecord
100
AcDbDimStyleTableRecord
  2
STANDARD
 70
0
  3

  4

 40
1.0
 41
0.1
 42
0.0625
 43
0.38
 44
0.125
 45
0.0
 46
0.0
 47
0.001
 48
0.001
140
0.08
141
0.09
142
0.0
143
25.4
144
1.0
145
0.0
146
1.0
147
0.09
 71
1
 72
0
 73
1
 74
1
 75
0
 76
0
 77
0
 78
4
 79
1
170
1
171
2
172
0
173
0
174
0
175
0
176
0
177
0
178
0
270
2
179
3
271
3
272
3
273
2
274
2
275
0
280
0
281
0
282
0
283
1
284
4
285
0
286
0
287
3
288
0
340
11
278
46
341
204
342
204
343
204
344
204
  0
ENDTAB
  0
ENDSEC
  0
SECTION
  2
BLOCKS
  0
BLOCK
  5
20
100
AcDbEntity
  8
0
100
AcDbBlockBegin
  2
*Model_Space
 70
0
 10
0.0
 20
0.0
 30
0.0
  3
*Model_Space
  1

  0
ENDBLK
  5
21
100
AcDbEntity
  8
0
100
AcDbBlockEnd
  0
BLOCK
  5
1C
100
AcDbEntity
  8
0
100
AcDbBlockBegin
  2
*Paper_Space
 70
0
 10
0.0
 20
0.0
 30
0.0
  3
*Paper_Space
  1

  0
ENDBLK
  5
1D
100
AcDbEntity
  8
0
100
AcDbBlockEnd
  0
BLOCK
  5
206
100
AcDbEntity
  8
0
100
AcDbBlockBegin
  2
_FILLED
 70
64
 10
0.0
 20
0.0
  3
_FILLED
  1

  0
SOLID
  5
207
100
AcDbEntity
  8
0
  6
BYBLOCK
 62
0
100
AcDbTrace
 10
0.0
 20
0.0
 11
-1.0
 21
0.2
 12
-1.0
 22
-0.2
 13
-1.0
 23
-0.2
  0
ENDBLK
  5
208
100
AcDbEntity
  8
0
  6
BYBLOCK
 62
0
100
AcDbBlockEnd
  0
ENDSEC
  0
SECTION
  2
ENTITIES
  0
LINE
  5
209
100
AcDbEntity
  8
0
100
AcDbLine
 62
7
  6
CONTINUOUS
 10
0.0
 20
0.0
 11
0.0
 21
17.0
  0
LINE
  5
20A
100
AcDbEntity
  8
0
100
AcDbLine
 62
7
  6
CONTINUOUS
 10
0.0
 20
0.0
 11
22.0
 21
0.0
  0
LINE
  5
20B
100
AcDbEntity
  8
0
100
AcDbLine
 62
7
  6
CONTINUOUS
 10
0.0
 20
17.0
 11
22.0
 21
17.0
  0
LINE
  5
20C
100
AcDbEntity
  8
0
100
AcDbLine
 62
7
  6
CONTINUOUS
 10
22.0
 20
0.0
 11
22.0
 21
17.0
  0
LINE
  5
20D
100
AcDbEntity
  8
0
100
AcDbLine
 62
7
  6
CONTINUOUS
 10
12.729009385
 20
2.0318322576
 11
16.096509385
 21
2.0318322576
  0
LINE
  5
20E
100
AcDbEntity
  8
0
100
AcDbLine
 62
7
  6
CONTINUOUS
 10
4.5120716707
 20
8.6349218322
 11
4.5954533667
 21
9.4282456768
  0
LINE
  5
20F
100
AcDbEntity
  8
0
100
AcDbLine
 62
7
  6
CONTINUOUS
 10
4.8013636361
 20
10.0657453584
 11
4.7233967521
 21
9.6989400081
  0
LINE
  5
210
100
AcDbEntity
  8
0
100
AcDbLine
 62
7
  6
CONTINUOUS
 10
13.0141585619
 20
2.4402067558
 11
15.8113602081
 21
2.4402067558
  0
LINE
  5
211
100
AcDbEntity
  8
0
100
AcDbLine
 62
7
  6
CONTINUOUS
 10
13.0430573586
 20
2.4897726522
 11
15.7824614114
 21
2.4897726522
  0
LINE
  5
212
100
AcDbEntity
  8
0
100
AcDbLine
 62
7
  6
CONTINUOUS
 10
13.190259385
 20
2.9468322576
 11
15.635259385
 21
2.9468322576
  0
LINE
  5
213
100
AcDbEntity
  8
0
100
AcDbLine
 62
7
  6
CONTINUOUS
 10
9.1027580965
 20
14.1853653756
 11
9.1327580615
 21
14.2153654105
  0
LINE
  5
214
100
AcDbEntity
  8
0
100
AcDbLine
 62
7
  6
CONTINUOUS
 10
13.7377576664
 20
14.554370778
 11
13.6481564719
 21
14.5252574697
  0
LINE
  5
215
100
AcDbEntity
  8
0
100
AcDbLine
 62
7
  6
CONTINUOUS
 10
6.0851823621
 20
9.7928612642
 11
6.007215478
 21
9.4260559139
  0
LINE
  5
216
100
AcDbEntity
  8
0
100
AcDbLine
 62
7
  6
CONTINUOUS
 10
5.7674953652
 20
8.3680732883
 11
6.013996273
 21
9.1267250741
  0
LINE
  5
217
100
AcDbEntity
  8
0
100
AcDbLine
 62
7
  6
CONTINUOUS
 10
6.8190565487
 20
10.2694447334
 11
7.0919406429
 21
11.5532634594
  0
LINE
  5
218
100
AcDbEntity
  8
0
100
AcDbLine
 62
7
  6
CONTINUOUS
 10
13.6627578866
 20
14.3653706906
 11
13.6268728308
 21
14.3446523882
  0
LINE
  5
219
100
AcDbEntity
  8
0
100
AcDbLine
 62
7
  6
CONTINUOUS
 10
13.2427589033
 20
13.4931202011
 11
13.5427587556
 21
13.6198705507
  0
LINE
  5
21A
100
AcDbEntity
  8
0
100
AcDbLine
 62
7
  6
CONTINUOUS
 10
15.1987589124
 20
13.4852809422
 11
14.9805251911
 21
13.4143722266
  0
LINE
  5
21B
100
AcDbEntity
  8
0
100
AcDbLine
 62
7
  6
CONTINUOUS
 10
15.1987578624
 20
14.3861570906
 11
15.1627578866
 21
14.365372439
  0
LINE
  5
21C
100
AcDbEntity
  8
0
100
AcDbLine
 62
7
  6
CONTINUOUS
 10
15.7732006662
 20
14.2229282316
 11
15.6994516212
 21
14.1714791006
  0
LINE
  5
21D
100
AcDbEntity
  8
0
100
AcDbLine
 62
7
  6
CONTINUOUS
 10
9.1027587259
 20
13.6453653756
 11
9.1027580965
 21
14.1853653756
  0
LINE
  5
21E
100
AcDbEntity
  8
0
100
AcDbLine
 62
7
  6
CONTINUOUS
 10
9.1327587608
 20
13.6153654105
 11
9.1327580615
 21
14.2153654105
  0
LINE
  5
21F
100
AcDbEntity
  8
0
100
AcDbLine
 62
7
  6
CONTINUOUS
 10
9.2227587608
 20
13.6153655154
 11
9.2227580615
 21
14.2153655154
  0
LINE
  5
220
100
AcDbEntity
  8
0
100
AcDbLine
 62
7
  6
CONTINUOUS
 10
13.6481564719
 20
14.5252574697
 11
13.6267577346
 21
14.4958045624
  0
LINE
  5
221
100
AcDbEntity
  8
0
100
AcDbLine
 62
7
  6
CONTINUOUS
 10
4.5474691299
 20
8.5862014093
 11
5.7153417959
 21
8.337962411
  0
LINE
  5
222
100
AcDbEntity
  8
0
100
AcDbLine
 62
7
  6
CONTINUOUS
 10
4.5120716707
 20
8.6349218322
 11
5.7674953652
 21
8.3680732883
  0
LINE
  5
223
100
AcDbEntity
  8
0
100
AcDbLine
 62
7
  6
CONTINUOUS
 10
9.9352590668
 20
13.3528663459
 11
9.9352577555
 21
14.4778663459
  0
LINE
  5
224
100
AcDbEntity
  8
0
100
AcDbLine
 62
7
  6
CONTINUOUS
 10
6.013996273
 20
9.1267250741
 11
4.5954533667
 21
9.4282456768
  0
LINE
  5
225
100
AcDbEntity
  8
0
100
AcDbLine
 62
7
  6
CONTINUOUS
 10
6.0255557456
 20
9.4221575697
 11
4.7050564846
 21
9.7028383523
  0
LINE
  5
226
100
AcDbEntity
  8
0
100
AcDbLine
 62
7
  6
CONTINUOUS
 10
6.0851823621
 20
9.7928612642
 11
4.8013636361
 21
10.0657453584
  0
LINE
  5
227
100
AcDbEntity
  8
0
100
AcDbLine
 62
7
  6
CONTINUOUS
 10
13.6268728308
 20
14.3446523882
 11
13.580258044
 21
14.2303705944
  0
LINE
  5
228
100
AcDbEntity
  8
0
100
AcDbLine
 62
7
  6
CONTINUOUS
 10
13.2505479443
 20
12.2809311037
 11
13.5501052823
 21
13.0075169872
  0
LINE
  5
229
100
AcDbEntity
  8
0
100
AcDbLine
 62
7
  6
CONTINUOUS
 10
13.1177087879
 20
8.7581048949
 11
12.4401099522
 21
8.9021329736
  0
LINE
  5
22A
100
AcDbEntity
  8
0
100
AcDbLine
 62
7
  6
CONTINUOUS
 10
12.3578173379
 20
9.0921447842
 11
6.8190565487
 21
10.2694447334
  0
LINE
  5
22B
100
AcDbEntity
  8
0
100
AcDbLine
 62
7
  6
CONTINUOUS
 10
12.347681643
 20
9.0444600886
 11
12.640837127
 21
10.4236482057
  0
LINE
  5
22C
100
AcDbEntity
  8
0
100
AcDbLine
 62
7
  6
CONTINUOUS
 10
15.2452580825
 20
14.1973400659
 11
15.2449808395
 21
14.1967678941
  0
LINE
  5
22D
100
AcDbEntity
  8
0
100
AcDbLine
 62
7
  6
CONTINUOUS
 10
12.4401099522
 20
8.9021329736
 11
12.783164242
 21
10.5160765149
  0
LINE
  5
22E
100
AcDbEntity
  8
0
100
AcDbLine
 62
7
  6
CONTINUOUS
 10
12.6307014321
 20
10.3759635101
 11
7.0919406429
 21
11.5532634594
  0
LINE
  5
22F
100
AcDbEntity
  8
0
100
AcDbLine
 62
7
  6
CONTINUOUS
 10
13.0852589033
 20
13.4931200175
 11
13.085257919
 21
14.3376200175
  0
LINE
  5
230
100
AcDbEntity
  8
0
100
AcDbLine
 62
7
  6
CONTINUOUS
 10
13.212759385
 20
11.7229704625
 11
13.212759385
 21
10.5729509071
  0
LINE
  5
231
100
AcDbEntity
  8
0
100
AcDbLine
 62
7
  6
CONTINUOUS
 10
13.212759385
 20
8.6407271828
 11
13.212759385
 21
2.9468322576
  0
LINE
  5
232
100
AcDbEntity
  8
0
100
AcDbLine
 62
7
  6
CONTINUOUS
 10
13.2427589033
 20
13.4931202011
 11
13.242757919
 21
14.3376202011
  0
LINE
  5
233
100
AcDbEntity
  8
0
100
AcDbLine
 62
7
  6
CONTINUOUS
 10
15.2452587783
 20
13.6003725351
 11
15.1987589125
 21
13.4852809422
  0
LINE
  5
234
100
AcDbEntity
  8
0
100
AcDbLine
 62
7
  6
CONTINUOUS
 10
13.0678099821
 20
10.4555731951
 11
12.783164242
 21
10.5160765149
  0
LINE
  5
235
100
AcDbEntity
  8
0
100
AcDbLine
 62
7
  6
CONTINUOUS
 10
9.1027587259
 20
13.6453653756
 11
9.1327587608
 21
13.6153654105
  0
LINE
  5
236
100
AcDbEntity
  8
0
100
AcDbLine
 62
7
  6
CONTINUOUS
 10
13.5427587556
 20
13.6198705507
 11
13.5427580667
 21
14.2108705507
  0
LINE
  5
237
100
AcDbEntity
  8
0
100
AcDbLine
 62
7
  6
CONTINUOUS
 10
13.580258044
 20
14.2303705944
 11
13.5802580667
 21
14.2108705944
  0
LINE
  5
238
100
AcDbEntity
  8
0
100
AcDbLine
 62
7
  6
CONTINUOUS
 10
13.5802587556
 20
13.6198705944
 11
13.5802587783
 21
13.6003705944
  0
LINE
  5
239
100
AcDbEntity
  8
0
100
AcDbLine
 62
7
  6
CONTINUOUS
 10
13.6267577346
 20
14.4958045624
 11
13.6267578624
 21
14.3861552583
  0
LINE
  5
23A
100
AcDbEntity
  8
0
100
AcDbLine
 62
7
  6
CONTINUOUS
 10
13.6327584713
 20
13.8637561984
 11
13.632758351
 21
13.9669841016
  0
LINE
  5
23B
100
AcDbEntity
  8
0
100
AcDbLine
 62
7
  6
CONTINUOUS
 10
13.7677575774
 20
14.6306899168
 11
13.7677576664
 21
14.554370813
  0
LINE
  5
23C
100
AcDbEntity
  8
0
100
AcDbLine
 62
7
  6
CONTINUOUS
 10
13.9627589951
 20
13.4143710403
 11
13.9627594477
 21
13.0260822576
  0
LINE
  5
23D
100
AcDbEntity
  8
0
100
AcDbLine
 62
7
  6
CONTINUOUS
 10
15.650259385
 20
11.7229704625
 11
13.175259385
 21
11.7229704625
  0
LINE
  5
23E
100
AcDbEntity
  8
0
100
AcDbLine
 62
7
  6
CONTINUOUS
 10
13.1543665279
 20
11.9839183243
 11
15.6711522421
 21
11.9839183243
  0
LINE
  5
23F
100
AcDbEntity
  8
0
100
AcDbLine
 62
7
  6
CONTINUOUS
 10
15.6202599858
 20
12.0546381558
 11
13.2052587842
 21
12.0546381558
  0
LINE
  5
240
100
AcDbEntity
  8
0
100
AcDbLine
 62
7
  6
CONTINUOUS
 10
15.5749708256
 20
12.2809311037
 11
13.2505479443
 21
12.2809311037
  0
LINE
  5
241
100
AcDbEntity
  8
0
100
AcDbLine
 62
7
  6
CONTINUOUS
 10
14.8627589951
 20
13.4143720893
 11
14.8627595231
 21
12.9613899851
  0
LINE
  5
242
100
AcDbEntity
  8
0
100
AcDbLine
 62
7
  6
CONTINUOUS
 10
15.0577575774
 20
14.6306914204
 11
15.0577576663
 21
14.5543723166
  0
LINE
  5
243
100
AcDbEntity
  8
0
100
AcDbLine
 62
7
  6
CONTINUOUS
 10
14.427515687
 20
13.0075169872
 11
13.5501052823
 21
13.0075169872
  0
LINE
  5
244
100
AcDbEntity
  8
0
100
AcDbLine
 62
7
  6
CONTINUOUS
 10
13.577840584
 20
13.0260822576
 11
14.4270412552
 21
13.0260822576
  0
LINE
  5
245
100
AcDbEntity
  8
0
100
AcDbLine
 62
7
  6
CONTINUOUS
 10
15.1927584603
 20
13.873184885
 11
15.192758362
 21
13.9575590516
  0
LINE
  5
246
100
AcDbEntity
  8
0
100
AcDbLine
 62
7
  6
CONTINUOUS
 10
15.1987577346
 20
14.4958063946
 11
15.1987578624
 21
14.3861570906
  0
LINE
  5
247
100
AcDbEntity
  8
0
100
AcDbLine
 62
7
  6
CONTINUOUS
 10
15.2140432492
 20
13.7271254861
 11
15.2140428103
 21
14.1036187265
  0
LINE
  5
248
100
AcDbEntity
  8
0
100
AcDbLine
 62
7
  6
CONTINUOUS
 10
15.2449808395
 20
14.1967678941
 11
15.2449814955
 21
13.6339771008
  0
LINE
  5
249
100
AcDbEntity
  8
0
100
AcDbLine
 62
7
  6
CONTINUOUS
 10
15.245258044
 20
14.2303725351
 11
15.2452580825
 21
14.1973400659
  0
LINE
  5
24A
100
AcDbEntity
  8
0
100
AcDbLine
 62
7
  6
CONTINUOUS
 10
15.2452587398
 20
13.6334050044
 11
15.2452587783
 21
13.6003725351
  0
LINE
  5
24B
100
AcDbEntity
  8
0
100
AcDbLine
 62
7
  6
CONTINUOUS
 10
15.612759385
 20
11.7229704625
 11
15.612759385
 21
2.9468322576
  0
LINE
  5
24C
100
AcDbEntity
  8
0
100
AcDbLine
 62
7
  6
CONTINUOUS
 10
15.6219684475
 20
13.6279076277
 11
15.6219677774
 21
14.2028383207
  0
LINE
  5
24D
100
AcDbEntity
  8
0
100
AcDbLine
 62
7
  6
CONTINUOUS
 10
15.6624293406
 20
13.6453730214
 11
15.6624287111
 21
14.1853730214
  0
LINE
  5
24E
100
AcDbEntity
  8
0
100
AcDbLine
 62
7
  6
CONTINUOUS
 10
15.6994522182
 20
13.6592670285
 11
15.6994516212
 21
14.1714791006
  0
LINE
  5
24F
100
AcDbEntity
  8
0
100
AcDbLine
 62
7
  6
CONTINUOUS
 10
14.9805251911
 20
13.4143722266
 11
13.8449927992
 21
13.414370903
  0
LINE
  5
250
100
AcDbEntity
  8
0
100
AcDbLine
 62
7
  6
CONTINUOUS
 10
15.1987589124
 20
13.4852809422
 11
13.6267589125
 21
13.48527911
  0
LINE
  5
251
100
AcDbEntity
  8
0
100
AcDbLine
 62
7
  6
CONTINUOUS
 10
13.0852589033
 20
13.4931200175
 11
13.2427589033
 21
13.4931202011
  0
LINE
  5
252
100
AcDbEntity
  8
0
100
AcDbLine
 62
7
  6
CONTINUOUS
 10
15.2452587783
 20
13.6003725351
 11
13.5802587783
 21
13.6003705944
  0
LINE
  5
253
100
AcDbEntity
  8
0
100
AcDbLine
 62
7
  6
CONTINUOUS
 10
9.1327587608
 20
13.6153654105
 11
9.2227587608
 21
13.6153655154
  0
LINE
  5
254
100
AcDbEntity
  8
0
100
AcDbLine
 62
7
  6
CONTINUOUS
 10
13.5427587556
 20
13.6198705507
 11
13.5802587556
 21
13.6198705944
  0
LINE
  5
255
100
AcDbEntity
  8
0
100
AcDbLine
 62
7
  6
CONTINUOUS
 10
13.5802587783
 20
13.6003705944
 11
13.6267589125
 21
13.48527911
  0
LINE
  5
256
100
AcDbEntity
  8
0
100
AcDbLine
 62
7
  6
CONTINUOUS
 10
15.7732013832
 20
13.6078180694
 11
15.7732006662
 21
14.2229282316
  0
LINE
  5
257
100
AcDbEntity
  8
0
100
AcDbLine
 62
7
  6
CONTINUOUS
 10
13.5427580667
 20
14.2108705507
 11
13.5802580667
 21
14.2108705944
  0
LINE
  5
258
100
AcDbEntity
  8
0
100
AcDbLine
 62
7
  6
CONTINUOUS
 10
9.1327580615
 20
14.2153654105
 11
9.2227580615
 21
14.2153655154
  0
LINE
  5
259
100
AcDbEntity
  8
0
100
AcDbLine
 62
7
  6
CONTINUOUS
 10
15.245258044
 20
14.2303725351
 11
13.580258044
 21
14.2303705944
  0
LINE
  5
25A
100
AcDbEntity
  8
0
100
AcDbLine
 62
7
  6
CONTINUOUS
 10
13.6267589125
 20
13.48527911
 11
13.8449927992
 21
13.414370903
  0
LINE
  5
25B
100
AcDbEntity
  8
0
100
AcDbLine
 62
7
  6
CONTINUOUS
 10
13.085257919
 20
14.3376200175
 11
13.242757919
 21
14.3376202011
  0
LINE
  5
25C
100
AcDbEntity
  8
0
100
AcDbLine
 62
7
  6
CONTINUOUS
 10
15.1986429908
 20
14.3446542202
 11
13.6268728308
 21
14.3446523882
  0
LINE
  5
25D
100
AcDbEntity
  8
0
100
AcDbLine
 62
7
  6
CONTINUOUS
 10
13.6627578866
 20
14.3653706906
 11
15.1627578866
 21
14.365372439
  0
LINE
  5
25E
100
AcDbEntity
  8
0
100
AcDbLine
 62
7
  6
CONTINUOUS
 10
15.1987578624
 20
14.3861570906
 11
13.6267578624
 21
14.3861552583
  0
LINE
  5
25F
100
AcDbEntity
  8
0
100
AcDbLine
 62
7
  6
CONTINUOUS
 10
13.6267577346
 20
14.4958045624
 11
15.1987577346
 21
14.4958063946
  0
LINE
  5
260
100
AcDbEntity
  8
0
100
AcDbLine
 62
7
  6
CONTINUOUS
 10
13.6481564719
 20
14.5252574697
 11
15.1773589287
 21
14.5252592521
  0
LINE
  5
261
100
AcDbEntity
  8
0
100
AcDbLine
 62
7
  6
CONTINUOUS
 10
15.0877576663
 20
14.5543723516
 11
13.7377576664
 21
14.554370778
  0
LINE
  5
262
100
AcDbEntity
  8
0
100
AcDbLine
 62
7
  6
CONTINUOUS
 10
15.0577575774
 20
14.6306914204
 11
13.7677575774
 21
14.6306899168
  0
LINE
  5
263
100
AcDbEntity
  8
0
100
AcDbLine
 62
7
  6
CONTINUOUS
 10
14.9863388051
 20
14.7301764785
 11
13.8391761177
 21
14.7301751414
  0
LWPOLYLINE
  5
264
100
AcDbEntity
  8
0
100
AcDbPolyline
 62
7
  6
CONTINUOUS
 90
20
 70
0
 10
15.3905056648
 20
12.7283570956
 10
15.3899264093
 20
12.7296718427
 10
15.3892694614
 20
12.7309864263
 10
15.3885489289
 20
12.7322672529
 10
15.3877665419
 20
12.7335112498
 10
15.3869241789
 20
12.7347154325
 10
15.3860238625
 20
12.7358769121
 10
15.385067754
 20
12.7369929026
 10
15.3840581483
 20
12.7380607271
 10
15.3829974692
 20
12.7390778241
 10
15.381888264
 20
12.7400417529
 10
15.3807331923
 20
12.740950204
 10
15.3795350293
 20
12.7418009966
 10
15.3782966603
 20
12.7425920845
 10
15.377021075
 20
12.7433215637
 10
15.3757113195
 20
12.7439876972
 10
15.3743704967
 20
12.7445889071
 10
15.373001808
 20
12.745123753
 10
15.3716085495
 20
12.7455909421
 10
15.3701940627
 20
12.7459893504
  0
LINE
  5
265
100
AcDbEntity
  8
0
100
AcDbLine
 62
7
  6
CONTINUOUS
 10
15.5749708256
 20
12.2809311037
 11
15.3905057152
 21
12.7283571163
  0
LINE
  5
266
100
AcDbEntity
  8
0
100
AcDbLine
 62
7
  6
CONTINUOUS
 10
13.242757919
 20
14.3376202011
 11
13.5427580667
 21
14.2108705507
  0
LINE
  5
267
100
AcDbEntity
  8
0
100
AcDbLine
 62
7
  6
CONTINUOUS
 10
13.6267578624
 20
14.3861552583
 11
13.6627578866
 21
14.3653706906
  0
LINE
  5
268
100
AcDbEntity
  8
0
100
AcDbLine
 62
7
  6
CONTINUOUS
 10
15.2449814955
 20
13.6339771008
 11
15.2452587398
 21
13.6334050044
  0
LINE
  5
269
100
AcDbEntity
  8
0
100
AcDbLine
 62
7
  6
CONTINUOUS
 10
15.1986429908
 20
14.3446542202
 11
15.245258044
 21
14.2303725351
  0
LINE
  5
26A
100
AcDbEntity
  8
0
100
AcDbLine
 62
7
  6
CONTINUOUS
 10
15.0877576663
 20
14.5543723516
 11
15.1773589287
 21
14.5252592521
  0
LINE
  5
26B
100
AcDbEntity
  8
0
100
AcDbLine
 62
7
  6
CONTINUOUS
 10
15.1627578866
 20
14.365372439
 11
15.1986429908
 21
14.3446542202
  0
LINE
  5
26C
100
AcDbEntity
  8
0
100
AcDbLine
 62
7
  6
CONTINUOUS
 10
15.7732013832
 20
13.6078180694
 11
15.6994522182
 21
13.6592670285
  0
LINE
  5
26D
100
AcDbEntity
  8
0
100
AcDbLine
 62
7
  6
CONTINUOUS
 10
15.1773589287
 20
14.5252592521
 11
15.1987577346
 21
14.4958063946
  0
ARC
  5
26E
100
AcDbEntity
  8
0
100
AcDbCircle
 62
7
  6
CONTINUOUS
 10
6.69041119
 20
9.6642159055
 40
1.93125
100
AcDbArc
 50
78.0
 51
168.0
  0
ARC
  5
26F
100
AcDbEntity
  8
0
100
AcDbCircle
 62
7
  6
CONTINUOUS
 10
9.827957129
 20
13.6708990459
 40
0.8140698052
100
AcDbArc
 50
82.425938099
 51
138.0239143288
  0
ARC
  5
270
100
AcDbEntity
  8
0
100
AcDbCircle
 62
7
  6
CONTINUOUS
 10
6.69041119
 20
9.6642159055
 40
0.61875
100
AcDbArc
 50
78.0
 51
168.0
  0
ARC
  5
271
100
AcDbEntity
  8
0
100
AcDbCircle
 62
7
  6
CONTINUOUS
 10
9.3390084112
 20
13.9153656509
 40
0.32625
100
AcDbArc
 50
136.39724781
 51
223.6028857555
  0
ARC
  5
272
100
AcDbEntity
  8
0
100
AcDbCircle
 62
7
  6
CONTINUOUS
 10
5.9943689919
 20
9.2754354296
 40
0.15
100
AcDbArc
 50
277.5186289448
 51
78.0
  0
ARC
  5
273
100
AcDbEntity
  8
0
100
AcDbCircle
 62
7
  6
CONTINUOUS
 10
4.6738697309
 20
9.5561162122
 40
0.15
100
AcDbArc
 50
78.0
 51
238.4813710552
  0
ARC
  5
274
100
AcDbEntity
  8
0
100
AcDbCircle
 62
7
  6
CONTINUOUS
 10
4.556825156
 20
8.6302180514
 40
0.045
100
AcDbArc
 50
174.0
 51
258.0
  0
ARC
  5
275
100
AcDbEntity
  8
0
100
AcDbCircle
 62
7
  6
CONTINUOUS
 10
5.7246978219
 20
8.381979053
 40
0.045
100
AcDbArc
 50
258.0
 51
342.0
  0
ARC
  5
276
100
AcDbEntity
  8
0
100
AcDbCircle
 62
7
  6
CONTINUOUS
 10
9.8279565591
 20
14.1598333958
 40
0.8140698052
100
AcDbArc
 50
221.9762192367
 51
277.5741954665
  0
ARC
  5
277
100
AcDbEntity
  8
0
100
AcDbCircle
 62
7
  6
CONTINUOUS
 10
12.3078383302
 20
-4.4900837364
 40
18.0
100
AcDbArc
 50
87.5246234657
 51
97.5741954665
  0
ARC
  5
278
100
AcDbEntity
  8
0
100
AcDbCircle
 62
7
  6
CONTINUOUS
 10
13.5610644287
 20
2.5751756693
 40
0.525
100
AcDbArc
 50
134.9342863148
 51
189.3620468441
  0
ARC
  5
279
100
AcDbEntity
  8
0
100
AcDbCircle
 62
7
  6
CONTINUOUS
 10
13.164009385
 20
2.0318322576
 40
0.435
100
AcDbArc
 50
110.1503401241
 51
180.0
  0
ARC
  5
27A
100
AcDbEntity
  8
0
100
AcDbCircle
 62
7
  6
CONTINUOUS
 10
12.9986567526
 20
2.4824523936
 40
0.045
100
AcDbArc
 50
290.1503401241
 51
9.3620468441
  0
ARC
  5
27B
100
AcDbEntity
  8
0
100
AcDbCircle
 62
7
  6
CONTINUOUS
 10
13.8052539776
 20
12.052236511
 40
0.6
100
AcDbArc
 50
157.5945911166
 51
179.77065921
  0
ARC
  5
27C
100
AcDbEntity
  8
0
100
AcDbCircle
 62
7
  6
CONTINUOUS
 10
13.197759385
 20
11.8560822576
 40
0.135
100
AcDbArc
 50
108.749340847
 51
260.4059317731
  0
ARC
  5
27D
100
AcDbEntity
  8
0
100
AcDbCircle
 62
7
  6
CONTINUOUS
 10
13.092759385
 20
8.6407271828
 40
0.12
100
AcDbArc
 50
0.0
 51
78.0000000001
  0
ARC
  5
27E
100
AcDbEntity
  8
0
100
AcDbCircle
 62
7
  6
CONTINUOUS
 10
13.092759385
 20
10.5729509071
 40
0.12
100
AcDbArc
 50
257.9999999992
 51
360.0
  0
ARC
  5
27F
100
AcDbEntity
  8
0
100
AcDbCircle
 62
7
  6
CONTINUOUS
 10
12.4650593551
 20
9.0195106857
 40
0.12
100
AcDbArc
 50
168.0
 51
258.0
  0
ARC
  5
280
100
AcDbEntity
  8
0
100
AcDbCircle
 62
7
  6
CONTINUOUS
 10
12.7582148391
 20
10.3986988028
 40
0.12
100
AcDbArc
 50
78.0
 51
168.0
  0
ARC
  5
281
100
AcDbEntity
  8
0
100
AcDbCircle
 62
7
  6
CONTINUOUS
 10
13.130259385
 20
12.0549383613
 40
0.075
100
AcDbArc
 50
288.749340847
 51
359.77065921
  0
ARC
  5
282
100
AcDbEntity
  8
0
100
AcDbCircle
 62
7
  6
CONTINUOUS
 10
13.577840584
 20
12.9960822576
 40
0.03
100
AcDbArc
 50
90.0
 51
157.5945911166
  0
ARC
  5
283
100
AcDbEntity
  8
0
100
AcDbCircle
 62
7
  6
CONTINUOUS
 10
15.2644543413
 20
2.5751756693
 40
0.525
100
AcDbArc
 50
350.6379531559
 51
45.0657136852
  0
ARC
  5
284
100
AcDbEntity
  8
0
100
AcDbCircle
 62
7
  6
CONTINUOUS
 10
15.661509385
 20
2.0318322576
 40
0.435
100
AcDbArc
 50
0.0
 51
69.8496598759
  0
ARC
  5
285
100
AcDbEntity
  8
0
100
AcDbCircle
 62
7
  6
CONTINUOUS
 10
15.8268620174
 20
2.4824523936
 40
0.045
100
AcDbArc
 50
170.6379531559
 51
249.8496598759
  0
ARC
  5
286
100
AcDbEntity
  8
0
100
AcDbCircle
 62
7
  6
CONTINUOUS
 10
14.412759442
 20
13.0309340648
 40
1.7934375
100
AcDbArc
 50
71.3478868311
 51
108.6522467344
  0
ARC
  5
287
100
AcDbEntity
  8
0
100
AcDbCircle
 62
7
  6
CONTINUOUS
 10
14.4270412552
 20
11.5260822576
 40
1.5
100
AcDbArc
 50
59.9071798446
 51
90.0
  0
ARC
  5
288
100
AcDbEntity
  8
0
100
AcDbCircle
 62
7
  6
CONTINUOUS
 10
15.5551964739
 20
13.4728143405
 40
0.75
100
AcDbArc
 50
239.9071798446
 51
255.7176738393
  0
ARC
  5
289
100
AcDbEntity
  8
0
100
AcDbCircle
 62
7
  6
CONTINUOUS
 10
15.0202647924
 20
12.052236511
 40
0.6
100
AcDbArc
 50
0.22934079
 51
22.4054088834
  0
ARC
  5
28A
100
AcDbEntity
  8
0
100
AcDbCircle
 62
7
  6
CONTINUOUS
 10
15.4306105657
 20
13.4248727512
 40
0.279
100
AcDbArc
 50
46.6958909823
 51
131.6319772856
  0
ARC
  5
28B
100
AcDbEntity
  8
0
100
AcDbCircle
 62
7
  6
CONTINUOUS
 10
15.627759385
 20
11.8560822576
 40
0.135
100
AcDbArc
 50
279.5940682269
 51
71.250659153
  0
ARC
  5
28C
100
AcDbEntity
  8
0
100
AcDbCircle
 62
7
  6
CONTINUOUS
 10
15.695259385
 20
12.0549383613
 40
0.075
100
AcDbArc
 50
180.22934079
 51
251.250659153
  0
ARC
  5
28D
100
AcDbEntity
  8
0
100
AcDbCircle
 62
7
  6
CONTINUOUS
 10
15.6857205684
 20
13.6395834873
 40
0.024
100
AcDbArc
 50
55.0995667827
 51
166.0408180074
  0
ARC
  5
28E
100
AcDbEntity
  8
0
100
AcDbCircle
 62
7
  6
CONTINUOUS
 10
15.6384293406
 20
13.6453729934
 40
0.024
100
AcDbArc
 50
226.6958909823
 51
0.0000667828
  0
ARC
  5
28F
100
AcDbEntity
  8
0
100
AcDbCircle
 62
7
  6
CONTINUOUS
 10
12.3077954242
 20
32.320821959
 40
18.0
100
AcDbArc
 50
262.425938099
 51
272.4755100998
  0
ARC
  5
290
100
AcDbEntity
  8
0
100
AcDbCircle
 62
7
  6
CONTINUOUS
 10
15.9877584112
 20
13.9153734006
 40
0.375
100
AcDbArc
 50
235.0995667828
 51
124.9005667828
  0
ARC
  5
291
100
AcDbEntity
  8
0
100
AcDbCircle
 62
7
  6
CONTINUOUS
 10
15.4306094223
 20
14.4058727512
 40
0.279
100
AcDbArc
 50
228.3681562799
 51
313.3042425832
  0
ARC
  5
292
100
AcDbEntity
  8
0
100
AcDbCircle
 62
7
  6
CONTINUOUS
 10
14.9527575774
 20
14.630691298
 40
0.105
100
AcDbArc
 50
0.0000667828
 51
71.3478868311
  0
ARC
  5
293
100
AcDbEntity
  8
0
100
AcDbCircle
 62
7
  6
CONTINUOUS
 10
13.8727575774
 20
14.6306900392
 40
0.105
100
AcDbArc
 50
108.6522467344
 51
180.0000667828
  0
ARC
  5
294
100
AcDbEntity
  8
0
100
AcDbCircle
 62
7
  6
CONTINUOUS
 10
15.6857199255
 20
14.1911626098
 40
0.024
100
AcDbArc
 50
193.9593155581
 51
304.9005667827
  0
ARC
  5
295
100
AcDbEntity
  8
0
100
AcDbCircle
 62
7
  6
CONTINUOUS
 10
15.6384287111
 20
14.1853729934
 40
0.024
100
AcDbArc
 50
0.0000667827
 51
133.3042425832
  0
SPLINE
  5
296
100
AcDbEntity
  8
0
100
AcDbSpline
 62
7
  6
CONTINUOUS
 70
0
 71
3
 72
46
 73
42
 74
0
 42
0.0000001
 43
0.0000001
 44
0.0000000001
 40
0.0
 40
0.0
 40
0.0
 40
0.0
 40
0.1014120303
 40
0.2005001014
 40
0.2965567178
 40
0.3889210637
 40
0.4769666277
 40
0.5600956806
 40
0.6377276979
 40
0.7092926008
 40
0.7742257562
 40
0.8040307698
 40
0.8319691021
 40
0.8579733834
 40
0.8819775402
 40
0.9039179266
 40
0.9237338772
 40
0.9413678634
 40
0.9567674483
 40
0.9636137427
 40
0.9698840306
 40
0.9755732988
 40
0.980676533
 40
0.9851893061
 40
0.9891083204
 40
0.9924304028
 40
0.9938666022
 40
0.9951523782
 40
0.9962874138
 40
0.9972715539
 40
0.998104663
 40
0.9987866056
 40
0.9990708471
 40
0.9993172461
 40
0.9995257858
 40
0.9996964491
 40
0.9998292191
 40
0.9999240789
 40
0.9999572872
 40
0.9999810115
 40
1.0
 40
1.0
 40
1.0
 40
1.0
 10
13.632758351
 20
13.9669841016
 30
0.0
 10
13.6321997532
 20
13.975425592
 30
0.0
 10
13.6308265172
 20
13.9920985622
 30
0.0
 10
13.6280240503
 20
14.0166822398
 30
0.0
 10
13.6245969379
 20
14.0404240466
 30
0.0
 10
13.6206616414
 20
14.0631519636
 30
0.0
 10
13.6163457758
 20
14.0847113722
 30
0.0
 10
13.6117835993
 20
14.1049614859
 30
0.0
 10
13.6071119214
 20
14.1237724571
 30
0.0
 10
13.6024671512
 20
14.1410221284
 30
0.0
 10
13.5986277701
 20
14.1543542286
 30
0.0
 10
13.5956808801
 20
14.164154706
 30
0.0
 10
13.5936222471
 20
14.1708309356
 30
0.0
 10
13.5916660115
 20
14.1770321806
 30
0.0
 10
13.5898264549
 20
14.1827454493
 30
0.0
 10
13.58811712
 20
14.1879582151
 30
0.0
 10
13.5865505804
 20
14.1926584861
 30
0.0
 10
13.5851387647
 20
14.1968351255
 30
0.0
 10
13.5840614864
 20
14.1999827269
 30
0.0
 10
13.5832856621
 20
14.2022315251
 30
0.0
 10
13.5827718114
 20
14.2037137991
 30
0.0
 10
13.5823037533
 20
14.2050580477
 30
0.0
 10
13.5818824648
 20
14.206263332
 30
0.0
 10
13.5815088263
 20
14.2073288322
 30
0.0
 10
13.5811834732
 20
14.2082538067
 30
0.0
 10
13.5809427001
 20
14.2089364645
 30
0.0
 10
13.5807747363
 20
14.2094118703
 30
0.0
 10
13.5806674678
 20
14.2097152211
 30
0.0
 10
13.5805727182
 20
14.2099829988
 30
0.0
 10
13.5804905173
 20
14.2102151603
 30
0.0
 10
13.5804208914
 20
14.2104116772
 30
0.0
 10
13.5803707371
 20
14.2105531497
 30
0.0
 10
13.5803369192
 20
14.2106484852
 30
0.0
 10
13.5803163036
 20
14.2107065998
 30
0.0
 10
13.580298835
 20
14.2107557804
 30
0.0
 10
13.580284579
 20
14.2107960344
 30
0.0
 10
13.5802733727
 20
14.2108273295
 30
0.0
 10
13.5802662679
 20
14.2108478652
 30
0.0
 10
13.5802617872
 20
14.2108597547
 30
0.0
 10
13.5802600891
 20
14.210865797
 30
0.0
 10
13.5802580788
 20
14.2108690104
 30
0.0
 10
13.5802580667
 20
14.2108705944
 30
0.0
  0
SPLINE
  5
297
100
AcDbEntity
  8
0
100
AcDbSpline
 62
7
  6
CONTINUOUS
 70
0
 71
3
 72
14
 73
10
 74
0
 42
0.0000001
 43
0.0000001
 44
0.0000000001
 40
0.0
 40
0.0
 40
0.0
 40
0.0
 40
0.0849299222
 40
0.167146239
 40
0.277775939
 40
0.4173884475
 40
0.5855028919
 40
0.7805436402
 40
1.0
 40
1.0
 40
1.0
 40
1.0
 10
15.2449808395
 20
14.1967678941
 30
0.0
 10
15.2437670336
 20
14.1942629105
 30
0.0
 10
15.2414793629
 20
14.1892836843
 30
0.0
 10
15.2379254754
 20
14.1809009937
 30
0.0
 10
15.2339541552
 20
14.1707524073
 30
0.0
 10
15.229340174
 20
14.1578381866
 30
0.0
 10
15.2242814094
 20
14.1421527729
 30
0.0
 10
15.2190070792
 20
14.1237972389
 30
0.0
 10
15.2156877937
 20
14.1106207576
 30
0.0
 10
15.2140428103
 20
14.1036187265
 30
0.0
  0
SPLINE
  5
298
100
AcDbEntity
  8
0
100
AcDbSpline
 62
7
  6
CONTINUOUS
 70
0
 71
3
 72
11
 73
7
 74
0
 42
0.0000001
 43
0.0000001
 44
0.0000000001
 40
0.0
 40
0.0
 40
0.0
 40
0.0
 40
0.2255868433
 40
0.4702782024
 40
0.7299283677
 40
1.0
 40
1.0
 40
1.0
 40
1.0
 10
15.2140428103
 20
14.1036187265
 30
0.0
 10
15.2115013129
 20
14.0928005964
 30
0.0
 10
15.2066117472
 20
14.0701497805
 30
0.0
 10
15.2004265386
 20
14.0347179016
 30
0.0
 10
15.1955493776
 20
13.9968690823
 30
0.0
 10
15.1934768578
 20
13.9708436629
 30
0.0
 10
15.192758362
 20
13.9575590516
 30
0.0
  0
SPLINE
  5
299
100
AcDbEntity
  8
0
100
AcDbSpline
 62
7
  6
CONTINUOUS
 70
0
 71
3
 72
11
 73
7
 74
0
 42
0.0000001
 43
0.0000001
 44
0.0000000001
 40
0.0
 40
0.0
 40
0.0
 40
0.0
 40
0.2700694752
 40
0.5297210294
 40
0.7744144924
 40
1.0
 40
1.0
 40
1.0
 40
1.0
 10
15.1927584603
 20
13.873184885
 30
0.0
 10
15.1934769807
 20
13.8599004015
 30
0.0
 10
15.1955494664
 20
13.8338750552
 30
0.0
 10
15.2004268587
 20
13.7960262567
 30
0.0
 10
15.206612068
 20
13.7605943259
 30
0.0
 10
15.2115017384
 20
13.7379435283
 30
0.0
 10
15.2140432492
 20
13.7271254861
 30
0.0
  0
SPLINE
  5
29A
100
AcDbEntity
  8
0
100
AcDbSpline
 62
7
  6
CONTINUOUS
 70
0
 71
3
 72
14
 73
10
 74
0
 42
0.0000001
 43
0.0000001
 44
0.0000000001
 40
0.0
 40
0.0
 40
0.0
 40
0.0
 40
0.2194571363
 40
0.4144985208
 40
0.5826132902
 40
0.7222258326
 40
0.8328553525
 40
0.9150713226
 40
1.0
 40
1.0
 40
1.0
 40
1.0
 10
15.2140432492
 20
13.7271254861
 30
0.0
 10
15.2156882481
 20
13.7201234823
 30
0.0
 10
15.2190075632
 20
13.7069470552
 30
0.0
 10
15.2242819361
 20
13.6885916081
 30
0.0
 10
15.2293407363
 20
13.6729062883
 30
0.0
 10
15.2339547476
 20
13.6599921705
 30
0.0
 10
15.2379260847
 20
13.6498436863
 30
0.0
 10
15.2414799947
 20
13.6414611359
 30
0.0
 10
15.2437676456
 20
13.6364819969
 30
0.0
 10
15.2449814955
 20
13.6339771008
 30
0.0
  0
SPLINE
  5
29B
100
AcDbEntity
  8
0
100
AcDbSpline
 62
7
  6
CONTINUOUS
 70
0
 71
3
 72
124
 73
120
 74
0
 42
0.0000001
 43
0.0000001
 44
0.0000000001
 40
0.0
 40
0.0
 40
0.0
 40
0.0
 40
0.0000028841
 40
0.0000064492
 40
0.000011429
 40
0.0000256306
 40
0.0000454847
 40
0.0000709869
 40
0.0001021333
 40
0.0001813411
 40
0.0002830744
 40
0.0004072996
 40
0.0005539829
 40
0.0007230906
 40
0.000914589
 40
0.0011284445
 40
0.0016230877
 40
0.0022067224
 40
0.0028790421
 40
0.0036397401
 40
0.00448851
 40
0.0054250306
 40
0.0064488156
 40
0.0087558188
 40
0.0114047914
 40
0.0143904238
 40
0.0177061168
 40
0.021345098
 40
0.0253004952
 40
0.0295653465
 40
0.0341325971
 40
0.044142326
 40
0.0552639241
 40
0.0674318406
 40
0.0805820989
 40
0.0946519623
 40
0.1095782783
 40
0.1253013237
 40
0.1417657813
 40
0.1589198736
 40
0.1767134748
 40
0.1950976598
 40
0.2140294302
 40
0.2334688016
 40
0.2533731799
 40
0.2737022327
 40
0.2944179772
 40
0.3049089638
 40
0.315481865
 40
0.3368496686
 40
0.3584782954
 40
0.3803252019
 40
0.3913164228
 40
0.402344241
 40
0.4244849298
 40
0.4355877445
 40
0.4467040837
 40
0.4689541582
 40
0.4800790149
 40
0.4911964474
 40
0.5023020158
 40
0.513391157
 40
0.5355034836
 40
0.5575051551
 40
0.579370174
 40
0.6010746595
 40
0.6225976886
 40
0.6439186955
 40
0.6650177363
 40
0.6858743408
 40
0.7064670509
 40
0.7267726095
 40
0.7467658842
 40
0.7664185045
 40
0.7856994763
 40
0.8045731387
 40
0.8230003116
 40
0.8409356587
 40
0.8583292666
 40
0.8751233751
 40
0.8912543986
 40
0.9066500116
 40
0.9212297364
 40
0.9349042297
 40
0.9475764667
 40
0.9535042857
 40
0.9591413263
 40
0.964473539
 40
0.9694868416
 40
0.9741671353
 40
0.9785002264
 40
0.9824718362
 40
0.9860680654
 40
0.9892762375
 40
0.9907309196
 40
0.992084053
 40
0.9933343559
 40
0.9944805555
 40
0.9955213787
 40
0.9964556017
 40
0.9972823156
 40
0.9980007347
 40
0.9986100735
 40
0.9988735923
 40
0.9991095511
 40
0.9993178944
 40
0.9994985855
 40
0.9996515882
 40
0.999776866
 40
0.9998290966
 40
0.9998743824
 40
0.9999127188
 40
0.9999441012
 40
0.9999685251
 40
0.9999859858
 40
0.9999921037
 40
0.999996479
 40
0.9999991113
 40
1.0
 40
1.0
 40
1.0
 40
1.0
 10
13.212759385
 20
8.6407271828
 30
0.0
 10
13.212760162
 20
8.6407290392
 30
0.0
 10
13.2127634775
 20
8.6407322971
 30
0.0
 10
13.2127678923
 20
8.6407388928
 30
0.0
 10
13.2127775272
 20
8.6407515406
 30
0.0
 10
13.2127936137
 20
8.6407734962
 30
0.0
 10
13.2128184465
 20
8.6408068297
 30
0.0
 10
13.2128502438
 20
8.6408497018
 30
0.0
 10
13.2129067842
 20
8.6409257915
 30
0.0
 10
13.2129950569
 20
8.6410445665
 30
0.0
 10
13.2131221359
 20
8.6412154219
 30
0.0
 10
13.2132773662
 20
8.6414240148
 30
0.0
 10
13.2134607302
 20
8.6416702717
 30
0.0
 10
13.2136722016
 20
8.6419541236
 30
0.0
 10
13.2139117573
 20
8.6422755001
 30
0.0
 10
13.2142871909
 20
8.6427788994
 30
0.0
 10
13.2148264939
 20
8.643501418
 30
0.0
 10
13.2155572402
 20
8.6444802257
 30
0.0
 10
13.2163988532
 20
8.6456079353
 30
0.0
 10
13.2173506778
 20
8.6468842346
 30
0.0
 10
13.2184120491
 20
8.6483088061
 30
0.0
 10
13.2195822299
 20
8.6498812291
 30
0.0
 10
13.2213583565
 20
8.6522710456
 30
0.0
 10
13.2238435438
 20
8.6556226266
 30
0.0
 10
13.2271368928
 20
8.660079115
 30
0.0
 10
13.2308397347
 20
8.6651081333
 30
0.0
 10
13.2349416121
 20
8.6707011678
 30
0.0
 10
13.2394316574
 20
8.6768486407
 30
0.0
 10
13.2442975245
 20
8.6835417243
 30
0.0
 10
13.2495256179
 20
8.6907722242
 30
0.0
 10
13.2571985626
 20
8.7014479874
 30
0.0
 10
13.267594434
 20
8.7160585065
 30
0.0
 10
13.280933526
 20
8.7350831744
 30
0.0
 10
13.2953634756
 20
8.7560184304
 30
0.0
 10
13.3107507672
 20
8.7787910746
 30
0.0
 10
13.3269556596
 20
8.8033323426
 30
0.0
 10
13.343842026
 20
8.8295724994
 30
0.0
 10
13.3612662544
 20
8.8574503645
 30
0.0
 10
13.3790800923
 20
8.8869137757
 30
0.0
 10
13.3971260451
 20
8.9179198146
 30
0.0
 10
13.4152451972
 20
8.950426206
 30
0.0
 10
13.4332840891
 20
8.9843890601
 30
0.0
 10
13.4510611528
 20
9.0197806854
 30
0.0
 10
13.4683858535
 20
9.0565728755
 30
0.0
 10
13.4850796468
 20
9.0947234574
 30
0.0
 10
13.5009449741
 20
9.1341885986
 30
0.0
 10
13.513249005
 20
9.1679860995
 30
0.0
 10
13.5224810334
 20
9.1956393936
 30
0.0
 10
13.5313298378
 20
9.2238948026
 30
0.0
 10
13.541470434
 20
9.2598823486
 30
0.0
 10
13.5519724807
 20
9.3039048184
 30
0.0
 10
13.5591834127
 20
9.3412328737
 30
0.0
 10
13.5639894858
 20
9.3714633461
 30
0.0
 10
13.568145894
 20
9.4019966782
 30
0.0
 10
13.5712802487
 20
9.4327405276
 30
0.0
 10
13.5733737071
 20
9.4636243112
 30
0.0
 10
13.5747718798
 20
9.4946238793
 30
0.0
 10
13.5751124751
 20
9.5256784591
 30
0.0
 10
13.5744428717
 20
9.5567179265
 30
0.0
 10
13.5734473174
 20
9.5799672544
 30
0.0
 10
13.571969314
 20
9.6031657819
 30
0.0
 10
13.569371181
 20
9.633973919
 30
0.0
 10
13.5649839763
 20
9.672252414
 30
0.0
 10
13.558046321
 20
9.7177737946
 30
0.0
 10
13.5495943651
 20
9.7627479714
 30
0.0
 10
13.5397804577
 20
9.8071012405
 30
0.0
 10
13.5287654146
 20
9.8507789661
 30
0.0
 10
13.5166999312
 20
9.8937385516
 30
0.0
 10
13.5037276823
 20
9.9359459433
 30
0.0
 10
13.4899814307
 20
9.9773717801
 30
0.0
 10
13.4755891975
 20
10.0179900799
 30
0.0
 10
13.460666985
 20
10.0577734083
 30
0.0
 10
13.4453278356
 20
10.0966931879
 30
0.0
 10
13.4296755195
 20
10.1347157201
 30
0.0
 10
13.4138127056
 20
10.1718024106
 30
0.0
 10
13.3978364487
 20
10.2079070258
 30
0.0
 10
13.3818446192
 20
10.242975145
 30
0.0
 10
13.3659330121
 20
10.2769424939
 30
0.0
 10
13.3502006301
 20
10.309733632
 30
0.0
 10
13.3347473438
 20
10.3412608034
 30
0.0
 10
13.3196783379
 20
10.3714225735
 30
0.0
 10
13.3051034345
 20
10.4001030727
 30
0.0
 10
13.2911385553
 20
10.4271701747
 30
0.0
 10
13.2779042565
 20
10.4524753886
 30
0.0
 10
13.2673707047
 20
10.4723799967
 30
0.0
 10
13.2594116163
 20
10.4873017263
 30
0.0
 10
13.2538417199
 20
10.4976932094
 30
0.0
 10
13.2485545101
 20
10.50751219
 30
0.0
 10
13.2435676534
 20
10.516734672
 30
0.0
 10
13.2388989932
 20
10.5253366577
 30
0.0
 10
13.2345657962
 20
10.5332936971
 30
0.0
 10
13.2305846681
 20
10.5405811487
 30
0.0
 10
13.2269718176
 20
10.5471753688
 30
0.0
 10
13.224197339
 20
10.5522263895
 30
0.0
 10
13.2221738321
 20
10.5559041924
 30
0.0
 10
13.2208078627
 20
10.558384524
 30
0.0
 10
13.2195448327
 20
10.5606758164
 30
0.0
 10
13.2183862278
 20
10.5627758386
 30
0.0
 10
13.2173335085
 20
10.5646823919
 30
0.0
 10
13.2163880175
 20
10.5663935026
 30
0.0
 10
13.2155509015
 20
10.5679074778
 30
0.0
 10
13.2148231533
 20
10.5692228888
 30
0.0
 10
13.2142854531
 20
10.5701943359
 30
0.0
 10
13.2139107184
 20
10.5708712159
 30
0.0
 10
13.213671496
 20
10.5713033028
 30
0.0
 10
13.2134602643
 20
10.5716848263
 30
0.0
 10
13.2132770676
 20
10.5720157086
 30
0.0
 10
13.2131219456
 20
10.5722958844
 30
0.0
 10
13.2130102412
 20
10.5724976431
 30
0.0
 10
13.2129349463
 20
10.5726336486
 30
0.0
 10
13.2128890327
 20
10.5727165802
 30
0.0
 10
13.2128501758
 20
10.5727867893
 30
0.0
 10
13.2128183461
 20
10.5728442551
 30
0.0
 10
13.2127936401
 20
10.5728890028
 30
0.0
 10
13.2127773271
 20
10.5729182748
 30
0.0
 10
13.2127680222
 20
10.5729353931
 30
0.0
 10
13.2127633742
 20
10.5729433294
 30
0.0
 10
13.2127611003
 20
10.5729482951
 30
0.0
 10
13.2127595117
 20
10.5729503001
 30
0.0
 10
13.212759385
 20
10.5729509071
 30
0.0
  0
SPLINE
  5
29C
100
AcDbEntity
  8
0
100
AcDbSpline
 62
7
  6
CONTINUOUS
 70
0
 71
3
 72
14
 73
10
 74
0
 42
0.0000001
 43
0.0000001
 44
0.0000000001
 40
0.0
 40
0.0
 40
0.0
 40
0.0
 40
0.278045273
 40
0.408799034
 40
0.5343270319
 40
0.6552368307
 40
0.7723844806
 40
0.8869080632
 40
1.0
 40
1.0
 40
1.0
 40
1.0
 10
15.1868373308
 20
12.809381948
 30
0.0
 10
15.186740277
 20
12.81096464
 30
0.0
 10
15.1863958371
 20
12.8132906287
 30
0.0
 10
15.1854690834
 20
12.8161987418
 30
0.0
 10
15.1845825226
 20
12.8181645308
 30
0.0
 10
15.1834988267
 20
12.8199389739
 30
0.0
 10
15.1822268008
 20
12.8215046179
 30
0.0
 10
15.1807788984
 20
12.8228444027
 30
0.0
 10
15.1797027562
 20
12.8235802656
 30
0.0
 10
15.1791447344
 20
12.8239036462
 30
0.0
  0
SPLINE
  5
29D
100
AcDbEntity
  8
0
100
AcDbSpline
 62
7
  6
CONTINUOUS
 70
0
 71
3
 72
21
 73
17
 74
0
 42
0.0000001
 43
0.0000001
 44
0.0000000001
 40
0.0
 40
0.0
 40
0.0
 40
0.0
 40
0.0523732526
 40
0.1065847212
 40
0.1625023872
 40
0.2200201699
 40
0.2790450011
 40
0.3394887387
 40
0.4012651016
 40
0.4642862117
 40
0.5936623832
 40
0.7267781608
 40
0.7944348181
 40
0.8626267362
 40
0.9312037924
 40
1.0
 40
1.0
 40
1.0
 40
1.0
 10
15.1868373308
 20
12.809381948
 30
0.0
 10
15.1747820075
 20
12.8162022647
 30
0.0
 10
15.1500527396
 20
12.8297397738
 30
0.0
 10
15.1117864963
 20
12.8493133792
 30
0.0
 10
15.0717408781
 20
12.8683573581
 30
0.0
 10
15.0299787386
 20
12.8867095124
 30
0.0
 10
14.9865675527
 20
12.9042318178
 30
0.0
 10
14.941575936
 20
12.9207868948
 30
0.0
 10
14.8950785843
 20
12.9362418983
 30
0.0
 10
14.8306306804
 20
12.9553817506
 30
0.0
 10
14.7469302983
 20
12.9757959902
 30
0.0
 10
14.6608378974
 20
12.9907669627
 30
0.0
 10
14.5902162749
 20
12.9993667378
 30
0.0
 10
14.5363447715
 20
13.0040518091
 30
0.0
 10
14.4820435458
 20
13.0068849507
 30
0.0
 10
14.4457098914
 20
13.0075169718
 30
0.0
 10
14.427515687
 20
13.0075169872
 30
0.0
  0
SPLINE
  5
29E
100
AcDbEntity
  8
0
100
AcDbSpline
 62
7
  6
CONTINUOUS
 70
0
 71
3
 72
49
 73
45
 74
0
 42
0.0000001
 43
0.0000001
 44
0.0000000001
 40
0.0
 40
0.0
 40
0.0
 40
0.0
 40
0.0000036818
 40
0.0000147162
 40
0.0000331037
 40
0.0000588446
 40
0.0001323886
 40
0.0002353514
 40
0.0003677363
 40
0.0005295468
 40
0.0007207861
 40
0.0009414575
 40
0.0014711101
 40
0.0021185312
 40
0.0028837477
 40
0.0037667861
 40
0.0047676732
 40
0.005886436
 40
0.0084776956
 40
0.0115407814
 40
0.0150760439
 40
0.0190840801
 40
0.023565517
 40
0.0285209863
 40
0.0339511242
 40
0.039856572
 40
0.046237989
 40
0.060432298
 40
0.0765420507
 40
0.0945756059
 40
0.1145418647
 40
0.1364512127
 40
0.1603147064
 40
0.1861438525
 40
0.2139508544
 40
0.2437486521
 40
0.3093697387
 40
0.3831158667
 40
0.4650894516
 40
0.5553773795
 40
0.6540388992
 40
0.7610864469
 40
0.8764647422
 40
1.0
 40
1.0
 40
1.0
 40
1.0
 10
15.390505715
 20
12.7283571168
 30
0.0
 10
15.3905054621
 20
12.7283570226
 30
0.0
 10
15.3905043923
 20
12.7283576653
 30
0.0
 10
15.3905020584
 20
12.7283578741
 30
0.0
 10
15.3904981209
 20
12.7283590524
 30
0.0
 10
15.3904897555
 20
12.7283609901
 30
0.0
 10
15.3904753597
 20
12.7283646384
 30
0.0
 10
15.3904533854
 20
12.7283700228
 30
0.0
 10
15.3904251285
 20
12.7283770278
 30
0.0
 10
15.390390594
 20
12.7283855673
 30
0.0
 10
15.3903497799
 20
12.7283956765
 30
0.0
 10
15.3902828007
 20
12.7284122738
 30
0.0
 10
15.3901833767
 20
12.72843694
 30
0.0
 10
15.3900452295
 20
12.7284712595
 30
0.0
 10
15.3898819604
 20
12.7285118762
 30
0.0
 10
15.3896935678
 20
12.7285588071
 30
0.0
 10
15.3894800501
 20
12.72861207
 30
0.0
 10
15.3891450895
 20
12.7286957416
 30
0.0
 10
15.3886635613
 20
12.7288162851
 30
0.0
 10
15.3880103355
 20
12.7289802402
 30
0.0
 10
15.3872565379
 20
12.7291700179
 30
0.0
 10
15.3864021618
 20
12.7293860622
 30
0.0
 10
15.3854471712
 20
12.7296287799
 30
0.0
 10
15.3843915318
 20
12.7298985943
 30
0.0
 10
15.3832352083
 20
12.7301959226
 30
0.0
 10
15.3819781669
 20
12.7305211935
 30
0.0
 10
15.380100058
 20
12.731010296
 30
0.0
 10
15.377500073
 20
12.7316949135
 30
0.0
 10
15.3740780926
 20
12.7326113693
 30
0.0
 10
15.3702523003
 20
12.7336550374
 30
0.0
 10
15.366022276
 20
12.7348317308
 30
0.0
 10
15.361388069
 20
12.7361494555
 30
0.0
 10
15.3563496096
 20
12.7376161541
 30
0.0
 10
15.3509067531
 20
12.7392396724
 30
0.0
 10
15.3450599709
 20
12.7410300543
 30
0.0
 10
15.3364456972
 20
12.7437418999
 30
0.0
 10
15.3246680892
 20
12.7476161225
 30
0.0
 10
15.3093565322
 20
12.7529762975
 30
0.0
 10
15.2924679041
 20
12.7592918971
 30
0.0
 10
15.2740359082
 20
12.7666795026
 30
0.0
 10
15.2541112868
 20
12.775264882
 30
0.0
 10
15.232767579
 20
12.7851822703
 30
0.0
 10
15.2101054617
 20
12.7965616778
 30
0.0
 10
15.1947173483
 20
12.8049239463
 30
0.0
 10
15.1868373308
 20
12.809381948
 30
0.0
  0
SPLINE
  5
29F
100
AcDbEntity
  8
0
100
AcDbSpline
 62
7
  6
CONTINUOUS
 70
0
 71
3
 72
128
 73
124
 74
0
 42
0.0000001
 43
0.0000001
 44
0.0000000001
 40
0.0
 40
0.0
 40
0.0
 40
0.0
 40
0.0000006997
 40
0.0000027582
 40
0.0000061751
 40
0.0000109501
 40
0.0000245725
 40
0.0000436227
 40
0.0000680976
 40
0.0000979943
 40
0.0001333097
 40
0.000174041
 40
0.0002717391
 40
0.000391065
 40
0.0005319949
 40
0.0006945053
 40
0.0008785723
 40
0.0010841725
 40
0.0015598752
 40
0.0021213669
 40
0.0027683473
 40
0.003500514
 40
0.0043175647
 40
0.0052191967
 40
0.0062050665
 40
0.0084273652
 40
0.0109799013
 40
0.0138580047
 40
0.0170562596
 40
0.0205687728
 40
0.0243895956
 40
0.0285123538
 40
0.0329304872
 40
0.0376373432
 40
0.0426256475
 40
0.0534166828
 40
0.0652450452
 40
0.0780534916
 40
0.0917836214
 40
0.1063789456
 40
0.1217869237
 40
0.1379567452
 40
0.154840122
 40
0.1723929043
 40
0.1905738111
 40
0.2093443409
 40
0.2286677291
 40
0.2485096551
 40
0.258614989
 40
0.2688375114
 40
0.2896147935
 40
0.3108062422
 40
0.3215458986
 40
0.3323737092
 40
0.3432840285
 40
0.3542706166
 40
0.3653264294
 40
0.3764449283
 40
0.3876185168
 40
0.3988395073
 40
0.4100999487
 40
0.4213918687
 40
0.4440359677
 40
0.455375094
 40
0.4667153311
 40
0.4780494377
 40
0.4893713315
 40
0.5006750449
 40
0.5119553355
 40
0.5232078403
 40
0.534427623
 40
0.5567537546
 40
0.5789084383
 40
0.6008701111
 40
0.622618977
 40
0.6654032443
 40
0.7071213492
 40
0.7476067983
 40
0.7866534812
 40
0.8055584569
 40
0.8239996844
 40
0.8419334107
 40
0.8593088048
 40
0.8760699997
 40
0.8921527175
 40
0.907486461
 40
0.9219913359
 40
0.9355802824
 40
0.9481585044
 40
0.9540366422
 40
0.9596231606
 40
0.9649045483
 40
0.9698671893
 40
0.9744974454
 40
0.9787816287
 40
0.9827060787
 40
0.9862579136
 40
0.9894249627
 40
0.9908604585
 40
0.9921955098
 40
0.9934288771
 40
0.9945593214
 40
0.9955856049
 40
0.9965066473
 40
0.9973216429
 40
0.9980298131
 40
0.9986303795
 40
0.998890068
 40
0.9991225818
 40
0.9993278804
 40
0.9995059288
 40
0.999656692
 40
0.9997801347
 40
0.9998316
 40
0.999876222
 40
0.9999139964
 40
0.9999449187
 40
0.9999689846
 40
0.9999861897
 40
0.9999922181
 40
0.9999965296
 40
0.9999991238
 40
1.0
 40
1.0
 40
1.0
 40
1.0
 10
13.1177087879
 20
8.7581048949
 30
0.0
 10
13.1177091874
 20
8.7581050931
 30
0.0
 10
13.1177101827
 20
8.758106662
 30
0.0
 10
13.11771308
 20
8.7581092515
 30
0.0
 10
13.1177174336
 20
8.7581141735
 30
0.0
 10
13.1177270038
 20
8.7581242266
 30
0.0
 10
13.1177432499
 20
8.7581417295
 30
0.0
 10
13.1177681323
 20
8.7581683109
 30
0.0
 10
13.1178000445
 20
8.7582025327
 30
0.0
 10
13.1178390263
 20
8.7582443289
 30
0.0
 10
13.1178850519
 20
8.7582937236
 30
0.0
 10
13.1179605097
 20
8.7583747506
 30
0.0
 10
13.1180723946
 20
8.7584950116
 30
0.0
 10
13.1182276779
 20
8.7586621105
 30
0.0
 10
13.1184109664
 20
8.7588595681
 30
0.0
 10
13.1186221973
 20
8.7590873803
 30
0.0
 10
13.1188613075
 20
8.7593455442
 30
0.0
 10
13.119235821
 20
8.7597503398
 30
0.0
 10
13.1197731678
 20
8.7603321538
 30
0.0
 10
13.1205006305
 20
8.7611212673
 30
0.0
 10
13.1213382515
 20
8.7620311161
 30
0.0
 10
13.1222856069
 20
8.7630613057
 30
0.0
 10
13.1233422831
 20
8.7642114306
 30
0.0
 10
13.1245078461
 20
8.7654810683
 30
0.0
 10
13.1262783632
 20
8.7674109943
 30
0.0
 10
13.1287580233
 20
8.7701180715
 30
0.0
 10
13.1320471745
 20
8.7737189322
 30
0.0
 10
13.1357491213
 20
8.7777850743
 30
0.0
 10
13.139854038
 20
8.7823116486
 30
0.0
 10
13.1443512796
 20
8.7872934247
 30
0.0
 10
13.1492298418
 20
8.7927246462
 30
0.0
 10
13.1544783864
 20
8.7985992572
 30
0.0
 10
13.1600852261
 20
8.8049108797
 30
0.0
 10
13.1660384069
 20
8.8116525784
 30
0.0
 10
13.1746467109
 20
8.821467599
 30
0.0
 10
13.1861701221
 20
8.8347622512
 30
0.0
 10
13.200808049
 20
8.8519513018
 30
0.0
 10
13.2164839795
 20
8.8707152398
 30
0.0
 10
13.2330638541
 20
8.8910197886
 30
0.0
 10
13.2504125664
 20
8.9128325326
 30
0.0
 10
13.2684023421
 20
8.9361185153
 30
0.0
 10
13.2868877229
 20
8.9608596333
 30
0.0
 10
13.305714399
 20
8.9870457828
 30
0.0
 10
13.3247262876
 20
9.0146692594
 30
0.0
 10
13.3437570846
 20
9.0437294328
 30
0.0
 10
13.3626250356
 20
9.0742320715
 30
0.0
 10
13.3811253999
 20
9.1061895791
 30
0.0
 10
13.3959612073
 20
9.1338698364
 30
0.0
 10
13.4074396209
 20
9.1567524675
 30
0.0
 10
13.4187360635
 20
9.1803879546
 30
0.0
 10
13.4321604212
 20
9.2108294796
 30
0.0
 10
13.4443280905
 20
9.2421518756
 30
0.0
 10
13.4532569532
 20
9.2678988348
 30
0.0
 10
13.4595400485
 20
9.2876215657
 30
0.0
 10
13.4653476296
 20
9.3076534855
 30
0.0
 10
13.4706460688
 20
9.3279764769
 30
0.0
 10
13.4753988561
 20
9.3485703928
 30
0.0
 10
13.4795700088
 20
9.369411624
 30
0.0
 10
13.4831440791
 20
9.3904703389
 30
0.0
 10
13.4861039034
 20
9.4117154571
 30
0.0
 10
13.4884364806
 20
9.4331147469
 30
0.0
 10
13.4906942344
 20
9.4618315797
 30
0.0
 10
13.4916513101
 20
9.4906889066
 30
0.0
 10
13.4913146069
 20
9.5195730983
 30
0.0
 10
13.4904352719
 20
9.5412340332
 30
0.0
 10
13.488947489
 20
9.5628502576
 30
0.0
 10
13.4868699039
 20
9.5843943445
 30
0.0
 10
13.4842194069
 20
9.6058407784
 30
0.0
 10
13.4810185066
 20
9.6271670565
 30
0.0
 10
13.4772987571
 20
9.6483545517
 30
0.0
 10
13.4716961067
 20
9.6763501272
 30
0.0
 10
13.4635499182
 20
9.7109115087
 30
0.0
 10
13.4521365801
 20
9.7516966272
 30
0.0
 10
13.4393238104
 20
9.7916763246
 30
0.0
 10
13.4207496882
 20
9.8435815382
 30
0.0
 10
13.395092239
 20
9.9062822862
 30
0.0
 10
13.3614084204
 20
9.9784851343
 30
0.0
 10
13.32605164
 20
10.0472073802
 30
0.0
 10
13.2956206046
 20
10.1020723331
 30
0.0
 10
13.2711924704
 20
10.1441834006
 30
0.0
 10
13.2531665062
 20
10.1744510502
 30
0.0
 10
13.2353358538
 20
10.2036981033
 30
0.0
 10
13.2177980011
 20
10.2318679422
 30
0.0
 10
13.2006552698
 20
10.2588928095
 30
0.0
 10
13.1840123854
 20
10.2846928454
 30
0.0
 10
13.1679809045
 20
10.3091753056
 30
0.0
 10
13.1526785878
 20
10.3322349617
 30
0.0
 10
13.1382296462
 20
10.3537529405
 30
0.0
 10
13.1267624891
 20
10.3706508713
 30
0.0
 10
13.1181176549
 20
10.3833008387
 30
0.0
 10
13.1120793548
 20
10.3920999205
 30
0.0
 10
13.1063559339
 20
10.4004074872
 30
0.0
 10
13.1009647329
 20
10.4082039004
 30
0.0
 10
13.0959232082
 20
10.4154694772
 30
0.0
 10
13.0912489906
 20
10.422184634
 30
0.0
 10
13.0869595374
 20
10.428330267
 30
0.0
 10
13.0830712254
 20
10.4338877078
 30
0.0
 10
13.0800876947
 20
10.4381423807
 30
0.0
 10
13.0779129867
 20
10.4412388287
 30
0.0
 10
13.0764455901
 20
10.443326218
 30
0.0
 10
13.075089211
 20
10.4452540232
 30
0.0
 10
13.0738454166
 20
10.447020451
 30
0.0
 10
13.0727157244
 20
10.4486237972
 30
0.0
 10
13.0717014597
 20
10.4500625603
 30
0.0
 10
13.0708036786
 20
10.4513354071
 30
0.0
 10
13.0700233381
 20
10.4524411697
 30
0.0
 10
13.06944684
 20
10.4532576606
 30
0.0
 10
13.0690450697
 20
10.4538264589
 30
0.0
 10
13.0687885817
 20
10.4541894855
 30
0.0
 10
13.0685620757
 20
10.4545099935
 30
0.0
 10
13.0683656018
 20
10.4547879321
 30
0.0
 10
13.0681992076
 20
10.4550232526
 30
0.0
 10
13.0680793629
 20
10.4551926922
 30
0.0
 10
13.0679985616
 20
10.4553068973
 30
0.0
 10
13.0679492878
 20
10.4553765334
 30
0.0
 10
13.0679075628
 20
10.4554354716
 30
0.0
 10
13.0678734199
 20
10.4554837338
 30
0.0
 10
13.0678467925
 20
10.4555212391
 30
0.0
 10
13.0678294445
 20
10.4555459144
 30
0.0
 10
13.0678191854
 20
10.4555601242
 30
0.0
 10
13.0678145886
 20
10.4555670255
 30
0.0
 10
13.0678114077
 20
10.455570749
 30
0.0
 10
13.0678104442
 20
10.4555728816
 30
0.0
 10
13.0678099821
 20
10.4555731951
 30
0.0
  0
SPLINE
  5
2A0
100
AcDbEntity
  8
0
100
AcDbSpline
 62
7
  6
CONTINUOUS
 70
0
 71
3
 72
52
 73
48
 74
0
 42
0.0000001
 43
0.0000001
 44
0.0000000001
 40
0.0
 40
0.0
 40
0.0
 40
0.0
 40
0.0000047454
 40
0.0000189789
 40
0.0000426985
 40
0.0000759021
 40
0.0001185875
 40
0.0001707525
 40
0.0003035133
 40
0.0004741674
 40
0.0006826979
 40
0.0009290878
 40
0.0012133203
 40
0.0015353783
 40
0.001895245
 40
0.0027283362
 40
0.0037124586
 40
0.0048474765
 40
0.0061332349
 40
0.0075694169
 40
0.009155626
 40
0.010891465
 40
0.0148104456
 40
0.0193231853
 40
0.0244263862
 40
0.030115622
 40
0.0363858781
 40
0.0432321414
 40
0.0506493565
 40
0.0586316717
 40
0.0762656001
 40
0.0960814943
 40
0.1180218269
 40
0.1420259341
 40
0.16803017
 40
0.1959684608
 40
0.225773436
 40
0.2573760798
 40
0.2907070602
 40
0.3622719133
 40
0.439903908
 40
0.5230329654
 40
0.6110785534
 40
0.7034429461
 40
0.7994996424
 40
0.8985878273
 40
1.0
 40
1.0
 40
1.0
 40
1.0
 10
13.5802587556
 20
13.6198705944
 30
0.0
 10
13.5802591512
 20
13.61987058
 30
0.0
 10
13.5802590423
 20
13.6198730147
 30
0.0
 10
13.5802608536
 20
13.6198754598
 30
0.0
 10
13.5802624898
 20
13.6198815722
 30
0.0
 10
13.5802654285
 20
13.6198891722
 30
0.0
 10
13.5802689453
 20
13.6198993269
 30
0.0
 10
13.5802753311
 20
13.6199171763
 30
0.0
 10
13.580285241
 20
13.619945156
 30
0.0
 10
13.5802995398
 20
13.6199853891
 30
0.0
 10
13.580316994
 20
13.6200345733
 30
0.0
 10
13.5803376157
 20
13.6200926827
 30
0.0
 10
13.5803613961
 20
13.620159722
 30
0.0
 10
13.5803883339
 20
13.6202356851
 30
0.0
 10
13.5804305621
 20
13.6203548063
 30
0.0
 10
13.5804912162
 20
13.6205259934
 30
0.0
 10
13.5805734184
 20
13.6207581489
 30
0.0
 10
13.5806681691
 20
13.6210259205
 30
0.0
 10
13.5807754385
 20
13.6213292651
 30
0.0
 10
13.5808951637
 20
13.621668128
 30
0.0
 10
13.5810272692
 20
13.6220424378
 30
0.0
 10
13.5812280851
 20
13.6226121365
 30
0.0
 10
13.581509532
 20
13.6234122715
 30
0.0
 10
13.5818831706
 20
13.6244777588
 30
0.0
 10
13.582304459
 20
13.6256830299
 30
0.0
 10
13.5827725165
 20
13.6270272651
 30
0.0
 10
13.5832863656
 20
13.6285095257
 30
0.0
 10
13.5838450188
 20
13.6301288187
 30
0.0
 10
13.5844474827
 20
13.6318840778
 30
0.0
 10
13.5853376083
 20
13.6344920529
 30
0.0
 10
13.5865512698
 20
13.6380824947
 30
0.0
 10
13.5881178025
 20
13.6427827355
 30
0.0
 10
13.5898271261
 20
13.6479954718
 30
0.0
 10
13.5916666703
 20
13.6537087102
 30
0.0
 10
13.5936228925
 20
13.6599099256
 30
0.0
 10
13.5956815059
 20
13.6665861226
 30
0.0
 10
13.597827741
 20
13.6737238468
 30
0.0
 10
13.600046023
 20
13.6813094544
 30
0.0
 10
13.6031532163
 20
13.6922643082
 30
0.0
 10
13.607112444
 20
13.7069682425
 30
0.0
 10
13.6117840759
 20
13.7257791227
 30
0.0
 10
13.6163461972
 20
13.7460291873
 30
0.0
 10
13.620662006
 20
13.7675885363
 30
0.0
 10
13.6245972427
 20
13.7903163992
 30
0.0
 10
13.628024294
 20
13.8140581541
 30
0.0
 10
13.6308266989
 20
13.8386417839
 30
0.0
 10
13.632199894
 20
13.855314723
 30
0.0
 10
13.6327584713
 20
13.8637561984
 30
0.0
  0
SPLINE
  5
2A1
100
AcDbEntity
  8
0
100
AcDbSpline
 62
7
  6
CONTINUOUS
 70
0
 71
3
 72
28
 73
24
 74
0
 42
0.0000001
 43
0.0000001
 44
0.0000000001
 40
0.0
 40
0.0
 40
0.0
 40
0.0
 40
0.2125798603
 40
0.3124371
 40
0.4072257744
 40
0.4964570211
 40
0.5796582024
 40
0.6563753741
 40
0.7261793223
 40
0.7887026497
 40
0.8435980417
 40
0.8905788499
 40
0.91101923
 40
0.929385886
 40
0.9456580026
 40
0.9598164813
 40
0.9718428454
 40
0.9817202092
 40
0.9894411306
 40
0.995010203
 40
0.9984541419
 40
0.9994220884
 40
1.0
 40
1.0
 40
1.0
 40
1.0
 10
14.427515687
 20
13.0075169872
 30
0.0
 10
14.427506399
 20
13.0088339845
 30
0.0
 10
14.4274900266
 20
13.0107696111
 30
0.0
 10
14.4274621522
 20
13.0132924092
 30
0.0
 10
14.4274394208
 20
13.015051013
 30
0.0
 10
14.4274145611
 20
13.0167063854
 30
0.0
 10
14.427387709
 20
13.0182497498
 30
0.0
 10
14.4273590307
 20
13.0196726983
 30
0.0
 10
14.4273286773
 20
13.0209674718
 30
0.0
 10
14.4272968621
 20
13.02212697
 30
0.0
 10
14.4272637547
 20
13.0231449672
 30
0.0
 10
14.4272341152
 20
13.0239022042
 30
0.0
 10
14.4272094091
 20
13.0244331274
 30
0.0
 10
14.4271915448
 20
13.0247739019
 30
0.0
 10
14.4271735146
 20
13.0250756907
 30
0.0
 10
14.4271553598
 20
13.0253381024
 30
0.0
 10
14.4271371264
 20
13.025560806
 30
0.0
 10
14.4271189105
 20
13.0257433993
 30
0.0
 10
14.4271007757
 20
13.0258859446
 30
0.0
 10
14.4270831766
 20
13.0259878539
 30
0.0
 10
14.4270671701
 20
13.0260483072
 30
0.0
 10
14.4270535181
 20
13.0260758173
 30
0.0
 10
14.4270448356
 20
13.0260822576
 30
0.0
 10
14.4270412552
 20
13.0260822576
 30
0.0
  0
ENDSEC
  0
SECTION
  2
OBJECTS
  0
DICTIONARY
  5
C
100
AcDbDictionary
280
0
281
1
  3
ACAD_GROUP
350
D
  3
ACAD_MLINESTYLE
350
17
  3
ACAD_LAYOUT
350
1A
  3
ACAD_PLOTSETTINGS
350
19
  3
ACAD_PLOTSTYLENAME
350
E
  0
DICTIONARY
  5
D
102
{ACAD_REACTORS
330
C
102
}
100
AcDbDictionary
280
0
281
1
  0
ACDBDICTIONARYWDFLT
  5
E
102
{ACAD_REACTORS
330
C
102
}
100
AcDbDictionary
281
1
  3
Normal
350
F
100
AcDbDictionaryWithDefault
340
F
  0
DICTIONARY
  5
17
102
{ACAD_REACTORS
330
C
102
}
100
AcDbDictionary
280
0
281
1
  3
Standard
350
18
  0
DICTIONARY
  5
19
102
{ACAD_REACTORS
330
C
102
}
100
AcDbDictionary
281
1
  0
DICTIONARY
  5
1A
102
{ACAD_REACTORS
330
C
102
}
100
AcDbDictionary
281
1
  3
Model
350
2A2
  3
Layout1
350
2A3
  0
ACDBPLACEHOLDER
  5
F
102
{ACAD_REACTORS
330
E
102
}
  0
MLINESTYLE
  5
18
102
{ACAD_REACTORS
330
17
102
}
100
AcDbMlineStyle
  2
STANDARD
 70
0
  3

 62
256
 51
90.0
 52
90.0
 71
2
 49
0.5
 62
256
  6
BYLAYER
 49
-0.5
 62
256
  6
BYLAYER
  0
LAYOUT
  5
2A2
102
{ACAD_REACTORS
330
1A
102
}
100
AcDbPlotSettings
  1

  2
none_device
  4
ANSI_C_(22.00_x_17.00_Inches)
  6

 40
0.0
 41
0.0
 42
0.0
 43
0.0
 44
558.8
 45
431.8
 46
0.0
 47
0.0
 48
0.0
 49
0.0
140
0.0
141
0.0
142
1.0
143
1.0
 70
1024
 72
0
 73
0
 74
0
  7

 75
0
147
1.0
148
0.0
149
0.0
100
AcDbLayout
  1
Model
 70
0
 71
0
 10
0.0
 20
0.0
 11
22.0
 21
17.0
 12
0.0
 22
0.0
 32
0.0
 14
0.0
 24
0.0
 34
0.0
 15
0.0
 25
0.0
 35
0.0
146
0.0
 13
0.0
 23
0.0
 33
0.0
 16
1.0
 26
0.0
 36
0.0
 17
0.0
 27
1.0
 37
0.0
 76
0
330
202
345
0
346
0
  0
LAYOUT
  5
2A3
102
{ACAD_REACTORS
330
1A
102
}
100
AcDbPlotSettings
  1

  2
none_device
  4
ANSI_C_(22.00_x_17.00_Inches)
  6

 40
0.0
 41
0.0
 42
0.0
 43
0.0
 44
558.8
 45
431.8
 46
0.0
 47
0.0
 48
0.0
 49
0.0
140
0.0
141
0.0
142
1.0
143
1.0
 70
0
 72
0
 73
0
 74
0
  7

 75
0
147
1.0
148
0.0
149
0.0
100
AcDbLayout
  1
Layout1
 70
0
 71
1
 10
0.0
 20
0.0
 11
22.0
 21
17.0
 12
0.0
 22
0.0
 32
0.0
 14
0.0
 24
0.0
 34
0.0
 15
0.0
 25
0.0
 35
0.0
146
0.0
 13
0.0
 23
0.0
 33
0.0
 16
1.0
 26
0.0
 36
0.0
 17
0.0
 27
1.0
 37
0.0
 76
0
330
203
345
0
346
0
  0
ENDSEC
  0
EOF
