999
DXF file: E:\BT Custom\CADOUTPUT\_RIGHT.dxf
999
Pro/ENGINEER 2018400 by Parametric Technology Corporation
  0
SECTION
  2
HEADER
  9
$ACADVER
  1
AC1018
  9
$DWGCODEPAGE
  3
ANSI_1252
  9
$EXTMAX
 10
22.0
 20
17.0
 30
0.0
  9
$EXTMIN
 10
0.0
 20
0.0
 30
0.0
  9
$LIMMIN
 10
0.0
 20
0.0
  9
$LIMMAX
 10
22.0
 20
17.0
  9
$VIEWCTR
 10
11.0
 20
8.5
  9
$VIEWSIZE
 40
17.0
  9
$CLAYER
  8
0
  9
$LTSCALE
 40
1.21
  9
$CELTYPE
  6
BYLAYER
  9
$DIMSCALE
 40
1.0
  9
$DIMASZ
 40
0.1
  9
$DIMEXO
 40
0.0625
  9
$DIMDLI
 40
0.836
  9
$DIMEXE
 40
0.125
  9
$DIMCEN
 40
0.198
  9
$DIMLFAC
 40
1.0
  9
$DIMBLK
  1
_FILLED
  9
$DIMALT
 70
1
  9
$DIMALTD
 70
2
  9
$DIMALTTD
 70
2
  9
$DIMALTF
 40
25.4
  9
$DIMTXT
 40
0.08
  9
$DIMTOL
 70
1
  9
$DIMLIM
 70
0
  9
$DIMTFAC
 40
1.0
  9
$DIMTP
 40
0.001
  9
$DIMTM
 40
0.001
  9
$DIMGAP
 40
0.09
  9
$DIMDSEP
 70
46
  9
$AUNITS
 70
0
  9
$PDMODE
 70
3
  9
$PDSIZE
 40
0.06
  9
$HANDSEED
  5
384
  9
$TILEMODE
 70
1
  9
$MEASUREMENT
 70
0
  9
$INSUNITS
 70
1
  0
ENDSEC
  0
SECTION
  2
CLASSES
  0
CLASS
  1
ACDBDICTIONARYWDFLT
  2
AcDbDictionaryWithDefault
  3
AutoCAD 2000
 90
0
 91
1
280
0
281
0
  0
CLASS
  1
ACDBPLACEHOLDER
  2
AcDbPlaceHolder
  3
AutoCAD 2000
 90
0
 91
1
280
0
281
0
  0
CLASS
  1
LAYOUT
  2
AcDbLayout
  3
AutoCAD 2000
 90
0
 91
0
280
0
281
0
  0
ENDSEC
  0
SECTION
  2
TABLES
  0
TABLE
  2
VPORT
  5
8
100
AcDbSymbolTable
 70
2
  0
VPORT
  5
1F4
100
AcDbSymbolTableRecord
100
AcDbViewportTableRecord
  2
*ACTIVE
 70
0
 10
0.0
 20
0.0
 11
1.0
 21
1.0
 12
11.0
 22
8.5
 13
0.0
 23
0.0
 14
1.0
 24
1.0
 15
0.0
 25
0.0
 16
0.0
 26
0.0
 36
1.0
 17
0.0
 27
0.0
 37
0.0
 40
17.0
 41
1.2941176471
 42
50.0
 43
0.0
 44
0.0
 50
0.0
 51
0.0
 71
0
 72
100
 73
1
 74
1
 75
0
 76
0
 77
0
 78
0
  0
ENDTAB
  0
TABLE
  2
LTYPE
  5
5
100
AcDbSymbolTable
 70
6
  0
LTYPE
  5
14
100
AcDbSymbolTableRecord
100
AcDbLinetypeTableRecord
  2
BYBLOCK
 70
0
  3

 72
65
 73
0
 40
0.0
  0
LTYPE
  5
15
100
AcDbSymbolTableRecord
100
AcDbLinetypeTableRecord
  2
BYLAYER
 70
0
  3

 72
65
 73
0
 40
0.0
  0
LTYPE
  5
16
100
AcDbSymbolTableRecord
100
AcDbLinetypeTableRecord
  2
CONTINUOUS
 70
64
  3
Solid line
 72
65
 73
0
 40
0.0
  0
LTYPE
  5
1F5
100
AcDbSymbolTableRecord
100
AcDbLinetypeTableRecord
  2
CENTER
 70
64
  3
____ _ ____ _ ____ _ ____ _ ____ _ ____ _ ____
 72
65
 73
4
 40
0.6
 49
0.375
 74
0
 49
-0.075
 74
0
 49
0.075
 74
0
 49
-0.075
 74
0
  0
LTYPE
  5
1F6
100
AcDbSymbolTableRecord
100
AcDbLinetypeTableRecord
  2
HIDDEN
 70
64
  3
- - - - - - - - - - - - - - - - - - - -
 72
65
 73
2
 40
0.2
 49
0.1
 74
0
 49
-0.1
 74
0
  0
LTYPE
  5
1F7
100
AcDbSymbolTableRecord
100
AcDbLinetypeTableRecord
  2
PHANTOM
 70
64
  3
_____ _ _ _____ _ _ _____ _ _ _____
 72
65
 73
6
 40
0.8
 49
0.45
 74
0
 49
-0.05
 74
0
 49
0.1
 74
0
 49
-0.05
 74
0
 49
0.1
 74
0
 49
-0.05
 74
0
  0
LTYPE
  5
1F8
100
AcDbSymbolTableRecord
100
AcDbLinetypeTableRecord
  2
DOT
 70
64
  3
. . . . . . . . . . . . . . . . . . . .
 72
65
 73
2
 40
0.2
 49
0.1
 74
0
 49
-0.1
 74
0
  0
LTYPE
  5
1F9
100
AcDbSymbolTableRecord
100
AcDbLinetypeTableRecord
  2
DASHED
 70
64
  3
- - - - - - - - - - - - - - - - - - - -
 72
65
 73
2
 40
0.2
 49
0.1
 74
0
 49
-0.1
 74
0
  0
ENDTAB
  0
TABLE
  2
LAYER
  5
2
100
AcDbSymbolTable
 70
36
  0
LAYER
  5
10
100
AcDbSymbolTableRecord
100
AcDbLayerTableRecord
  2
0
 70
0
 62
7
  6
CONTINUOUS
370
-3
390
F
  0
LAYER
  5
1FA
100
AcDbSymbolTableRecord
100
AcDbLayerTableRecord
  2
DEFAULT_1
 70
0
 62
7
  6
CENTER
370
-3
390
F
  0
LAYER
  5
1FB
100
AcDbSymbolTableRecord
100
AcDbLayerTableRecord
  2
DEFAULT_2
 70
0
 62
8
  6
HIDDEN
370
-3
390
F
  0
LAYER
  5
1FC
100
AcDbSymbolTableRecord
100
AcDbLayerTableRecord
  2
DEFAULT_3
 70
0
 62
7
  6
PHANTOM
370
-3
390
F
  0
LAYER
  5
1FD
100
AcDbSymbolTableRecord
100
AcDbLayerTableRecord
  2
ALL_FEATURES
 70
0
 62
7
  6
CONTINUOUS
370
-3
390
F
  0
LAYER
  5
1FE
100
AcDbSymbolTableRecord
100
AcDbLayerTableRecord
  2
AXES_FEATURES
 70
0
 62
7
  6
CONTINUOUS
370
-3
390
F
  0
LAYER
  5
1FF
100
AcDbSymbolTableRecord
100
AcDbLayerTableRecord
  2
DIMENSIONS
 70
0
 62
7
  6
CONTINUOUS
370
-3
390
F
  0
ENDTAB
  0
TABLE
  2
STYLE
  5
3
100
AcDbSymbolTable
 70
1
  0
STYLE
  5
11
100
AcDbSymbolTableRecord
100
AcDbTextStyleTableRecord
  2
STANDARD
 70
0
 40
0.0
 41
0.8
 50
0.0
 71
0
 42
0.2
  3
txt
  4

  0
STYLE
  5
200
100
AcDbSymbolTableRecord
100
AcDbTextStyleTableRecord
  2
TEXTSTYLE_1
 70
0
 40
0.0
 41
0.8
 50
0.0
 71
0
 42
0.2
  3
gdt
  4

  0
ENDTAB
  0
TABLE
  2
VIEW
  5
6
100
AcDbSymbolTable
 70
0
  0
ENDTAB
  0
TABLE
  2
UCS
  5
7
100
AcDbSymbolTable
 70
0
  0
ENDTAB
  0
TABLE
  2
APPID
  5
9
100
AcDbSymbolTable
 70
1
  0
APPID
  5
201
100
AcDbSymbolTableRecord
100
AcDbRegAppTableRecord
  2
ACAD
 70
0
  0
ENDTAB
  0
TABLE
  2
BLOCK_RECORD
  5
1
100
AcDbSymbolTable
 70
0
  0
BLOCK_RECORD
  5
202
100
AcDbSymbolTableRecord
100
AcDbBlockTableRecord
  2
*Model_Space
  0
BLOCK_RECORD
  5
203
100
AcDbSymbolTableRecord
100
AcDbBlockTableRecord
  2
*Paper_Space
  0
BLOCK_RECORD
  5
204
100
AcDbSymbolTableRecord
100
AcDbBlockTableRecord
  2
_FILLED
  0
ENDTAB
  0
TABLE
  2
DIMSTYLE
  5
A
100
AcDbSymbolTable
 70
1
100
AcDbDimStyleTable
 71
0
  0
DIMSTYLE
105
205
100
AcDbSymbolTableRecord
100
AcDbDimStyleTableRecord
  2
STANDARD
 70
0
  3

  4

 40
1.0
 41
0.1
 42
0.0625
 43
0.38
 44
0.125
 45
0.0
 46
0.0
 47
0.001
 48
0.001
140
0.08
141
0.09
142
0.0
143
25.4
144
1.0
145
0.0
146
1.0
147
0.09
 71
1.0
 72
0.0
 73
1
 74
1
 75
0
 76
0
 77
0
 78
4
 79
1
170
1
171
2
172
0
173
0
174
0
175
0
176
0
177
0
178
0
270
2
179
3
271
3
272
3
273
2
274
2
275
0
280
0
281
0
282
0
283
1
284
4
285
0
286
0
287
3
288
0
340
11
278
46
341
204
342
204
343
204
344
204
  0
ENDTAB
  0
ENDSEC
  0
SECTION
  2
BLOCKS
  0
BLOCK
  5
20
100
AcDbEntity
  8
0
100
AcDbBlockBegin
  2
*Model_Space
 70
0
 10
0.0
 20
0.0
 30
0.0
  3
*Model_Space
  1

  0
ENDBLK
  5
21
100
AcDbEntity
  8
0
100
AcDbBlockEnd
  0
BLOCK
  5
1C
100
AcDbEntity
  8
0
100
AcDbBlockBegin
  2
*Paper_Space
 70
0
 10
0.0
 20
0.0
 30
0.0
  3
*Paper_Space
  1

  0
ENDBLK
  5
1D
100
AcDbEntity
  8
0
100
AcDbBlockEnd
  0
BLOCK
  5
206
100
AcDbEntity
  8
0
100
AcDbBlockBegin
  2
_FILLED
 70
64
 10
0.0
 20
0.0
  3
_FILLED
  1

  0
SOLID
  5
207
100
AcDbEntity
  8
0
  6
BYBLOCK
 62
0
100
AcDbTrace
 10
0.0
 20
0.0
 11
-1.0
 21
0.2
 12
-1.0
 22
-0.2
 13
-1.0
 23
-0.2
  0
ENDBLK
  5
208
100
AcDbEntity
  8
0
  6
BYBLOCK
 62
0
100
AcDbBlockEnd
  0
ENDSEC
  0
SECTION
  2
ENTITIES
  0
LINE
  5
209
100
AcDbEntity
  8
0
100
AcDbLine
 62
7
  6
CONTINUOUS
 10
-2.8500165109
 20
13.0971708734
 11
-2.8500165109
 21
12.2971708734
  0
LINE
  5
20A
100
AcDbEntity
  8
0
100
AcDbLine
 62
7
  6
CONTINUOUS
 10
-2.7524215394
 20
13.1124914052
 11
-2.7524215394
 21
12.2818503416
  0
LINE
  5
20B
100
AcDbEntity
  8
0
100
AcDbLine
 62
7
  6
CONTINUOUS
 10
-2.7055165109
 20
12.0141708734
 11
-2.7055165109
 21
10.2161708734
  0
LINE
  5
20C
100
AcDbEntity
  8
0
100
AcDbLine
 62
7
  6
CONTINUOUS
 10
-2.6425165109
 20
12.2850086661
 11
-2.6425165109
 21
12.1161708734
  0
LINE
  5
20D
100
AcDbEntity
  8
0
100
AcDbLine
 62
7
  6
CONTINUOUS
 10
-2.3005165109
 20
12.285008841
 11
-2.3005165109
 21
12.1161708734
  0
LINE
  5
20E
100
AcDbEntity
  8
0
100
AcDbLine
 62
7
  6
CONTINUOUS
 10
-2.2375165109
 20
12.0141708734
 11
-2.2375165109
 21
10.2161708734
  0
LINE
  5
20F
100
AcDbEntity
  8
0
100
AcDbLine
 62
7
  6
CONTINUOUS
 10
-2.0300165109
 20
12.2274029432
 11
-2.0300165109
 21
13.1669388036
  0
LINE
  5
210
100
AcDbEntity
  8
0
100
AcDbLine
 62
7
  6
CONTINUOUS
 10
-1.9700165109
 20
12.2274029432
 11
-1.9700165109
 21
13.1669388036
  0
LINE
  5
211
100
AcDbEntity
  8
0
100
AcDbLine
 62
7
  6
CONTINUOUS
 10
-1.5700165109
 20
13.2471708734
 11
-1.5700165109
 21
12.1471708734
  0
LINE
  5
212
100
AcDbEntity
  8
0
100
AcDbLine
 62
7
  6
CONTINUOUS
 10
-1.5300165109
 20
13.2921708734
 11
-1.5300165109
 21
12.1021708734
  0
LINE
  5
213
100
AcDbEntity
  8
0
100
AcDbLine
 62
7
  6
CONTINUOUS
 10
-1.4300165109
 20
12.1021708734
 11
-1.4300165109
 21
13.2921708734
  0
LINE
  5
214
100
AcDbEntity
  8
0
100
AcDbLine
 62
7
  6
CONTINUOUS
 10
-1.4206665112
 20
12.6971708734
 11
-1.4206665112
 21
13.0850208731
  0
LINE
  5
215
100
AcDbEntity
  8
0
100
AcDbLine
 62
7
  6
CONTINUOUS
 10
-1.4100165109
 20
13.2471702746
 11
-1.4100165109
 21
12.1471714722
  0
LINE
  5
216
100
AcDbEntity
  8
0
100
AcDbLine
 62
7
  6
CONTINUOUS
 10
-1.2100165109
 20
12.0471708734
 11
-1.2100165109
 21
11.8471708734
  0
LINE
  5
217
100
AcDbEntity
  8
0
100
AcDbLine
 62
7
  6
CONTINUOUS
 10
-1.1225165109
 20
11.8471708734
 11
-1.1225165109
 21
11.6621708734
  0
LINE
  5
218
100
AcDbEntity
  8
0
100
AcDbLine
 62
7
  6
CONTINUOUS
 10
-1.0262665109
 20
11.4921708734
 11
-1.0262665109
 21
11.4841708734
  0
LINE
  5
219
100
AcDbEntity
  8
0
100
AcDbLine
 62
7
  6
CONTINUOUS
 10
-1.4141231927
 20
12.3029266576
 11
-1.4103233853
 21
12.3095054596
  0
LINE
  5
21A
100
AcDbEntity
  8
0
100
AcDbLine
 62
7
  6
CONTINUOUS
 10
-1.4203112127
 20
13.0853761715
 11
-1.4206665112
 21
13.0849127049
  0
LINE
  5
21B
100
AcDbEntity
  8
0
100
AcDbLine
 62
7
  6
CONTINUOUS
 10
-1.4203091511
 20
13.0853782332
 11
-1.4100165109
 21
13.0956708734
  0
LINE
  5
21C
100
AcDbEntity
  8
0
100
AcDbLine
 62
7
  6
CONTINUOUS
 10
-1.4300165109
 20
13.0756708734
 11
-1.4206680333
 21
13.0850193509
  0
LINE
  5
21D
100
AcDbEntity
  8
0
100
AcDbLine
 62
7
  6
CONTINUOUS
 10
-0.2937665109
 20
11.4921708734
 11
-0.2937665109
 21
11.4841708734
  0
LINE
  5
21E
100
AcDbEntity
  8
0
100
AcDbLine
 62
7
  6
CONTINUOUS
 10
-0.1975165109
 20
11.8471708734
 11
-0.1975165109
 21
11.6621708734
  0
LINE
  5
21F
100
AcDbEntity
  8
0
100
AcDbLine
 62
7
  6
CONTINUOUS
 10
-0.1100165109
 20
12.0471708734
 11
-0.1100165109
 21
11.8471708734
  0
LINE
  5
220
100
AcDbEntity
  8
0
100
AcDbLine
 62
7
  6
CONTINUOUS
 10
0.6899834891
 20
12.1471714722
 11
0.6899834891
 21
13.2471702746
  0
LINE
  5
221
100
AcDbEntity
  8
0
100
AcDbLine
 62
7
  6
CONTINUOUS
 10
-1.41423164
 20
12.3028860026
 11
-1.4141210279
 21
12.3029244924
  0
LINE
  5
222
100
AcDbEntity
  8
0
100
AcDbLine
 62
7
  6
CONTINUOUS
 10
-1.4300165109
 20
12.3186708734
 11
-1.4142325472
 21
12.3028869097
  0
LINE
  5
223
100
AcDbEntity
  8
0
100
AcDbLine
 62
7
  6
CONTINUOUS
 10
19.0184834891
 20
4.5361708734
 11
18.5184834891
 21
4.5361708734
  0
LINE
  5
224
100
AcDbEntity
  8
0
100
AcDbLine
 62
7
  6
CONTINUOUS
 10
19.0184834891
 20
4.6361708734
 11
18.5184834891
 21
4.6361708734
  0
LINE
  5
225
100
AcDbEntity
  8
0
100
AcDbLine
 62
7
  6
CONTINUOUS
 10
24.0199834891
 20
5.6571708734
 11
24.2699834891
 21
5.6571708734
  0
LINE
  5
226
100
AcDbEntity
  8
0
100
AcDbLine
 62
7
  6
CONTINUOUS
 10
24.0199834891
 20
6.2671708734
 11
23.6699834891
 21
6.2671708734
  0
LINE
  5
227
100
AcDbEntity
  8
0
100
AcDbLine
 62
7
  6
CONTINUOUS
 10
19.0184834891
 20
6.4341708734
 11
18.5184834891
 21
6.4341708734
  0
LINE
  5
228
100
AcDbEntity
  8
0
100
AcDbLine
 62
7
  6
CONTINUOUS
 10
19.8299834891
 20
6.4546708734
 11
23.6699834891
 21
6.4546708734
  0
LINE
  5
229
100
AcDbEntity
  8
0
100
AcDbLine
 62
7
  6
CONTINUOUS
 10
19.8099834891
 20
6.5221708734
 11
19.7099834891
 21
6.5221708734
  0
LINE
  5
22A
100
AcDbEntity
  8
0
100
AcDbLine
 62
7
  6
CONTINUOUS
 10
19.0184834891
 20
6.5361708734
 11
18.5184834891
 21
6.5361708734
  0
LINE
  5
22B
100
AcDbEntity
  8
0
100
AcDbLine
 62
7
  6
CONTINUOUS
 10
19.7099834891
 20
6.5671708734
 11
19.6699834891
 21
6.5671708734
  0
LINE
  5
22C
100
AcDbEntity
  8
0
100
AcDbLine
 62
7
  6
CONTINUOUS
 10
19.8159834891
 20
6.6446708734
 11
19.8204131529
 21
6.6446708734
  0
LINE
  5
22D
100
AcDbEntity
  8
0
100
AcDbLine
 62
7
  6
CONTINUOUS
 10
19.2699834891
 20
6.6474029432
 11
19.2099834891
 21
6.6474029432
  0
LINE
  5
22E
100
AcDbEntity
  8
0
100
AcDbLine
 62
7
  6
CONTINUOUS
 10
19.2099834891
 20
6.6479034421
 11
19.2699834891
 21
6.6479034421
  0
LINE
  5
22F
100
AcDbEntity
  8
0
100
AcDbLine
 62
7
  6
CONTINUOUS
 10
19.2699834891
 20
6.6504776619
 11
19.2099834891
 21
6.6504776619
  0
LINE
  5
230
100
AcDbEntity
  8
0
100
AcDbLine
 62
7
  6
CONTINUOUS
 10
19.2099834891
 20
6.6519753495
 11
19.2699834891
 21
6.6519753495
  0
LINE
  5
231
100
AcDbEntity
  8
0
100
AcDbLine
 62
7
  6
CONTINUOUS
 10
19.2699834891
 20
6.6571041978
 11
19.2099834891
 21
6.6571041978
  0
LINE
  5
232
100
AcDbEntity
  8
0
100
AcDbLine
 62
7
  6
CONTINUOUS
 10
19.2099834891
 20
6.6595876757
 11
19.2699834891
 21
6.6595876757
  0
LINE
  5
233
100
AcDbEntity
  8
0
100
AcDbLine
 62
7
  6
CONTINUOUS
 10
19.2699834891
 20
6.6672321189
 11
19.2099834891
 21
6.6672321189
  0
LINE
  5
234
100
AcDbEntity
  8
0
100
AcDbLine
 62
7
  6
CONTINUOUS
 10
19.2099834891
 20
6.6706824863
 11
19.2699834891
 21
6.6706824863
  0
LINE
  5
235
100
AcDbEntity
  8
0
100
AcDbLine
 62
7
  6
CONTINUOUS
 10
19.2699834891
 20
6.6807843455
 11
19.2099834891
 21
6.6807843455
  0
LINE
  5
236
100
AcDbEntity
  8
0
100
AcDbLine
 62
7
  6
CONTINUOUS
 10
19.2099834891
 20
6.6851753432
 11
19.2699834891
 21
6.6851753432
  0
LINE
  5
237
100
AcDbEntity
  8
0
100
AcDbLine
 62
7
  6
CONTINUOUS
 10
19.2699834891
 20
6.6976577372
 11
19.2099834891
 21
6.6976577372
  0
LINE
  5
238
100
AcDbEntity
  8
0
100
AcDbLine
 62
7
  6
CONTINUOUS
 10
18.4875784606
 20
6.7018503416
 11
18.5899834891
 21
6.7018503416
  0
LINE
  5
239
100
AcDbEntity
  8
0
100
AcDbLine
 62
7
  6
CONTINUOUS
 10
18.9469834891
 20
6.7018503416
 11
19.2099834891
 21
6.7018503416
  0
LINE
  5
23A
100
AcDbEntity
  8
0
100
AcDbLine
 62
7
  6
CONTINUOUS
 10
19.2099834891
 20
6.7029559469
 11
19.2699834891
 21
6.7029559469
  0
LINE
  5
23B
100
AcDbEntity
  8
0
100
AcDbLine
 62
7
  6
CONTINUOUS
 10
19.2699834891
 20
6.7177238771
 11
19.2099834891
 21
6.7177238771
  0
LINE
  5
23C
100
AcDbEntity
  8
0
100
AcDbLine
 62
7
  6
CONTINUOUS
 10
19.2099834891
 20
6.7238889763
 11
19.2699834891
 21
6.7238889763
  0
LINE
  5
23D
100
AcDbEntity
  8
0
100
AcDbLine
 62
7
  6
CONTINUOUS
 10
18.8358044063
 20
6.7361708734
 11
18.7011625719
 21
6.7361708734
  0
LINE
  5
23E
100
AcDbEntity
  8
0
100
AcDbLine
 62
7
  6
CONTINUOUS
 10
19.2699834891
 20
6.7408300498
 11
19.2099834891
 21
6.7408300498
  0
LINE
  5
23F
100
AcDbEntity
  8
0
100
AcDbLine
 62
7
  6
CONTINUOUS
 10
19.2099834891
 20
6.7478151184
 11
19.2699834891
 21
6.7478151184
  0
LINE
  5
240
100
AcDbEntity
  8
0
100
AcDbLine
 62
7
  6
CONTINUOUS
 10
19.2699834891
 20
6.7668004035
 11
19.2099834891
 21
6.7668004035
  0
LINE
  5
241
100
AcDbEntity
  8
0
100
AcDbLine
 62
7
  6
CONTINUOUS
 10
19.2099834891
 20
6.7745522808
 11
19.2699834891
 21
6.7745522808
  0
LINE
  5
242
100
AcDbEntity
  8
0
100
AcDbLine
 62
7
  6
CONTINUOUS
 10
19.2699834891
 20
6.795437288
 11
19.2099834891
 21
6.795437288
  0
LINE
  5
243
100
AcDbEntity
  8
0
100
AcDbLine
 62
7
  6
CONTINUOUS
 10
19.2099834891
 20
6.8038969776
 11
19.2699834891
 21
6.8038969776
  0
LINE
  5
244
100
AcDbEntity
  8
0
100
AcDbLine
 62
7
  6
CONTINUOUS
 10
19.2699834891
 20
6.824702511
 11
19.2099834891
 21
6.824702511
  0
LINE
  5
245
100
AcDbEntity
  8
0
100
AcDbLine
 62
7
  6
CONTINUOUS
 10
19.2699834891
 20
6.8265227593
 11
19.2099834891
 21
6.8265227593
  0
LINE
  5
246
100
AcDbEntity
  8
0
100
AcDbLine
 62
7
  6
CONTINUOUS
 10
19.2099834891
 20
6.8356258779
 11
19.2699834891
 21
6.8356258779
  0
LINE
  5
247
100
AcDbEntity
  8
0
100
AcDbLine
 62
7
  6
CONTINUOUS
 10
19.2699834891
 20
6.8561935949
 11
19.2099834891
 21
6.8561935949
  0
LINE
  5
248
100
AcDbEntity
  8
0
100
AcDbLine
 62
7
  6
CONTINUOUS
 10
19.2699834891
 20
6.8598202383
 11
19.2099834891
 21
6.8598202383
  0
LINE
  5
249
100
AcDbEntity
  8
0
100
AcDbLine
 62
7
  6
CONTINUOUS
 10
19.2099834891
 20
6.8694975056
 11
19.2699834891
 21
6.8694975056
  0
LINE
  5
24A
100
AcDbEntity
  8
0
100
AcDbLine
 62
7
  6
CONTINUOUS
 10
19.2699834891
 20
6.8896708734
 11
19.2099834891
 21
6.8896708734
  0
LINE
  5
24B
100
AcDbEntity
  8
0
100
AcDbLine
 62
7
  6
CONTINUOUS
 10
19.2699834891
 20
6.895076311
 11
19.2099834891
 21
6.895076311
  0
LINE
  5
24C
100
AcDbEntity
  8
0
100
AcDbLine
 62
7
  6
CONTINUOUS
 10
19.2099834891
 20
6.9052540772
 11
19.2699834891
 21
6.9052540772
  0
LINE
  5
24D
100
AcDbEntity
  8
0
100
AcDbLine
 62
7
  6
CONTINUOUS
 10
19.2699834891
 20
6.9248795643
 11
19.2099834891
 21
6.9248795643
  0
LINE
  5
24E
100
AcDbEntity
  8
0
100
AcDbLine
 62
7
  6
CONTINUOUS
 10
19.2699834891
 20
6.9320226575
 11
19.2099834891
 21
6.9320226575
  0
LINE
  5
24F
100
AcDbEntity
  8
0
100
AcDbLine
 62
7
  6
CONTINUOUS
 10
19.2099834891
 20
6.9426234636
 11
19.2699834891
 21
6.9426234636
  0
LINE
  5
250
100
AcDbEntity
  8
0
100
AcDbLine
 62
7
  6
CONTINUOUS
 10
19.2699834891
 20
6.9615517082
 11
19.2099834891
 21
6.9615517082
  0
LINE
  5
251
100
AcDbEntity
  8
0
100
AcDbLine
 62
7
  6
CONTINUOUS
 10
19.2699834891
 20
6.9703780936
 11
19.2099834891
 21
6.9703780936
  0
LINE
  5
252
100
AcDbEntity
  8
0
100
AcDbLine
 62
7
  6
CONTINUOUS
 10
19.2099834891
 20
6.9813212611
 11
19.2699834891
 21
6.9813212611
  0
LINE
  5
253
100
AcDbEntity
  8
0
100
AcDbLine
 62
7
  6
CONTINUOUS
 10
19.2699834891
 20
6.9994082079
 11
19.2099834891
 21
6.9994082079
  0
LINE
  5
254
100
AcDbEntity
  8
0
100
AcDbLine
 62
7
  6
CONTINUOUS
 10
19.2699834891
 20
7.0098507115
 11
19.2099834891
 21
7.0098507115
  0
LINE
  5
255
100
AcDbEntity
  8
0
100
AcDbLine
 62
7
  6
CONTINUOUS
 10
19.2099834891
 20
7.0210529563
 11
19.2699834891
 21
7.0210529563
  0
LINE
  5
256
100
AcDbEntity
  8
0
100
AcDbLine
 62
7
  6
CONTINUOUS
 10
19.2699834891
 20
7.0381609526
 11
19.2099834891
 21
7.0381609526
  0
LINE
  5
257
100
AcDbEntity
  8
0
100
AcDbLine
 62
7
  6
CONTINUOUS
 10
19.2699834891
 20
7.0501401006
 11
19.2099834891
 21
7.0501401006
  0
LINE
  5
258
100
AcDbEntity
  8
0
100
AcDbLine
 62
7
  6
CONTINUOUS
 10
19.2099834891
 20
7.0615161668
 11
19.2699834891
 21
7.0615161668
  0
LINE
  5
259
100
AcDbEntity
  8
0
100
AcDbLine
 62
7
  6
CONTINUOUS
 10
19.2699834891
 20
7.0775150105
 11
19.2099834891
 21
7.0775150105
  0
LINE
  5
25A
100
AcDbEntity
  8
0
100
AcDbLine
 62
7
  6
CONTINUOUS
 10
19.2699834891
 20
7.0909396343
 11
19.2099834891
 21
7.0909396343
  0
LINE
  5
25B
100
AcDbEntity
  8
0
100
AcDbLine
 62
7
  6
CONTINUOUS
 10
19.2099834891
 20
7.1024029432
 11
19.2699834891
 21
7.1024029432
  0
LINE
  5
25C
100
AcDbEntity
  8
0
100
AcDbLine
 62
7
  6
CONTINUOUS
 10
19.2699834891
 20
7.1171708734
 11
19.2099834891
 21
7.1171708734
  0
LINE
  5
25D
100
AcDbEntity
  8
0
100
AcDbLine
 62
7
  6
CONTINUOUS
 10
19.2699834891
 20
7.1319388036
 11
19.2099834891
 21
7.1319388036
  0
LINE
  5
25E
100
AcDbEntity
  8
0
100
AcDbLine
 62
7
  6
CONTINUOUS
 10
19.2099834891
 20
7.1434021125
 11
19.2699834891
 21
7.1434021125
  0
LINE
  5
25F
100
AcDbEntity
  8
0
100
AcDbLine
 62
7
  6
CONTINUOUS
 10
19.2699834891
 20
7.1568267364
 11
19.2099834891
 21
7.1568267364
  0
LINE
  5
260
100
AcDbEntity
  8
0
100
AcDbLine
 62
7
  6
CONTINUOUS
 10
19.2699834891
 20
7.17282558
 11
19.2099834891
 21
7.17282558
  0
LINE
  5
261
100
AcDbEntity
  8
0
100
AcDbLine
 62
7
  6
CONTINUOUS
 10
19.2099834891
 20
7.1842016463
 11
19.2699834891
 21
7.1842016463
  0
LINE
  5
262
100
AcDbEntity
  8
0
100
AcDbLine
 62
7
  6
CONTINUOUS
 10
19.2699834891
 20
7.1961807943
 11
19.2099834891
 21
7.1961807943
  0
LINE
  5
263
100
AcDbEntity
  8
0
100
AcDbLine
 62
7
  6
CONTINUOUS
 10
19.2699834891
 20
7.2132887906
 11
19.2099834891
 21
7.2132887906
  0
LINE
  5
264
100
AcDbEntity
  8
0
100
AcDbLine
 62
7
  6
CONTINUOUS
 10
19.2099834891
 20
7.2244910354
 11
19.2699834891
 21
7.2244910354
  0
LINE
  5
265
100
AcDbEntity
  8
0
100
AcDbLine
 62
7
  6
CONTINUOUS
 10
9.0999834891
 20
13.1671708734
 11
9.0999834891
 21
12.2271708734
  0
LINE
  5
266
100
AcDbEntity
  8
0
100
AcDbLine
 62
7
  6
CONTINUOUS
 10
9.5599834891
 20
13.4636127347
 11
9.5599834891
 21
13.2271708734
  0
LINE
  5
267
100
AcDbEntity
  8
0
100
AcDbLine
 62
7
  6
CONTINUOUS
 10
9.5599834891
 20
12.1671708734
 11
9.5599834891
 21
11.8071708734
  0
LINE
  5
268
100
AcDbEntity
  8
0
100
AcDbLine
 62
7
  6
CONTINUOUS
 10
9.5599834891
 20
9.0671708734
 11
9.5599834891
 21
11.7871708734
  0
LINE
  5
269
100
AcDbEntity
  8
0
100
AcDbLine
 62
7
  6
CONTINUOUS
 10
9.6899834891
 20
11.7871708734
 11
9.6899834891
 21
11.8071708734
  0
LINE
  5
26A
100
AcDbEntity
  8
0
100
AcDbLine
 62
7
  6
CONTINUOUS
 10
19.2699834891
 20
7.2349335389
 11
19.2099834891
 21
7.2349335389
  0
LINE
  5
26B
100
AcDbEntity
  8
0
100
AcDbLine
 62
7
  6
CONTINUOUS
 10
19.2699834891
 20
7.2530204857
 11
19.2099834891
 21
7.2530204857
  0
LINE
  5
26C
100
AcDbEntity
  8
0
100
AcDbLine
 62
7
  6
CONTINUOUS
 10
19.2099834891
 20
7.2639636532
 11
19.2699834891
 21
7.2639636532
  0
LINE
  5
26D
100
AcDbEntity
  8
0
100
AcDbLine
 62
7
  6
CONTINUOUS
 10
19.2699834891
 20
7.2727900386
 11
19.2099834891
 21
7.2727900386
  0
LINE
  5
26E
100
AcDbEntity
  8
0
100
AcDbLine
 62
7
  6
CONTINUOUS
 10
19.2699834891
 20
7.2917182833
 11
19.2099834891
 21
7.2917182833
  0
LINE
  5
26F
100
AcDbEntity
  8
0
100
AcDbLine
 62
7
  6
CONTINUOUS
 10
19.2099834891
 20
7.3023190894
 11
19.2699834891
 21
7.3023190894
  0
LINE
  5
270
100
AcDbEntity
  8
0
100
AcDbLine
 62
7
  6
CONTINUOUS
 10
19.2699834891
 20
7.3094621825
 11
19.2099834891
 21
7.3094621825
  0
LINE
  5
271
100
AcDbEntity
  8
0
100
AcDbLine
 62
7
  6
CONTINUOUS
 10
19.2699834891
 20
7.3290876696
 11
19.2099834891
 21
7.3290876696
  0
LINE
  5
272
100
AcDbEntity
  8
0
100
AcDbLine
 62
7
  6
CONTINUOUS
 10
19.2099834891
 20
7.3392654358
 11
19.2699834891
 21
7.3392654358
  0
LINE
  5
273
100
AcDbEntity
  8
0
100
AcDbLine
 62
7
  6
CONTINUOUS
 10
19.2699834891
 20
7.3446708734
 11
19.2099834891
 21
7.3446708734
  0
LINE
  5
274
100
AcDbEntity
  8
0
100
AcDbLine
 62
7
  6
CONTINUOUS
 10
19.2699834891
 20
7.3648442412
 11
19.2099834891
 21
7.3648442412
  0
LINE
  5
275
100
AcDbEntity
  8
0
100
AcDbLine
 62
7
  6
CONTINUOUS
 10
19.2099834891
 20
7.3745215085
 11
19.2699834891
 21
7.3745215085
  0
LINE
  5
276
100
AcDbEntity
  8
0
100
AcDbLine
 62
7
  6
CONTINUOUS
 10
19.2699834891
 20
7.378148152
 11
19.2099834891
 21
7.378148152
  0
LINE
  5
277
100
AcDbEntity
  8
0
100
AcDbLine
 62
7
  6
CONTINUOUS
 10
19.2699834891
 20
7.3987158689
 11
19.2099834891
 21
7.3987158689
  0
LINE
  5
278
100
AcDbEntity
  8
0
100
AcDbLine
 62
7
  6
CONTINUOUS
 10
19.2099834891
 20
7.4078189875
 11
19.2699834891
 21
7.4078189875
  0
LINE
  5
279
100
AcDbEntity
  8
0
100
AcDbLine
 62
7
  6
CONTINUOUS
 10
19.2699834891
 20
7.4096392358
 11
19.2099834891
 21
7.4096392358
  0
LINE
  5
27A
100
AcDbEntity
  8
0
100
AcDbLine
 62
7
  6
CONTINUOUS
 10
19.2699834891
 20
7.4304447692
 11
19.2099834891
 21
7.4304447692
  0
LINE
  5
27B
100
AcDbEntity
  8
0
100
AcDbLine
 62
7
  6
CONTINUOUS
 10
19.2099834891
 20
7.4389044589
 11
19.2699834891
 21
7.4389044589
  0
LINE
  5
27C
100
AcDbEntity
  8
0
100
AcDbLine
 62
7
  6
CONTINUOUS
 10
19.2699834891
 20
7.459789466
 11
19.2099834891
 21
7.459789466
  0
LINE
  5
27D
100
AcDbEntity
  8
0
100
AcDbLine
 62
7
  6
CONTINUOUS
 10
19.2099834891
 20
7.4675413433
 11
19.2699834891
 21
7.4675413433
  0
LINE
  5
27E
100
AcDbEntity
  8
0
100
AcDbLine
 62
7
  6
CONTINUOUS
 10
19.2699834891
 20
7.4865266284
 11
19.2099834891
 21
7.4865266284
  0
LINE
  5
27F
100
AcDbEntity
  8
0
100
AcDbLine
 62
7
  6
CONTINUOUS
 10
19.2099834891
 20
7.493511697
 11
19.2699834891
 21
7.493511697
  0
LINE
  5
280
100
AcDbEntity
  8
0
100
AcDbLine
 62
7
  6
CONTINUOUS
 10
19.2699834891
 20
7.5104527705
 11
19.2099834891
 21
7.5104527705
  0
LINE
  5
281
100
AcDbEntity
  8
0
100
AcDbLine
 62
7
  6
CONTINUOUS
 10
19.2099834891
 20
7.5166178697
 11
19.2699834891
 21
7.5166178697
  0
LINE
  5
282
100
AcDbEntity
  8
0
100
AcDbLine
 62
7
  6
CONTINUOUS
 10
19.2699834891
 20
7.5313857999
 11
19.2099834891
 21
7.5313857999
  0
LINE
  5
283
100
AcDbEntity
  8
0
100
AcDbLine
 62
7
  6
CONTINUOUS
 10
18.4875784606
 20
7.5324914052
 11
19.2099834891
 21
7.5324914052
  0
LINE
  5
284
100
AcDbEntity
  8
0
100
AcDbLine
 62
7
  6
CONTINUOUS
 10
19.2099834891
 20
7.5366840097
 11
19.2699834891
 21
7.5366840097
  0
LINE
  5
285
100
AcDbEntity
  8
0
100
AcDbLine
 62
7
  6
CONTINUOUS
 10
19.2699834891
 20
7.5491664036
 11
19.2099834891
 21
7.5491664036
  0
LINE
  5
286
100
AcDbEntity
  8
0
100
AcDbLine
 62
7
  6
CONTINUOUS
 10
19.2099834891
 20
7.5535574013
 11
19.2699834891
 21
7.5535574013
  0
LINE
  5
287
100
AcDbEntity
  8
0
100
AcDbLine
 62
7
  6
CONTINUOUS
 10
19.2699834891
 20
7.5636592605
 11
19.2099834891
 21
7.5636592605
  0
LINE
  5
288
100
AcDbEntity
  8
0
100
AcDbLine
 62
7
  6
CONTINUOUS
 10
19.2099834891
 20
7.567109628
 11
19.2699834891
 21
7.567109628
  0
LINE
  5
289
100
AcDbEntity
  8
0
100
AcDbLine
 62
7
  6
CONTINUOUS
 10
19.8228941501
 20
7.5683501812
 11
19.8130232934
 21
7.5683501812
  0
LINE
  5
28A
100
AcDbEntity
  8
0
100
AcDbLine
 62
7
  6
CONTINUOUS
 10
19.2699834891
 20
7.5747540711
 11
19.2099834891
 21
7.5747540711
  0
LINE
  5
28B
100
AcDbEntity
  8
0
100
AcDbLine
 62
7
  6
CONTINUOUS
 10
19.2099834891
 20
7.577237549
 11
19.2699834891
 21
7.577237549
  0
LINE
  5
28C
100
AcDbEntity
  8
0
100
AcDbLine
 62
7
  6
CONTINUOUS
 10
19.2699834891
 20
7.5823663973
 11
19.2099834891
 21
7.5823663973
  0
LINE
  5
28D
100
AcDbEntity
  8
0
100
AcDbLine
 62
7
  6
CONTINUOUS
 10
19.2099834891
 20
7.5838640849
 11
19.2699834891
 21
7.5838640849
  0
LINE
  5
28E
100
AcDbEntity
  8
0
100
AcDbLine
 62
7
  6
CONTINUOUS
 10
19.2699834891
 20
7.5864383047
 11
19.2099834891
 21
7.5864383047
  0
LINE
  5
28F
100
AcDbEntity
  8
0
100
AcDbLine
 62
7
  6
CONTINUOUS
 10
19.2099834891
 20
7.5869388036
 11
19.2699834891
 21
7.5869388036
  0
LINE
  5
290
100
AcDbEntity
  8
0
100
AcDbLine
 62
7
  6
CONTINUOUS
 10
19.7099834891
 20
7.6671708734
 11
19.6699834891
 21
7.6671708734
  0
LINE
  5
291
100
AcDbEntity
  8
0
100
AcDbLine
 62
7
  6
CONTINUOUS
 10
19.8099834891
 20
7.7121708734
 11
19.7099834891
 21
7.7121708734
  0
LINE
  5
292
100
AcDbEntity
  8
0
100
AcDbLine
 62
7
  6
CONTINUOUS
 10
19.8299834891
 20
7.7796708734
 11
20.0699841195
 21
7.7796708734
  0
LINE
  5
293
100
AcDbEntity
  8
0
100
AcDbLine
 62
7
  6
CONTINUOUS
 10
21.3899828771
 20
7.7796708734
 11
23.6699834891
 21
7.7796708734
  0
LINE
  5
294
100
AcDbEntity
  8
0
100
AcDbLine
 62
7
  6
CONTINUOUS
 10
21.3299834891
 20
7.8671708734
 11
20.1299834891
 21
7.8671708734
  0
LINE
  5
295
100
AcDbEntity
  8
0
100
AcDbLine
 62
7
  6
CONTINUOUS
 10
24.0199834891
 20
7.9671708734
 11
23.6699834891
 21
7.9671708734
  0
LINE
  5
296
100
AcDbEntity
  8
0
100
AcDbLine
 62
7
  6
CONTINUOUS
 10
9.9445768968
 20
11.7871708734
 11
9.9445768968
 21
11.4871708734
  0
LINE
  5
297
100
AcDbEntity
  8
0
100
AcDbLine
 62
7
  6
CONTINUOUS
 10
10.3753900814
 20
11.4871708734
 11
10.3753900814
 21
11.7871708734
  0
LINE
  5
298
100
AcDbEntity
  8
0
100
AcDbLine
 62
7
  6
CONTINUOUS
 10
10.6299834891
 20
11.7871708734
 11
10.6299834891
 21
11.8071708734
  0
LINE
  5
299
100
AcDbEntity
  8
0
100
AcDbLine
 62
7
  6
CONTINUOUS
 10
10.7599834891
 20
13.4636127347
 11
10.7599834891
 21
11.8071708734
  0
LINE
  5
29A
100
AcDbEntity
  8
0
100
AcDbLine
 62
7
  6
CONTINUOUS
 10
10.7599834891
 20
9.0671708734
 11
10.7599834891
 21
9.3071708734
  0
LINE
  5
29B
100
AcDbEntity
  8
0
100
AcDbLine
 62
7
  6
CONTINUOUS
 10
10.7599834891
 20
10.3671708734
 11
10.7599834891
 21
11.7871708734
  0
LINE
  5
29C
100
AcDbEntity
  8
0
100
AcDbLine
 62
7
  6
CONTINUOUS
 10
24.0199834891
 20
8.5771708734
 11
24.2699834891
 21
8.5771708734
  0
LINE
  5
29D
100
AcDbEntity
  8
0
100
AcDbLine
 62
7
  6
CONTINUOUS
 10
20.9453900814
 20
8.6271708734
 11
20.5145768968
 21
8.6271708734
  0
LINE
  5
29E
100
AcDbEntity
  8
0
100
AcDbLine
 62
7
  6
CONTINUOUS
 10
21.3299780245
 20
8.9271708734
 11
20.1299889538
 21
8.9271708734
  0
LINE
  5
29F
100
AcDbEntity
  8
0
100
AcDbLine
 62
7
  6
CONTINUOUS
 10
20.1299834891
 20
8.9471708734
 11
21.3299834891
 21
8.9471708734
  0
LINE
  5
2A0
100
AcDbEntity
  8
0
100
AcDbLine
 62
7
  6
CONTINUOUS
 10
9.5799835089
 20
9.0471708734
 11
10.7399834694
 21
9.0471708734
  0
LINE
  5
2A1
100
AcDbEntity
  8
0
100
AcDbLine
 62
9
  6
CONTINUOUS
 10
9.5599834891
 20
9.0671708734
 11
10.7599834891
 21
9.0671708734
  0
LINE
  5
2A2
100
AcDbEntity
  8
0
100
AcDbLine
 62
7
  6
CONTINUOUS
 10
11.2199834891
 20
9.3671708734
 11
11.2199834891
 21
10.3071708734
  0
LINE
  5
2A3
100
AcDbEntity
  8
0
100
AcDbLine
 62
7
  6
CONTINUOUS
 10
20.0699834891
 20
9.3671708734
 11
19.6699834891
 21
9.3671708734
  0
LINE
  5
2A4
100
AcDbEntity
  8
0
100
AcDbLine
 62
7
  6
CONTINUOUS
 10
10.8199834891
 20
9.3671708734
 11
11.2199834891
 21
9.3671708734
  0
LINE
  5
2A5
100
AcDbEntity
  8
0
100
AcDbLine
 62
7
  6
CONTINUOUS
 10
19.6699834891
 20
9.4621708734
 11
11.2199834891
 21
9.4621708734
  0
LINE
  5
2A6
100
AcDbEntity
  8
0
100
AcDbLine
 62
7
  6
CONTINUOUS
 10
-2.7215098646
 20
10.1161708734
 11
-2.2215231572
 21
10.1161708734
  0
LINE
  5
2A7
100
AcDbEntity
  8
0
100
AcDbLine
 62
7
  6
CONTINUOUS
 10
19.6699834891
 20
10.2121708734
 11
11.2199834891
 21
10.2121708734
  0
LINE
  5
2A8
100
AcDbEntity
  8
0
100
AcDbLine
 62
7
  6
CONTINUOUS
 10
-2.2215165109
 20
10.2161708734
 11
-2.7215165109
 21
10.2161708734
  0
LINE
  5
2A9
100
AcDbEntity
  8
0
100
AcDbLine
 62
7
  6
CONTINUOUS
 10
20.0699834891
 20
10.3071708734
 11
19.6699834891
 21
10.3071708734
  0
LINE
  5
2AA
100
AcDbEntity
  8
0
100
AcDbLine
 62
7
  6
CONTINUOUS
 10
10.8199834891
 20
10.3071708734
 11
11.2199834891
 21
10.3071708734
  0
LINE
  5
2AB
100
AcDbEntity
  8
0
100
AcDbLine
 62
9
  6
CONTINUOUS
 10
21.3299834891
 20
10.6036127347
 11
20.1299834891
 21
10.6036127347
  0
LINE
  5
2AC
100
AcDbEntity
  8
0
100
AcDbLine
 62
7
  6
CONTINUOUS
 10
21.3099834694
 20
10.6236127347
 11
20.1499835089
 21
10.6236127347
  0
LINE
  5
2AD
100
AcDbEntity
  8
0
100
AcDbLine
 62
7
  6
CONTINUOUS
 10
10.7599834891
 20
10.7271708734
 11
9.5599834891
 21
10.7271708734
  0
LINE
  5
2AE
100
AcDbEntity
  8
0
100
AcDbLine
 62
7
  6
CONTINUOUS
 10
-1.0262663085
 20
11.4841708734
 11
-0.2937667132
 21
11.4841708734
  0
LINE
  5
2AF
100
AcDbEntity
  8
0
100
AcDbLine
 62
7
  6
CONTINUOUS
 10
10.3753900814
 20
11.4871708734
 11
9.9445768968
 21
11.4871708734
  0
LINE
  5
2B0
100
AcDbEntity
  8
0
100
AcDbLine
 62
7
  6
CONTINUOUS
 10
-0.2418483439
 20
11.4921708734
 11
-1.0781846778
 21
11.4921708734
  0
LINE
  5
2B1
100
AcDbEntity
  8
0
100
AcDbLine
 62
9
  6
CONTINUOUS
 10
-0.2327284238
 20
11.4980683093
 11
-1.0873045979
 21
11.4980683093
  0
LINE
  5
2B2
100
AcDbEntity
  8
0
100
AcDbLine
 62
9
  6
CONTINUOUS
 10
-1.1225165109
 20
11.6621708734
 11
-0.1975165109
 21
11.6621708734
  0
LINE
  5
2B3
100
AcDbEntity
  8
0
100
AcDbLine
 62
7
  6
CONTINUOUS
 10
10.7599780245
 20
11.7871708734
 11
9.5599889538
 21
11.7871708734
  0
LINE
  5
2B4
100
AcDbEntity
  8
0
100
AcDbLine
 62
7
  6
CONTINUOUS
 10
9.5599834891
 20
11.8071708734
 11
10.7599834891
 21
11.8071708734
  0
LINE
  5
2B5
100
AcDbEntity
  8
0
100
AcDbLine
 62
7
  6
CONTINUOUS
 10
-1.2100165109
 20
11.8471708734
 11
-0.1100165109
 21
11.8471708734
  0
LINE
  5
2B6
100
AcDbEntity
  8
0
100
AcDbLine
 62
7
  6
CONTINUOUS
 10
-2.7215098646
 20
12.0141708734
 11
-2.2215231572
 21
12.0141708734
  0
LINE
  5
2B7
100
AcDbEntity
  8
0
100
AcDbLine
 62
7
  6
CONTINUOUS
 10
-1.4300165109
 20
12.1021708734
 11
-1.5300165109
 21
12.1021708734
  0
LINE
  5
2B8
100
AcDbEntity
  8
0
100
AcDbLine
 62
7
  6
CONTINUOUS
 10
-2.2215165109
 20
12.1161708734
 11
-2.7215165109
 21
12.1161708734
  0
LINE
  5
2B9
100
AcDbEntity
  8
0
100
AcDbLine
 62
7
  6
CONTINUOUS
 10
0.6899834891
 20
12.1471708734
 11
-0.0100167144
 21
12.1471708734
  0
LINE
  5
2BA
100
AcDbEntity
  8
0
100
AcDbLine
 62
7
  6
CONTINUOUS
 10
-1.3100163073
 20
12.1471708734
 11
-1.4100165109
 21
12.1471708734
  0
LINE
  5
2BB
100
AcDbEntity
  8
0
100
AcDbLine
 62
7
  6
CONTINUOUS
 10
-1.5300165109
 20
12.1471708734
 11
-1.5700165109
 21
12.1471708734
  0
LINE
  5
2BC
100
AcDbEntity
  8
0
100
AcDbLine
 62
7
  6
CONTINUOUS
 10
9.4999834891
 20
12.2271708734
 11
9.0999834891
 21
12.2271708734
  0
LINE
  5
2BD
100
AcDbEntity
  8
0
100
AcDbLine
 62
7
  6
CONTINUOUS
 10
-1.9700165109
 20
12.2274029432
 11
-2.0300165109
 21
12.2274029432
  0
LINE
  5
2BE
100
AcDbEntity
  8
0
100
AcDbLine
 62
7
  6
CONTINUOUS
 10
-2.0300165109
 20
12.2279034421
 11
-1.9700165109
 21
12.2279034421
  0
LINE
  5
2BF
100
AcDbEntity
  8
0
100
AcDbLine
 62
7
  6
CONTINUOUS
 10
-1.9700165109
 20
12.2304776619
 11
-2.0300165109
 21
12.2304776619
  0
LINE
  5
2C0
100
AcDbEntity
  8
0
100
AcDbLine
 62
7
  6
CONTINUOUS
 10
-2.0300165109
 20
12.2319753495
 11
-1.9700165109
 21
12.2319753495
  0
LINE
  5
2C1
100
AcDbEntity
  8
0
100
AcDbLine
 62
7
  6
CONTINUOUS
 10
-1.9700165109
 20
12.2371041978
 11
-2.0300165109
 21
12.2371041978
  0
LINE
  5
2C2
100
AcDbEntity
  8
0
100
AcDbLine
 62
7
  6
CONTINUOUS
 10
-2.0300165109
 20
12.2395876757
 11
-1.9700165109
 21
12.2395876757
  0
LINE
  5
2C3
100
AcDbEntity
  8
0
100
AcDbLine
 62
7
  6
CONTINUOUS
 10
-1.9700165109
 20
12.2472321189
 11
-2.0300165109
 21
12.2472321189
  0
LINE
  5
2C4
100
AcDbEntity
  8
0
100
AcDbLine
 62
7
  6
CONTINUOUS
 10
-2.0300165109
 20
12.2506824863
 11
-1.9700165109
 21
12.2506824863
  0
LINE
  5
2C5
100
AcDbEntity
  8
0
100
AcDbLine
 62
7
  6
CONTINUOUS
 10
-1.9700165109
 20
12.2607843455
 11
-2.0300165109
 21
12.2607843455
  0
LINE
  5
2C6
100
AcDbEntity
  8
0
100
AcDbLine
 62
7
  6
CONTINUOUS
 10
-2.0300165109
 20
12.2651753432
 11
-1.9700165109
 21
12.2651753432
  0
LINE
  5
2C7
100
AcDbEntity
  8
0
100
AcDbLine
 62
7
  6
CONTINUOUS
 10
-1.9700165109
 20
12.2776577372
 11
-2.0300165109
 21
12.2776577372
  0
LINE
  5
2C8
100
AcDbEntity
  8
0
100
AcDbLine
 62
7
  6
CONTINUOUS
 10
-2.7524215394
 20
12.2818503416
 11
-2.6500165109
 21
12.2818503416
  0
LINE
  5
2C9
100
AcDbEntity
  8
0
100
AcDbLine
 62
7
  6
CONTINUOUS
 10
-2.2930165109
 20
12.2818503416
 11
-2.0300165109
 21
12.2818503416
  0
LINE
  5
2CA
100
AcDbEntity
  8
0
100
AcDbLine
 62
7
  6
CONTINUOUS
 10
-2.0300165109
 20
12.2829559469
 11
-1.9700165109
 21
12.2829559469
  0
LINE
  5
2CB
100
AcDbEntity
  8
0
100
AcDbLine
 62
7
  6
CONTINUOUS
 10
-1.9700165109
 20
12.2977238771
 11
-2.0300165109
 21
12.2977238771
  0
LINE
  5
2CC
100
AcDbEntity
  8
0
100
AcDbLine
 62
7
  6
CONTINUOUS
 10
-2.0300165109
 20
12.3038889763
 11
-1.9700165109
 21
12.3038889763
  0
LINE
  5
2CD
100
AcDbEntity
  8
0
100
AcDbLine
 62
7
  6
CONTINUOUS
 10
-1.4105056081
 20
12.3093483786
 11
-1.4100165109
 21
12.3093483786
  0
LINE
  5
2CE
100
AcDbEntity
  8
0
100
AcDbLine
 62
7
  6
CONTINUOUS
 10
-2.4041955937
 20
12.3161708734
 11
-2.5388374281
 21
12.3161708734
  0
LINE
  5
2CF
100
AcDbEntity
  8
0
100
AcDbLine
 62
7
  6
CONTINUOUS
 10
-1.9700165109
 20
12.3208300498
 11
-2.0300165109
 21
12.3208300498
  0
LINE
  5
2D0
100
AcDbEntity
  8
0
100
AcDbLine
 62
7
  6
CONTINUOUS
 10
9.0999834891
 20
12.3221708734
 11
0.6899834891
 21
12.3221708734
  0
LINE
  5
2D1
100
AcDbEntity
  8
0
100
AcDbLine
 62
7
  6
CONTINUOUS
 10
-2.0300165109
 20
12.3278151184
 11
-1.9700165109
 21
12.3278151184
  0
LINE
  5
2D2
100
AcDbEntity
  8
0
100
AcDbLine
 62
7
  6
CONTINUOUS
 10
-1.9700165109
 20
12.3468004035
 11
-2.0300165109
 21
12.3468004035
  0
LINE
  5
2D3
100
AcDbEntity
  8
0
100
AcDbLine
 62
7
  6
CONTINUOUS
 10
-2.0300165109
 20
12.3545522808
 11
-1.9700165109
 21
12.3545522808
  0
LINE
  5
2D4
100
AcDbEntity
  8
0
100
AcDbLine
 62
7
  6
CONTINUOUS
 10
-1.9700165109
 20
12.375437288
 11
-2.0300165109
 21
12.375437288
  0
LINE
  5
2D5
100
AcDbEntity
  8
0
100
AcDbLine
 62
7
  6
CONTINUOUS
 10
-2.0300165109
 20
12.3838969776
 11
-1.9700165109
 21
12.3838969776
  0
LINE
  5
2D6
100
AcDbEntity
  8
0
100
AcDbLine
 62
7
  6
CONTINUOUS
 10
-1.9700165109
 20
12.404702511
 11
-2.0300165109
 21
12.404702511
  0
LINE
  5
2D7
100
AcDbEntity
  8
0
100
AcDbLine
 62
7
  6
CONTINUOUS
 10
-1.9700165109
 20
12.4065227593
 11
-2.0300165109
 21
12.4065227593
  0
LINE
  5
2D8
100
AcDbEntity
  8
0
100
AcDbLine
 62
7
  6
CONTINUOUS
 10
-2.0300165109
 20
12.4156258779
 11
-1.9700165109
 21
12.4156258779
  0
LINE
  5
2D9
100
AcDbEntity
  8
0
100
AcDbLine
 62
7
  6
CONTINUOUS
 10
-1.9700165109
 20
12.4361935949
 11
-2.0300165109
 21
12.4361935949
  0
LINE
  5
2DA
100
AcDbEntity
  8
0
100
AcDbLine
 62
7
  6
CONTINUOUS
 10
-1.9700165109
 20
12.4398202383
 11
-2.0300165109
 21
12.4398202383
  0
LINE
  5
2DB
100
AcDbEntity
  8
0
100
AcDbLine
 62
7
  6
CONTINUOUS
 10
-2.0300165109
 20
12.4494975056
 11
-1.9700165109
 21
12.4494975056
  0
LINE
  5
2DC
100
AcDbEntity
  8
0
100
AcDbLine
 62
7
  6
CONTINUOUS
 10
-1.9700165109
 20
12.4696708734
 11
-2.0300165109
 21
12.4696708734
  0
LINE
  5
2DD
100
AcDbEntity
  8
0
100
AcDbLine
 62
7
  6
CONTINUOUS
 10
-1.9700165109
 20
12.475076311
 11
-2.0300165109
 21
12.475076311
  0
LINE
  5
2DE
100
AcDbEntity
  8
0
100
AcDbLine
 62
7
  6
CONTINUOUS
 10
-2.0300165109
 20
12.4852540772
 11
-1.9700165109
 21
12.4852540772
  0
LINE
  5
2DF
100
AcDbEntity
  8
0
100
AcDbLine
 62
7
  6
CONTINUOUS
 10
-1.9700165109
 20
12.5048795643
 11
-2.0300165109
 21
12.5048795643
  0
LINE
  5
2E0
100
AcDbEntity
  8
0
100
AcDbLine
 62
7
  6
CONTINUOUS
 10
-1.9700165109
 20
12.5120226575
 11
-2.0300165109
 21
12.5120226575
  0
LINE
  5
2E1
100
AcDbEntity
  8
0
100
AcDbLine
 62
7
  6
CONTINUOUS
 10
-2.0300165109
 20
12.5226234636
 11
-1.9700165109
 21
12.5226234636
  0
LINE
  5
2E2
100
AcDbEntity
  8
0
100
AcDbLine
 62
7
  6
CONTINUOUS
 10
-1.9700165109
 20
12.5415517082
 11
-2.0300165109
 21
12.5415517082
  0
LINE
  5
2E3
100
AcDbEntity
  8
0
100
AcDbLine
 62
7
  6
CONTINUOUS
 10
-1.9700165109
 20
12.5503780936
 11
-2.0300165109
 21
12.5503780936
  0
LINE
  5
2E4
100
AcDbEntity
  8
0
100
AcDbLine
 62
7
  6
CONTINUOUS
 10
-2.0300165109
 20
12.5613212611
 11
-1.9700165109
 21
12.5613212611
  0
LINE
  5
2E5
100
AcDbEntity
  8
0
100
AcDbLine
 62
7
  6
CONTINUOUS
 10
-1.9700165109
 20
12.5794082079
 11
-2.0300165109
 21
12.5794082079
  0
LINE
  5
2E6
100
AcDbEntity
  8
0
100
AcDbLine
 62
7
  6
CONTINUOUS
 10
-1.9700165109
 20
12.5898507115
 11
-2.0300165109
 21
12.5898507115
  0
LINE
  5
2E7
100
AcDbEntity
  8
0
100
AcDbLine
 62
7
  6
CONTINUOUS
 10
-2.0300165109
 20
12.6010529563
 11
-1.9700165109
 21
12.6010529563
  0
LINE
  5
2E8
100
AcDbEntity
  8
0
100
AcDbLine
 62
7
  6
CONTINUOUS
 10
-1.9700165109
 20
12.6181609526
 11
-2.0300165109
 21
12.6181609526
  0
LINE
  5
2E9
100
AcDbEntity
  8
0
100
AcDbLine
 62
7
  6
CONTINUOUS
 10
-1.9700165109
 20
12.6301401006
 11
-2.0300165109
 21
12.6301401006
  0
LINE
  5
2EA
100
AcDbEntity
  8
0
100
AcDbLine
 62
7
  6
CONTINUOUS
 10
-2.0300165109
 20
12.6415161668
 11
-1.9700165109
 21
12.6415161668
  0
LINE
  5
2EB
100
AcDbEntity
  8
0
100
AcDbLine
 62
7
  6
CONTINUOUS
 10
-1.9700165109
 20
12.6575150105
 11
-2.0300165109
 21
12.6575150105
  0
LINE
  5
2EC
100
AcDbEntity
  8
0
100
AcDbLine
 62
7
  6
CONTINUOUS
 10
-1.9700165109
 20
12.6709396343
 11
-2.0300165109
 21
12.6709396343
  0
LINE
  5
2ED
100
AcDbEntity
  8
0
100
AcDbLine
 62
7
  6
CONTINUOUS
 10
-2.0300165109
 20
12.6824029432
 11
-1.9700165109
 21
12.6824029432
  0
LINE
  5
2EE
100
AcDbEntity
  8
0
100
AcDbLine
 62
7
  6
CONTINUOUS
 10
-1.9700165109
 20
12.6971708734
 11
-2.0300165109
 21
12.6971708734
  0
LINE
  5
2EF
100
AcDbEntity
  8
0
100
AcDbLine
 62
7
  6
CONTINUOUS
 10
-1.9700165109
 20
12.7119388036
 11
-2.0300165109
 21
12.7119388036
  0
LINE
  5
2F0
100
AcDbEntity
  8
0
100
AcDbLine
 62
7
  6
CONTINUOUS
 10
-2.0300165109
 20
12.7234021125
 11
-1.9700165109
 21
12.7234021125
  0
LINE
  5
2F1
100
AcDbEntity
  8
0
100
AcDbLine
 62
7
  6
CONTINUOUS
 10
-1.9700165109
 20
12.7368267364
 11
-2.0300165109
 21
12.7368267364
  0
LINE
  5
2F2
100
AcDbEntity
  8
0
100
AcDbLine
 62
7
  6
CONTINUOUS
 10
-1.9700165109
 20
12.75282558
 11
-2.0300165109
 21
12.75282558
  0
LINE
  5
2F3
100
AcDbEntity
  8
0
100
AcDbLine
 62
7
  6
CONTINUOUS
 10
-2.0300165109
 20
12.7642016463
 11
-1.9700165109
 21
12.7642016463
  0
LINE
  5
2F4
100
AcDbEntity
  8
0
100
AcDbLine
 62
7
  6
CONTINUOUS
 10
-1.9700165109
 20
12.7761807943
 11
-2.0300165109
 21
12.7761807943
  0
LINE
  5
2F5
100
AcDbEntity
  8
0
100
AcDbLine
 62
7
  6
CONTINUOUS
 10
-1.9700165109
 20
12.7932887906
 11
-2.0300165109
 21
12.7932887906
  0
LINE
  5
2F6
100
AcDbEntity
  8
0
100
AcDbLine
 62
7
  6
CONTINUOUS
 10
-2.0300165109
 20
12.8044910354
 11
-1.9700165109
 21
12.8044910354
  0
LINE
  5
2F7
100
AcDbEntity
  8
0
100
AcDbLine
 62
7
  6
CONTINUOUS
 10
-1.9700165109
 20
12.8149335389
 11
-2.0300165109
 21
12.8149335389
  0
LINE
  5
2F8
100
AcDbEntity
  8
0
100
AcDbLine
 62
7
  6
CONTINUOUS
 10
-1.9700165109
 20
12.8330204857
 11
-2.0300165109
 21
12.8330204857
  0
LINE
  5
2F9
100
AcDbEntity
  8
0
100
AcDbLine
 62
7
  6
CONTINUOUS
 10
-2.0300165109
 20
12.8439636532
 11
-1.9700165109
 21
12.8439636532
  0
LINE
  5
2FA
100
AcDbEntity
  8
0
100
AcDbLine
 62
7
  6
CONTINUOUS
 10
-1.9700165109
 20
12.8527900386
 11
-2.0300165109
 21
12.8527900386
  0
LINE
  5
2FB
100
AcDbEntity
  8
0
100
AcDbLine
 62
7
  6
CONTINUOUS
 10
-1.9700165109
 20
12.8717182833
 11
-2.0300165109
 21
12.8717182833
  0
LINE
  5
2FC
100
AcDbEntity
  8
0
100
AcDbLine
 62
7
  6
CONTINUOUS
 10
-2.0300165109
 20
12.8823190894
 11
-1.9700165109
 21
12.8823190894
  0
LINE
  5
2FD
100
AcDbEntity
  8
0
100
AcDbLine
 62
7
  6
CONTINUOUS
 10
-1.9700165109
 20
12.8894621825
 11
-2.0300165109
 21
12.8894621825
  0
LINE
  5
2FE
100
AcDbEntity
  8
0
100
AcDbLine
 62
7
  6
CONTINUOUS
 10
-1.9700165109
 20
12.9090876696
 11
-2.0300165109
 21
12.9090876696
  0
LINE
  5
2FF
100
AcDbEntity
  8
0
100
AcDbLine
 62
7
  6
CONTINUOUS
 10
-2.0300165109
 20
12.9192654358
 11
-1.9700165109
 21
12.9192654358
  0
LINE
  5
300
100
AcDbEntity
  8
0
100
AcDbLine
 62
7
  6
CONTINUOUS
 10
-1.9700165109
 20
12.9246708734
 11
-2.0300165109
 21
12.9246708734
  0
LINE
  5
301
100
AcDbEntity
  8
0
100
AcDbLine
 62
7
  6
CONTINUOUS
 10
-1.9700165109
 20
12.9448442412
 11
-2.0300165109
 21
12.9448442412
  0
LINE
  5
302
100
AcDbEntity
  8
0
100
AcDbLine
 62
7
  6
CONTINUOUS
 10
-2.0300165109
 20
12.9545215085
 11
-1.9700165109
 21
12.9545215085
  0
LINE
  5
303
100
AcDbEntity
  8
0
100
AcDbLine
 62
7
  6
CONTINUOUS
 10
-1.9700165109
 20
12.958148152
 11
-2.0300165109
 21
12.958148152
  0
LINE
  5
304
100
AcDbEntity
  8
0
100
AcDbLine
 62
7
  6
CONTINUOUS
 10
-1.9700165109
 20
12.9787158689
 11
-2.0300165109
 21
12.9787158689
  0
LINE
  5
305
100
AcDbEntity
  8
0
100
AcDbLine
 62
7
  6
CONTINUOUS
 10
-2.0300165109
 20
12.9878189875
 11
-1.9700165109
 21
12.9878189875
  0
LINE
  5
306
100
AcDbEntity
  8
0
100
AcDbLine
 62
7
  6
CONTINUOUS
 10
-1.9700165109
 20
12.9896392358
 11
-2.0300165109
 21
12.9896392358
  0
LINE
  5
307
100
AcDbEntity
  8
0
100
AcDbLine
 62
7
  6
CONTINUOUS
 10
-1.9700165109
 20
13.0104447692
 11
-2.0300165109
 21
13.0104447692
  0
LINE
  5
308
100
AcDbEntity
  8
0
100
AcDbLine
 62
7
  6
CONTINUOUS
 10
-2.0300165109
 20
13.0189044589
 11
-1.9700165109
 21
13.0189044589
  0
LINE
  5
309
100
AcDbEntity
  8
0
100
AcDbLine
 62
7
  6
CONTINUOUS
 10
-1.9700165109
 20
13.039789466
 11
-2.0300165109
 21
13.039789466
  0
LINE
  5
30A
100
AcDbEntity
  8
0
100
AcDbLine
 62
7
  6
CONTINUOUS
 10
-2.0300165109
 20
13.0475413433
 11
-1.9700165109
 21
13.0475413433
  0
LINE
  5
30B
100
AcDbEntity
  8
0
100
AcDbLine
 62
7
  6
CONTINUOUS
 10
-1.9700165109
 20
13.0665266284
 11
-2.0300165109
 21
13.0665266284
  0
LINE
  5
30C
100
AcDbEntity
  8
0
100
AcDbLine
 62
7
  6
CONTINUOUS
 10
9.0999834891
 20
13.0721708734
 11
0.6899834891
 21
13.0721708734
  0
LINE
  5
30D
100
AcDbEntity
  8
0
100
AcDbLine
 62
7
  6
CONTINUOUS
 10
-2.0300165109
 20
13.073511697
 11
-1.9700165109
 21
13.073511697
  0
LINE
  5
30E
100
AcDbEntity
  8
0
100
AcDbLine
 62
7
  6
CONTINUOUS
 10
-1.9700165109
 20
13.0904527705
 11
-2.0300165109
 21
13.0904527705
  0
LINE
  5
30F
100
AcDbEntity
  8
0
100
AcDbLine
 62
7
  6
CONTINUOUS
 10
-2.0300165109
 20
13.0966178697
 11
-1.9700165109
 21
13.0966178697
  0
LINE
  5
310
100
AcDbEntity
  8
0
100
AcDbLine
 62
7
  6
CONTINUOUS
 10
-1.9700165109
 20
13.1113857999
 11
-2.0300165109
 21
13.1113857999
  0
LINE
  5
311
100
AcDbEntity
  8
0
100
AcDbLine
 62
7
  6
CONTINUOUS
 10
-2.7524215394
 20
13.1124914052
 11
-2.0300165109
 21
13.1124914052
  0
LINE
  5
312
100
AcDbEntity
  8
0
100
AcDbLine
 62
7
  6
CONTINUOUS
 10
-2.0300165109
 20
13.1166840097
 11
-1.9700165109
 21
13.1166840097
  0
LINE
  5
313
100
AcDbEntity
  8
0
100
AcDbLine
 62
7
  6
CONTINUOUS
 10
-1.9700165109
 20
13.1291664036
 11
-2.0300165109
 21
13.1291664036
  0
LINE
  5
314
100
AcDbEntity
  8
0
100
AcDbLine
 62
7
  6
CONTINUOUS
 10
-2.0300165109
 20
13.1335574013
 11
-1.9700165109
 21
13.1335574013
  0
LINE
  5
315
100
AcDbEntity
  8
0
100
AcDbLine
 62
7
  6
CONTINUOUS
 10
-1.9700165109
 20
13.1436592605
 11
-2.0300165109
 21
13.1436592605
  0
LINE
  5
316
100
AcDbEntity
  8
0
100
AcDbLine
 62
7
  6
CONTINUOUS
 10
-2.0300165109
 20
13.147109628
 11
-1.9700165109
 21
13.147109628
  0
LINE
  5
317
100
AcDbEntity
  8
0
100
AcDbLine
 62
7
  6
CONTINUOUS
 10
-1.9700165109
 20
13.1547540711
 11
-2.0300165109
 21
13.1547540711
  0
LINE
  5
318
100
AcDbEntity
  8
0
100
AcDbLine
 62
7
  6
CONTINUOUS
 10
-2.0300165109
 20
13.157237549
 11
-1.9700165109
 21
13.157237549
  0
LINE
  5
319
100
AcDbEntity
  8
0
100
AcDbLine
 62
7
  6
CONTINUOUS
 10
-1.9700165109
 20
13.1623663973
 11
-2.0300165109
 21
13.1623663973
  0
LINE
  5
31A
100
AcDbEntity
  8
0
100
AcDbLine
 62
7
  6
CONTINUOUS
 10
-2.0300165109
 20
13.1638640849
 11
-1.9700165109
 21
13.1638640849
  0
LINE
  5
31B
100
AcDbEntity
  8
0
100
AcDbLine
 62
7
  6
CONTINUOUS
 10
-1.9700165109
 20
13.1664383047
 11
-2.0300165109
 21
13.1664383047
  0
LINE
  5
31C
100
AcDbEntity
  8
0
100
AcDbLine
 62
7
  6
CONTINUOUS
 10
-2.0300165109
 20
13.1669388036
 11
-1.9700165109
 21
13.1669388036
  0
LINE
  5
31D
100
AcDbEntity
  8
0
100
AcDbLine
 62
7
  6
CONTINUOUS
 10
9.4999834891
 20
13.1671708734
 11
9.0999834891
 21
13.1671708734
  0
LINE
  5
31E
100
AcDbEntity
  8
0
100
AcDbLine
 62
7
  6
CONTINUOUS
 10
0.6899834891
 20
13.2471708734
 11
-1.4100165109
 21
13.2471708734
  0
LINE
  5
31F
100
AcDbEntity
  8
0
100
AcDbLine
 62
7
  6
CONTINUOUS
 10
-1.5300165109
 20
13.2471708734
 11
-1.5700165109
 21
13.2471708734
  0
LINE
  5
320
100
AcDbEntity
  8
0
100
AcDbLine
 62
7
  6
CONTINUOUS
 10
-1.4300165109
 20
13.2921708734
 11
-1.5300165109
 21
13.2921708734
  0
LINE
  5
321
100
AcDbEntity
  8
0
100
AcDbLine
 62
9
  6
CONTINUOUS
 10
10.7599834891
 20
13.4636127347
 11
9.5599834891
 21
13.4636127347
  0
LINE
  5
322
100
AcDbEntity
  8
0
100
AcDbLine
 62
7
  6
CONTINUOUS
 10
10.7399834694
 20
13.4836127347
 11
9.5799835089
 21
13.4836127347
  0
LINE
  5
323
100
AcDbEntity
  8
0
100
AcDbLine
 62
7
  6
CONTINUOUS
 10
19.8148700871
 20
6.6457842755
 11
19.8159834891
 21
6.6446708734
  0
LINE
  5
324
100
AcDbEntity
  8
0
100
AcDbLine
 62
7
  6
CONTINUOUS
 10
19.814864472
 20
6.6457898906
 11
19.8145203865
 21
6.6462607479
  0
LINE
  5
325
100
AcDbEntity
  8
0
100
AcDbLine
 62
7
  6
CONTINUOUS
 10
19.8099834891
 20
6.654118501
 11
19.8145228317
 21
6.6462583069
  0
LINE
  5
326
100
AcDbEntity
  8
0
100
AcDbLine
 62
7
  6
CONTINUOUS
 10
18.3899834891
 20
7.5171708734
 11
18.3899834891
 21
6.7171708734
  0
LINE
  5
327
100
AcDbEntity
  8
0
100
AcDbLine
 62
7
  6
CONTINUOUS
 10
19.8131533584
 20
7.5682374741
 11
19.8099834891
 21
7.5737254973
  0
LINE
  5
328
100
AcDbEntity
  8
0
100
AcDbLine
 62
7
  6
CONTINUOUS
 10
18.4875784606
 20
7.5324914052
 11
18.4875784606
 21
6.7018503416
  0
LINE
  5
329
100
AcDbEntity
  8
0
100
AcDbLine
 62
7
  6
CONTINUOUS
 10
18.5344834891
 20
6.4341708734
 11
18.5344834891
 21
4.6361708734
  0
LINE
  5
32A
100
AcDbEntity
  8
0
100
AcDbLine
 62
7
  6
CONTINUOUS
 10
18.5974834891
 20
6.7050086661
 11
18.5974834891
 21
6.5361708734
  0
LINE
  5
32B
100
AcDbEntity
  8
0
100
AcDbLine
 62
7
  6
CONTINUOUS
 10
18.9394834891
 20
6.705008841
 11
18.9394834891
 21
6.5361708734
  0
LINE
  5
32C
100
AcDbEntity
  8
0
100
AcDbLine
 62
7
  6
CONTINUOUS
 10
19.0024834891
 20
6.4341708734
 11
19.0024834891
 21
4.6361708734
  0
LINE
  5
32D
100
AcDbEntity
  8
0
100
AcDbLine
 62
7
  6
CONTINUOUS
 10
19.2099834891
 20
6.6474029432
 11
19.2099834891
 21
7.5869388036
  0
LINE
  5
32E
100
AcDbEntity
  8
0
100
AcDbLine
 62
7
  6
CONTINUOUS
 10
19.2699834891
 20
6.6474029432
 11
19.2699834891
 21
7.5869388036
  0
LINE
  5
32F
100
AcDbEntity
  8
0
100
AcDbLine
 62
7
  6
CONTINUOUS
 10
19.8299834891
 20
7.5807564022
 11
19.822742949
 21
7.5682192468
  0
LINE
  5
330
100
AcDbEntity
  8
0
100
AcDbLine
 62
7
  6
CONTINUOUS
 10
19.8204343217
 20
6.6446708734
 11
19.8205859175
 21
6.6448091448
  0
LINE
  5
331
100
AcDbEntity
  8
0
100
AcDbLine
 62
7
  6
CONTINUOUS
 10
19.6699834891
 20
10.3071708734
 11
19.6699834891
 21
9.3671708734
  0
LINE
  5
332
100
AcDbEntity
  8
0
100
AcDbLine
 62
7
  6
CONTINUOUS
 10
19.6699834891
 20
7.6671708734
 11
19.6699834891
 21
6.5671708734
  0
LINE
  5
333
100
AcDbEntity
  8
0
100
AcDbLine
 62
7
  6
CONTINUOUS
 10
19.7099834891
 20
7.7121708734
 11
19.7099834891
 21
6.5221708734
  0
LINE
  5
334
100
AcDbEntity
  8
0
100
AcDbLine
 62
7
  6
CONTINUOUS
 10
19.8099834891
 20
6.5221708734
 11
19.8099834891
 21
7.7121708734
  0
LINE
  5
335
100
AcDbEntity
  8
0
100
AcDbLine
 62
7
  6
CONTINUOUS
 10
19.8159834891
 20
6.7589444884
 11
19.8159834891
 21
6.6446708734
  0
LINE
  5
336
100
AcDbEntity
  8
0
100
AcDbLine
 62
7
  6
CONTINUOUS
 10
19.8299834891
 20
7.7796708734
 11
19.8299834891
 21
6.4546708734
  0
LINE
  5
337
100
AcDbEntity
  8
0
100
AcDbLine
 62
7
  6
CONTINUOUS
 10
20.1299834891
 20
10.6036127347
 11
20.1299834891
 21
10.3671708734
  0
LINE
  5
338
100
AcDbEntity
  8
0
100
AcDbLine
 62
7
  6
CONTINUOUS
 10
20.1299834891
 20
9.3071708734
 11
20.1299834891
 21
8.9471708734
  0
LINE
  5
339
100
AcDbEntity
  8
0
100
AcDbLine
 62
7
  6
CONTINUOUS
 10
20.1299834891
 20
7.8396708734
 11
20.1299834891
 21
8.9271708734
  0
LINE
  5
33A
100
AcDbEntity
  8
0
100
AcDbLine
 62
7
  6
CONTINUOUS
 10
20.2599834891
 20
8.9271708734
 11
20.2599834891
 21
8.9471708734
  0
LINE
  5
33B
100
AcDbEntity
  8
0
100
AcDbLine
 62
7
  6
CONTINUOUS
 10
19.8205736171
 20
6.6448091488
 11
19.8299834891
 21
6.6611018781
  0
LINE
  5
33C
100
AcDbEntity
  8
0
100
AcDbLine
 62
7
  6
CONTINUOUS
 10
20.5145768968
 20
8.9271708734
 11
20.5145768968
 21
8.6271708734
  0
LINE
  5
33D
100
AcDbEntity
  8
0
100
AcDbLine
 62
7
  6
CONTINUOUS
 10
20.9453900814
 20
8.6271708734
 11
20.9453900814
 21
8.9271708734
  0
LINE
  5
33E
100
AcDbEntity
  8
0
100
AcDbLine
 62
7
  6
CONTINUOUS
 10
21.1999834891
 20
8.9271708734
 11
21.1999834891
 21
8.9471708734
  0
LINE
  5
33F
100
AcDbEntity
  8
0
100
AcDbLine
 62
7
  6
CONTINUOUS
 10
21.3299834891
 20
10.6036127347
 11
21.3299834891
 21
8.9471708734
  0
LINE
  5
340
100
AcDbEntity
  8
0
100
AcDbLine
 62
7
  6
CONTINUOUS
 10
21.3299834891
 20
7.8396708734
 11
21.3299834891
 21
8.9271708734
  0
LINE
  5
341
100
AcDbEntity
  8
0
100
AcDbLine
 62
7
  6
CONTINUOUS
 10
23.6699834891
 20
7.9671599287
 11
23.6699834891
 21
6.2671818181
  0
LINE
  5
342
100
AcDbEntity
  8
0
100
AcDbLine
 62
7
  6
CONTINUOUS
 10
24.0199834891
 20
8.5771588065
 11
24.0199834891
 21
5.6571829404
  0
LINE
  5
343
100
AcDbEntity
  8
0
100
AcDbLine
 62
7
  6
CONTINUOUS
 10
24.2699834891
 20
5.6571829404
 11
24.2699834891
 21
8.5771588065
  0
ARC
  5
344
100
AcDbEntity
  8
0
100
AcDbCircle
 62
7
  6
CONTINUOUS
 10
19.2699834891
 20
8.3765756353
 40
0.8144047619
100
AcDbArc
 50
270.0222987101
 51
299.4166077994
  0
ARC
  5
345
100
AcDbEntity
  8
0
100
AcDbCircle
 62
7
  6
CONTINUOUS
 10
19.2699834891
 20
5.8577661115
 40
0.8144047619
100
AcDbArc
 50
60.5833922006
 51
89.9777012899
  0
ARC
  5
346
100
AcDbEntity
  8
0
100
AcDbCircle
 62
7
  6
CONTINUOUS
 10
-1.9700165109
 20
13.9565756353
 40
0.8144047619
100
AcDbArc
 50
270.0222987101
 51
299.4166077994
  0
ARC
  5
347
100
AcDbEntity
  8
0
100
AcDbCircle
 62
7
  6
CONTINUOUS
 10
-1.9700165109
 20
11.4377661115
 40
0.8144047619
100
AcDbArc
 50
60.5833922006
 51
89.9777012899
  0
ARC
  5
348
100
AcDbEntity
  8
0
100
AcDbCircle
 62
7
  6
CONTINUOUS
 10
-0.7225165109
 20
11.6621708734
 40
0.4
100
AcDbArc
 50
180.0
 51
204.220943109
  0
ARC
  5
349
100
AcDbEntity
  8
0
100
AcDbCircle
 62
7
  6
CONTINUOUS
 10
-0.5975165109
 20
11.6621708734
 40
0.4
100
AcDbArc
 50
335.779056891
 51
360.0
  0
ARC
  5
34A
100
AcDbEntity
  8
0
100
AcDbCircle
 62
7
  6
CONTINUOUS
 10
-2.7215165109
 20
12.0651708734
 40
0.051
100
AcDbArc
 50
90.0
 51
270.0
  0
ARC
  5
34B
100
AcDbEntity
  8
0
100
AcDbCircle
 62
7
  6
CONTINUOUS
 10
-2.2215165109
 20
12.0651708734
 40
0.051
100
AcDbArc
 50
270.0
 51
90.0
  0
ARC
  5
34C
100
AcDbEntity
  8
0
100
AcDbCircle
 62
7
  6
CONTINUOUS
 10
18.5184834891
 20
6.4851708734
 40
0.051
100
AcDbArc
 50
90.0
 51
270.0
  0
ARC
  5
34D
100
AcDbEntity
  8
0
100
AcDbCircle
 62
7
  6
CONTINUOUS
 10
19.0184834891
 20
6.4851708734
 40
0.051
100
AcDbArc
 50
270.0
 51
90.0
  0
ARC
  5
34E
100
AcDbEntity
  8
0
100
AcDbCircle
 62
7
  6
CONTINUOUS
 10
-2.7215165109
 20
10.1661708734
 40
0.05
100
AcDbArc
 50
90.0
 51
270.0
  0
ARC
  5
34F
100
AcDbEntity
  8
0
100
AcDbCircle
 62
7
  6
CONTINUOUS
 10
-2.2215165109
 20
10.1661708734
 40
0.05
100
AcDbArc
 50
270.0
 51
90.0
  0
ARC
  5
350
100
AcDbEntity
  8
0
100
AcDbCircle
 62
7
  6
CONTINUOUS
 10
18.5184834891
 20
4.5861708734
 40
0.05
100
AcDbArc
 50
90.0
 51
270.0
  0
ARC
  5
351
100
AcDbEntity
  8
0
100
AcDbCircle
 62
7
  6
CONTINUOUS
 10
19.0184834891
 20
4.5861708734
 40
0.05
100
AcDbArc
 50
270.0
 51
90.0
  0
ARC
  5
352
100
AcDbEntity
  8
0
100
AcDbCircle
 62
7
  6
CONTINUOUS
 10
18.4399834891
 20
6.7171708734
 40
0.05
100
AcDbArc
 50
180.0
 51
342.1569487529
  0
ARC
  5
353
100
AcDbEntity
  8
0
100
AcDbCircle
 62
7
  6
CONTINUOUS
 10
18.4399834891
 20
7.5171708734
 40
0.05
100
AcDbArc
 50
17.8430512471
 51
180.0
  0
ARC
  5
354
100
AcDbEntity
  8
0
100
AcDbCircle
 62
7
  6
CONTINUOUS
 10
-2.8000165109
 20
12.2971708734
 40
0.05
100
AcDbArc
 50
180.0
 51
342.1569487529
  0
ARC
  5
355
100
AcDbEntity
  8
0
100
AcDbCircle
 62
7
  6
CONTINUOUS
 10
-2.8000165109
 20
13.0971708734
 40
0.05
100
AcDbArc
 50
17.8430512471
 51
180.0
  0
ARC
  5
356
100
AcDbEntity
  8
0
100
AcDbCircle
 62
7
  6
CONTINUOUS
 10
9.5799834891
 20
9.0671708734
 40
0.02
100
AcDbArc
 50
180.0
 51
270.0000566486
  0
ARC
  5
357
100
AcDbEntity
  8
0
100
AcDbCircle
 62
7
  6
CONTINUOUS
 10
10.7399834891
 20
9.0671708734
 40
0.02
100
AcDbArc
 50
269.9999433514
 51
360.0
  0
ARC
  5
358
100
AcDbEntity
  8
0
100
AcDbCircle
 62
7
  6
CONTINUOUS
 10
10.7399834891
 20
13.4636127347
 40
0.02
100
AcDbArc
 50
0.0
 51
90.0000565776
  0
ARC
  5
359
100
AcDbEntity
  8
0
100
AcDbCircle
 62
7
  6
CONTINUOUS
 10
9.5799834891
 20
13.4636127347
 40
0.02
100
AcDbArc
 50
89.9999434224
 51
180.0
  0
ARC
  5
35A
100
AcDbEntity
  8
0
100
AcDbCircle
 62
7
  6
CONTINUOUS
 10
21.3099834891
 20
10.6036127347
 40
0.02
100
AcDbArc
 50
0.0
 51
90.0000565776
  0
ARC
  5
35B
100
AcDbEntity
  8
0
100
AcDbCircle
 62
7
  6
CONTINUOUS
 10
20.1499834891
 20
10.6036127347
 40
0.02
100
AcDbArc
 50
89.9999434224
 51
180.0
  0
ARC
  5
35C
100
AcDbEntity
  8
0
100
AcDbCircle
 62
7
  6
CONTINUOUS
 10
-1.0781848957
 20
11.5021708734
 40
0.01
100
AcDbArc
 50
204.220943109
 51
270.0
  0
ARC
  5
35D
100
AcDbEntity
  8
0
100
AcDbCircle
 62
7
  6
CONTINUOUS
 10
-0.241848126
 20
11.5021708734
 40
0.01
100
AcDbArc
 50
270.0
 51
335.779056891
  0
SPLINE
  5
35E
100
AcDbEntity
  8
0
100
AcDbSpline
 62
7
  6
CONTINUOUS
 70
0
 71
3
 72
32
 73
28
 74
0
 42
0.0000001
 43
0.0000001
 44
0.0000000001
 40
0.0
 40
0.0
 40
0.0
 40
0.0
 40
0.1211355614
 40
0.2350798767
 40
0.3416206694
 40
0.4405739291
 40
0.5317581229
 40
0.614995027
 40
0.6901312388
 40
0.7570312289
 40
0.8155651178
 40
0.8656206884
 40
0.8874522012
 40
0.9071491141
 40
0.9247121543
 40
0.94014637
 40
0.9534639099
 40
0.9646894141
 40
0.9738735845
 40
0.9811201751
 40
0.9840830312
 40
0.9866621569
 40
0.99096332
 40
0.9929627134
 40
0.9950504664
 40
0.9973623565
 40
1.0
 40
1.0
 40
1.0
 40
1.0
 10
-1.4100148159
 20
13.0061542239
 30
0.0
 10
-1.4102204917
 20
13.0094323152
 30
0.0
 10
-1.4106307622
 20
13.0157932037
 30
0.0
 10
-1.411265957
 20
13.0250343237
 30
0.0
 10
-1.4119024497
 20
13.0336723764
 30
0.0
 10
-1.4125395324
 20
13.0416914607
 30
0.0
 10
-1.4131766834
 20
13.0490765181
 30
0.0
 10
-1.4138132404
 20
13.0558132394
 30
0.0
 10
-1.4144492677
 20
13.0618883412
 30
0.0
 10
-1.4150850522
 20
13.0672896269
 30
0.0
 10
-1.4157208897
 20
13.0720055226
 30
0.0
 10
-1.4162729655
 20
13.0754990034
 30
0.0
 10
-1.4167228433
 20
13.0779413048
 30
0.0
 10
-1.4170447427
 20
13.0795110113
 30
0.0
 10
-1.4173665045
 20
13.0809032706
 30
0.0
 10
-1.4176879359
 20
13.0821175375
 30
0.0
 10
-1.4180087809
 20
13.0831533099
 30
0.0
 10
-1.4183286816
 20
13.0840108943
 30
0.0
 10
-1.4186477647
 20
13.084690422
 30
0.0
 10
-1.418929195
 20
13.0851379105
 30
0.0
 10
-1.419161513
 20
13.0853969964
 30
0.0
 10
-1.4193658237
 20
13.0855687838
 30
0.0
 10
-1.4195958345
 20
13.0856716668
 30
0.0
 10
-1.4198264326
 20
13.0856663683
 30
0.0
 10
-1.4199939531
 20
13.0856142133
 30
0.0
 10
-1.4201589402
 20
13.0855156943
 30
0.0
 10
-1.42026025
 20
13.0854267054
 30
0.0
 10
-1.4203108629
 20
13.0853761758
 30
0.0
  0
SPLINE
  5
35F
100
AcDbEntity
  8
0
100
AcDbSpline
 62
7
  6
CONTINUOUS
 70
0
 71
3
 72
46
 73
42
 74
0
 42
0.0000001
 43
0.0000001
 44
0.0000000001
 40
0.0
 40
0.0
 40
0.0
 40
0.0
 40
0.1977361525
 40
0.2941645539
 40
0.3876823923
 40
0.4773313018
 40
0.5622357518
 40
0.6415931818
 40
0.7146036198
 40
0.7484791408
 40
0.7804831587
 40
0.8105493454
 40
0.8386126635
 40
0.8646081092
 40
0.8884707268
 40
0.9101356302
 40
0.92953804
 40
0.9383706789
 40
0.9466158934
 40
0.9542709874
 40
0.9613334935
 40
0.9678009827
 40
0.9736710798
 40
0.9789414893
 40
0.9836100359
 40
0.9876747387
 40
0.9911339475
 40
0.9939866288
 40
0.9951855856
 40
0.9962332131
 40
0.9971300715
 40
0.9978772619
 40
0.998476962
 40
0.9989337965
 40
0.9991119742
 40
0.9992599427
 40
0.9994861221
 40
0.9995887002
 40
0.9997019476
 40
0.9998368193
 40
1.0
 40
1.0
 40
1.0
 40
1.0
 10
-1.4105159732
 20
12.6971621941
 30
0.0
 10
-1.410936107
 20
12.7227562257
 30
0.0
 10
-1.4115610296
 20
12.7608314959
 30
0.0
 10
-1.4124095378
 20
12.8110108581
 30
0.0
 10
-1.4130402738
 20
12.8471997124
 30
0.0
 10
-1.4136708713
 20
12.8818965282
 30
0.0
 10
-1.4143011582
 20
12.9147599305
 30
0.0
 10
-1.4149306751
 20
12.9454690322
 30
0.0
 10
-1.4154667945
 20
12.9695728007
 30
0.0
 10
-1.4158994469
 20
12.9875472824
 30
0.0
 10
-1.41621578
 20
12.9999636918
 30
0.0
 10
-1.4165319637
 20
13.0116274412
 30
0.0
 10
-1.4168479757
 20
13.0225130655
 30
0.0
 10
-1.4171637636
 20
13.0325952651
 30
0.0
 10
-1.4174792439
 20
13.0418487453
 30
0.0
 10
-1.4177943475
 20
13.0502482101
 30
0.0
 10
-1.4180642087
 20
13.056702285
 30
0.0
 10
-1.4182820305
 20
13.0614197346
 30
0.0
 10
-1.4184402119
 20
13.0646175783
 30
0.0
 10
-1.4185983175
 20
13.0675859774
 30
0.0
 10
-1.4187563374
 20
13.0703238987
 30
0.0
 10
-1.4189142437
 20
13.0728303379
 30
0.0
 10
-1.4190720023
 20
13.075104293
 30
0.0
 10
-1.4192295556
 20
13.0771447705
 30
0.0
 10
-1.4193868378
 20
13.0789507801
 30
0.0
 10
-1.4195436749
 20
13.0805213783
 30
0.0
 10
-1.4196999829
 20
13.081855597
 30
0.0
 10
-1.4198360125
 20
13.0828185158
 30
0.0
 10
-1.4199474979
 20
13.0834691947
 30
0.0
 10
-1.4200260178
 20
13.0838685327
 30
0.0
 10
-1.4201043042
 20
13.0842081378
 30
0.0
 10
-1.4201821516
 20
13.0844881493
 30
0.0
 10
-1.4202596777
 20
13.084708572
 30
0.0
 10
-1.4203279315
 20
13.0848537716
 30
0.0
 10
-1.4203854371
 20
13.0849378142
 30
0.0
 10
-1.4204333801
 20
13.0849904146
 30
0.0
 10
-1.4204911789
 20
13.085023646
 30
0.0
 10
-1.4205497195
 20
13.0850174897
 30
0.0
 10
-1.4205907845
 20
13.0849964865
 30
0.0
 10
-1.4206306403
 20
13.0849606052
 30
0.0
 10
-1.4206544535
 20
13.0849300529
 30
0.0
 10
-1.4206665097
 20
13.084912707
 30
0.0
  0
SPLINE
  5
360
100
AcDbEntity
  8
0
100
AcDbSpline
 62
7
  6
CONTINUOUS
 70
0
 71
3
 72
39
 73
35
 74
0
 42
0.0000001
 43
0.0000001
 44
0.0000000001
 40
0.0
 40
0.0
 40
0.0
 40
0.0
 40
0.0005006544
 40
0.0009254618
 40
0.001487341
 40
0.002192034
 40
0.0030425308
 40
0.0040406282
 40
0.0051875307
 40
0.0079302848
 40
0.0112712516
 40
0.0152078231
 40
0.0197367255
 40
0.03055673
 40
0.0437001723
 40
0.0591309883
 40
0.0768097621
 40
0.0966966366
 40
0.1187496702
 40
0.1429230783
 40
0.169170558
 40
0.1974405435
 40
0.2276536197
 40
0.2935545896
 40
0.3661941067
 40
0.4449371503
 40
0.5290485426
 40
0.6177036185
 40
0.6634580714
 40
0.7100130112
 40
0.8050960306
 40
0.8534152477
 40
0.9020998912
 40
1.0
 40
1.0
 40
1.0
 40
1.0
 10
-1.4105197461
 20
12.3093471475
 30
0.0
 10
-1.4105845184
 20
12.3093468359
 30
0.0
 10
-1.4106815115
 20
12.3094554669
 30
0.0
 10
-1.4107631476
 20
12.3096211381
 30
0.0
 10
-1.4108413153
 20
12.3098288501
 30
0.0
 10
-1.4109172454
 20
12.3100910975
 30
0.0
 10
-1.4109945607
 20
12.3104127154
 30
0.0
 10
-1.4110717842
 20
12.3107924282
 30
0.0
 10
-1.4111817885
 20
12.3114152529
 30
0.0
 10
-1.4113157246
 20
12.3123412535
 30
0.0
 10
-1.4114695484
 20
12.3136285679
 30
0.0
 10
-1.4116239438
 20
12.315148286
 30
0.0
 10
-1.4118436539
 20
12.3176337377
 30
0.0
 10
-1.4121112766
 20
12.3213104478
 30
0.0
 10
-1.4124187948
 20
12.3263979299
 30
0.0
 10
-1.4127274528
 20
12.3323740964
 30
0.0
 10
-1.4130370951
 20
12.3392236466
 30
0.0
 10
-1.4133473194
 20
12.3469307051
 30
0.0
 10
-1.4136579714
 20
12.3554786083
 30
0.0
 10
-1.4139689207
 20
12.3648499078
 30
0.0
 10
-1.4142800358
 20
12.3750259359
 30
0.0
 10
-1.4145910988
 20
12.3859836953
 30
0.0
 10
-1.4150185214
 20
12.402070433
 30
0.0
 10
-1.4155480676
 20
12.4238968338
 30
0.0
 10
-1.4161688949
 20
12.4520014417
 30
0.0
 10
-1.4167866174
 20
12.4824626462
 30
0.0
 10
-1.4174062999
 20
12.5149962442
 30
0.0
 10
-1.4179261373
 20
12.5432630056
 30
0.0
 10
-1.4183371395
 20
12.5666720038
 30
0.0
 10
-1.4187446138
 20
12.5909128112
 30
0.0
 10
-1.4191434808
 20
12.6154856293
 30
0.0
 10
-1.4195808962
 20
12.6403333727
 30
0.0
 10
-1.420050502
 20
12.6655450465
 30
0.0
 10
-1.4203980744
 20
12.6845065557
 30
0.0
 10
-1.420601776
 20
12.6971709204
 30
0.0
  0
SPLINE
  5
361
100
AcDbEntity
  8
0
100
AcDbSpline
 62
7
  6
CONTINUOUS
 70
0
 71
3
 72
40
 73
36
 74
0
 42
0.0000001
 43
0.0000001
 44
0.0000000001
 40
0.0
 40
0.0
 40
0.0
 40
0.0
 40
0.0972390922
 40
0.1456276859
 40
0.1936756814
 40
0.2882865443
 40
0.3801901472
 40
0.4685012366
 40
0.5523540535
 40
0.6309470497
 40
0.7035339141
 40
0.7694192434
 40
0.7996491312
 40
0.8279683879
 40
0.8543126205
 40
0.8786242707
 40
0.9008461168
 40
0.9209264059
 40
0.9388190571
 40
0.9544783653
 40
0.9614576734
 40
0.9678655518
 40
0.9736989894
 40
0.9789550037
 40
0.983630655
 40
0.9877230721
 40
0.9912299463
 40
0.9941504061
 40
0.9964841795
 40
0.9974312396
 40
0.9982320289
 40
0.9988870795
 40
0.9993975066
 40
0.999765918
 40
1.0
 40
1.0
 40
1.0
 40
1.0
 10
-1.4206147815
 20
12.6971708734
 30
0.0
 10
-1.420481775
 20
12.6843881284
 30
0.0
 10
-1.4202634611
 20
12.6652445745
 30
0.0
 10
-1.4199723709
 20
12.6397848655
 30
0.0
 10
-1.4196988486
 20
12.6146704971
 30
0.0
 10
-1.4193815042
 20
12.5838356172
 30
0.0
 10
-1.4189872266
 20
12.5477081074
 30
0.0
 10
-1.418586466
 20
12.5129950568
 30
0.0
 10
-1.4181936877
 20
12.4800318979
 30
0.0
 10
-1.417802223
 20
12.449136045
 30
0.0
 10
-1.417409654
 20
12.4206024863
 30
0.0
 10
-1.4170707464
 20
12.3984268191
 30
0.0
 10
-1.4167985282
 20
12.3820704324
 30
0.0
 10
-1.4166022891
 20
12.3709117356
 30
0.0
 10
-1.4164074607
 20
12.3605311754
 30
0.0
 10
-1.4162128166
 20
12.3509523522
 30
0.0
 10
-1.4160169521
 20
12.3421972226
 30
0.0
 10
-1.4158197082
 20
12.3342862249
 30
0.0
 10
-1.4156223658
 20
12.3272382671
 30
0.0
 10
-1.4154529788
 20
12.3219125387
 30
0.0
 10
-1.4153165377
 20
12.3180964049
 30
0.0
 10
-1.4152184695
 20
12.3155714844
 30
0.0
 10
-1.4151206618
 20
12.3132732897
 30
0.0
 10
-1.4150230658
 20
12.3112030373
 30
0.0
 10
-1.4149256679
 20
12.3093619363
 30
0.0
 10
-1.4148284498
 20
12.3077511387
 30
0.0
 10
-1.4147315055
 20
12.3063715333
 30
0.0
 10
-1.4146349555
 20
12.3052237922
 30
0.0
 10
-1.4145506037
 20
12.3044127864
 30
0.0
 10
-1.4144808791
 20
12.3038807425
 30
0.0
 10
-1.4144325164
 20
12.3035684707
 30
0.0
 10
-1.4143845206
 20
12.3033145765
 30
0.0
 10
-1.4143371435
 20
12.3031179946
 30
0.0
 10
-1.4142907366
 20
12.3029799561
 30
0.0
 10
-1.4142533299
 20
12.3029077386
 30
0.0
 10
-1.4142315835
 20
12.3028859649
 30
0.0
  0
SPLINE
  5
362
100
AcDbEntity
  8
0
100
AcDbSpline
 62
7
  6
CONTINUOUS
 70
0
 71
3
 72
14
 73
10
 74
0
 42
0.0000001
 43
0.0000001
 44
0.0000000001
 40
0.0
 40
0.0
 40
0.0
 40
0.0
 40
0.2066687438
 40
0.397325031
 40
0.5682719145
 40
0.7158641415
 40
0.8363233
 40
0.9259334474
 40
1.0
 40
1.0
 40
1.0
 40
1.0
 10
18.7011625719
 20
6.7361708734
 30
0.0
 10
18.6932520137
 20
6.7347731148
 30
0.0
 10
18.6781194995
 20
6.7316384785
 30
0.0
 10
18.6567460811
 20
6.7260329627
 30
0.0
 10
18.6378346779
 20
6.7201764056
 30
0.0
 10
18.6217226678
 20
6.7145489912
 30
0.0
 10
18.6087301834
 20
6.7095991868
 30
0.0
 10
18.5984895314
 20
6.7054622135
 30
0.0
 10
18.592628009
 20
6.7029882687
 30
0.0
 10
18.5899834891
 20
6.7018503416
 30
0.0
  0
SPLINE
  5
363
100
AcDbEntity
  8
0
100
AcDbSpline
 62
7
  6
CONTINUOUS
 70
0
 71
3
 72
13
 73
9
 74
0
 42
0.0000001
 43
0.0000001
 44
0.0000000001
 40
0.0
 40
0.0
 40
0.0
 40
0.0
 40
0.3972625512
 40
0.7158123875
 40
0.8363081385
 40
0.9259078803
 40
0.9812641588
 40
1.0
 40
1.0
 40
1.0
 40
1.0
 10
18.8358044063
 20
6.7361708734
 30
0.0
 10
18.8510074031
 20
6.733484575
 30
0.0
 10
18.8781460207
 20
6.7270934422
 30
0.0
 10
18.9090361202
 20
6.7169108846
 30
0.0
 10
18.928237589
 20
6.7096007885
 30
0.0
 10
18.9378023591
 20
6.7057345942
 30
0.0
 10
18.943666682
 20
6.7032690988
 30
0.0
 10
18.9463143667
 20
6.702137442
 30
0.0
 10
18.9469834891
 20
6.7018503416
 30
0.0
  0
SPLINE
  5
364
100
AcDbEntity
  8
0
100
AcDbSpline
 62
7
  6
CONTINUOUS
 70
0
 71
3
 72
14
 73
10
 74
0
 42
0.0000001
 43
0.0000001
 44
0.0000000001
 40
0.0
 40
0.0
 40
0.0
 40
0.0
 40
0.2066687438
 40
0.397325031
 40
0.5682719145
 40
0.7158641415
 40
0.8363233
 40
0.9259334474
 40
1.0
 40
1.0
 40
1.0
 40
1.0
 10
-2.5388374281
 20
12.3161708734
 30
0.0
 10
-2.5467479863
 20
12.3147731148
 30
0.0
 10
-2.5618805005
 20
12.3116384785
 30
0.0
 10
-2.5832539189
 20
12.3060329627
 30
0.0
 10
-2.6021653221
 20
12.3001764056
 30
0.0
 10
-2.6182773322
 20
12.2945489912
 30
0.0
 10
-2.6312698166
 20
12.2895991868
 30
0.0
 10
-2.6415104686
 20
12.2854622135
 30
0.0
 10
-2.647371991
 20
12.2829882687
 30
0.0
 10
-2.6500165109
 20
12.2818503416
 30
0.0
  0
SPLINE
  5
365
100
AcDbEntity
  8
0
100
AcDbSpline
 62
7
  6
CONTINUOUS
 70
0
 71
3
 72
13
 73
9
 74
0
 42
0.0000001
 43
0.0000001
 44
0.0000000001
 40
0.0
 40
0.0
 40
0.0
 40
0.0
 40
0.3972625512
 40
0.7158123875
 40
0.8363081385
 40
0.9259078803
 40
0.9812641588
 40
1.0
 40
1.0
 40
1.0
 40
1.0
 10
-2.4041955937
 20
12.3161708734
 30
0.0
 10
-2.3889925969
 20
12.313484575
 30
0.0
 10
-2.3618539793
 20
12.3070934422
 30
0.0
 10
-2.3309638798
 20
12.2969108846
 30
0.0
 10
-2.311762411
 20
12.2896007885
 30
0.0
 10
-2.3021976409
 20
12.2857345942
 30
0.0
 10
-2.296333318
 20
12.2832690988
 30
0.0
 10
-2.2936856333
 20
12.282137442
 30
0.0
 10
-2.2930165109
 20
12.2818503416
 30
0.0
  0
LINE
  5
366
100
AcDbEntity
  8
0
100
AcDbLine
 62
7
  6
CONTINUOUS
 10
19.8099838399
 20
7.3994490942
 11
19.8125653108
 21
7.1171708734
  0
SPLINE
  5
367
100
AcDbEntity
  8
0
100
AcDbSpline
 62
7
  6
CONTINUOUS
 70
0
 71
3
 72
37
 73
33
 74
0
 42
0.0000001
 43
0.0000001
 44
0.0000000001
 40
0.0
 40
0.0
 40
0.0
 40
0.0
 40
0.1093201469
 40
0.2143840237
 40
0.3146952929
 40
0.4097601505
 40
0.4990848313
 40
0.5821880031
 40
0.6586804285
 40
0.7282144314
 40
0.7904426996
 40
0.8187087322
 40
0.8450183104
 40
0.8693359238
 40
0.8916398236
 40
0.9119097436
 40
0.9301255194
 40
0.9462671425
 40
0.9603148575
 40
0.9722493461
 40
0.982052118
 40
0.9861488613
 40
0.9897067003
 40
0.992724734
 40
0.9952049343
 40
0.9962446618
 40
0.9971518017
 40
0.9979275738
 40
0.9985738973
 40
0.9990940697
 40
0.9994944443
 40
1.0
 40
1.0
 40
1.0
 40
1.0
 10
19.8299807971
 20
7.3091778838
 30
0.0
 10
19.8298357506
 20
7.3186298893
 30
0.0
 10
19.8295466513
 20
7.3371658252
 30
0.0
 10
19.8291051764
 20
7.3643745388
 30
0.0
 10
19.8286638955
 20
7.3903504051
 30
0.0
 10
19.8282228527
 20
7.4149650718
 30
0.0
 10
19.8277821347
 20
7.4380914759
 30
0.0
 10
19.8273415466
 20
7.4596115786
 30
0.0
 10
19.8269013525
 20
7.4794199679
 30
0.0
 10
19.8264617865
 20
7.4974227931
 30
0.0
 10
19.8260852312
 20
7.5112556453
 30
0.0
 10
19.8257810198
 20
7.5213513204
 30
0.0
 10
19.8255603276
 20
7.5281698017
 30
0.0
 10
19.8253397102
 20
7.5344724386
 30
0.0
 10
19.8251192545
 20
7.5402524752
 30
0.0
 10
19.8248990154
 20
7.5455044648
 30
0.0
 10
19.8246790803
 20
7.5502230909
 30
0.0
 10
19.8244595484
 20
7.5544030391
 30
0.0
 10
19.8242406946
 20
7.5580390389
 30
0.0
 10
19.8240226462
 20
7.5611257955
 30
0.0
 10
19.8238328298
 20
7.5633517921
 30
0.0
 10
19.8236769779
 20
7.5648533376
 30
0.0
 10
19.8235675097
 20
7.5657697571
 30
0.0
 10
19.8234583926
 20
7.5665452758
 30
0.0
 10
19.8233633651
 20
7.5671027295
 30
0.0
 10
19.8232854338
 20
7.5674775938
 30
0.0
 10
19.8232306476
 20
7.5677065608
 30
0.0
 10
19.8231758343
 20
7.5679005958
 30
0.0
 10
19.8231217935
 20
7.5680592887
 30
0.0
 10
19.82306649
 20
7.5681845471
 30
0.0
 10
19.8230063624
 20
7.5682883671
 30
0.0
 10
19.8229378664
 20
7.5683501812
 30
0.0
 10
19.8228941501
 20
7.5683501812
 30
0.0
  0
SPLINE
  5
368
100
AcDbEntity
  8
0
100
AcDbSpline
 62
7
  6
CONTINUOUS
 70
0
 71
3
 72
17
 73
13
 74
0
 42
0.0000001
 43
0.0000001
 44
0.0000000001
 40
0.0
 40
0.0
 40
0.0
 40
0.0
 40
0.0214060707
 40
0.048046275
 40
0.0800839294
 40
0.1176112253
 40
0.209277297
 40
0.3231823012
 40
0.4593161096
 40
0.6176128698
 40
0.7979248605
 40
1.0
 40
1.0
 40
1.0
 40
1.0
 10
19.8145181307
 20
6.6462645925
 30
0.0
 10
19.8144117106
 20
6.6464494666
 30
0.0
 10
19.8142062263
 20
6.6468834218
 30
0.0
 10
19.8139291344
 20
6.6476322906
 30
0.0
 10
19.8136508293
 20
6.648550212
 30
0.0
 10
19.8132515096
 20
6.6501068311
 30
0.0
 10
19.8127669166
 20
6.6524816629
 30
0.0
 10
19.8122111111
 20
6.6558415048
 30
0.0
 10
19.8116517037
 20
6.6598724043
 30
0.0
 10
19.8110888528
 20
6.6645698912
 30
0.0
 10
19.8105234249
 20
6.6699283098
 30
0.0
 10
19.8101653843
 20
6.6737220887
 30
0.0
 10
19.8099846209
 20
6.6757276799
 30
0.0
  0
SPLINE
  5
369
100
AcDbEntity
  8
0
100
AcDbSpline
 62
7
  6
CONTINUOUS
 70
0
 71
3
 72
32
 73
28
 74
0
 42
0.0000001
 43
0.0000001
 44
0.0000000001
 40
0.0
 40
0.0
 40
0.0
 40
0.0
 40
0.2263047163
 40
0.3297219727
 40
0.4263102761
 40
0.5158691702
 40
0.59824163
 40
0.6732720555
 40
0.7408140417
 40
0.8007448567
 40
0.8529460701
 40
0.8973037464
 40
0.9165156841
 40
0.9337401225
 40
0.9489703684
 40
0.9622002743
 40
0.9734246338
 40
0.9826402123
 40
0.9864957245
 40
0.9898514854
 40
0.9927099186
 40
0.9950750711
 40
0.9969542973
 40
0.9983627435
 40
0.9989014754
 40
0.9993412091
 40
1.0
 40
1.0
 40
1.0
 40
1.0
 10
19.8159834891
 20
6.7589444884
 30
0.0
 10
19.8161635132
 20
6.750310003
 30
0.0
 10
19.8164319523
 20
6.7377298307
 30
0.0
 10
19.8168093606
 20
6.7214651221
 30
0.0
 10
19.8170847285
 20
6.7104180328
 30
0.0
 10
19.8173616445
 20
6.7001743753
 30
0.0
 10
19.8176390743
 20
6.690753761
 30
0.0
 10
19.817916332
 20
6.6821737587
 30
0.0
 10
19.8181927553
 20
6.6744506488
 30
0.0
 10
19.8184683309
 20
6.6675993414
 30
0.0
 10
19.8187430625
 20
6.6616335836
 30
0.0
 10
19.8189810457
 20
6.6572218078
 30
0.0
 10
19.8191748987
 20
6.6541445814
 30
0.0
 10
19.819313061
 20
6.6521776767
 30
0.0
 10
19.8194509743
 20
6.6504396724
 30
0.0
 10
19.8195884866
 20
6.6489314141
 30
0.0
 10
19.8197255085
 20
6.6476537605
 30
0.0
 10
19.8198448391
 20
6.6467341412
 30
0.0
 10
19.819942747
 20
6.6461149039
 30
0.0
 10
19.820011571
 20
6.6457367803
 30
0.0
 10
19.8200801785
 20
6.6454165847
 30
0.0
 10
19.8201483253
 20
6.6451540638
 30
0.0
 10
19.8202161962
 20
6.64494916
 30
0.0
 10
19.8202758933
 20
6.6448152643
 30
0.0
 10
19.8203266991
 20
6.6447390735
 30
0.0
 10
19.8203682666
 20
6.6446929082
 30
0.0
 10
19.8204091941
 20
6.6446714526
 30
0.0
 10
19.8204343352
 20
6.6446714088
 30
0.0
  0
SPLINE
  5
36A
100
AcDbEntity
  8
0
100
AcDbSpline
 62
7
  6
CONTINUOUS
 70
0
 71
3
 72
16
 73
12
 74
0
 42
0.0000001
 43
0.0000001
 44
0.0000000001
 40
0.0
 40
0.0
 40
0.0
 40
0.0
 40
0.1411325863
 40
0.2807874758
 40
0.4172879213
 40
0.5490957551
 40
0.6746746205
 40
0.7925735682
 40
0.8482156042
 40
0.9014347004
 40
1.0
 40
1.0
 40
1.0
 40
1.0
 10
19.8125813138
 20
7.1171708734
 30
0.0
 10
19.812720764
 20
7.1003183166
 30
0.0
 10
19.8129869258
 20
7.0667895617
 30
0.0
 10
19.8134041183
 20
7.0169615015
 30
0.0
 10
19.8138383509
 20
6.968247132
 30
0.0
 10
19.8142726574
 20
6.9212137005
 30
0.0
 10
19.8147054773
 20
6.8764016215
 30
0.0
 10
19.8150731566
 20
6.8406845693
 30
0.0
 10
19.815361191
 20
6.8136078889
 30
0.0
 10
19.8156247711
 20
6.7888397834
 30
0.0
 10
19.8158264448
 20
6.7707157795
 30
0.0
 10
19.8159804502
 20
6.7589467613
 30
0.0
  0
SPLINE
  5
36B
100
AcDbEntity
  8
0
100
AcDbSpline
 62
7
  6
CONTINUOUS
 70
0
 71
3
 72
44
 73
40
 74
0
 42
0.0000001
 43
0.0000001
 44
0.0000000001
 40
0.0
 40
0.0
 40
0.0
 40
0.0
 40
0.0203618008
 40
0.0438991787
 40
0.0704460933
 40
0.0998347586
 40
0.1662843208
 40
0.2413545338
 40
0.3229753303
 40
0.4088397886
 40
0.4965642739
 40
0.5836816353
 40
0.6262498883
 40
0.6677635286
 40
0.707928158
 40
0.7464530753
 40
0.783076686
 40
0.8175512028
 40
0.8496289418
 40
0.8790697079
 40
0.9056806373
 40
0.9292874114
 40
0.9399098154
 40
0.9497158877
 40
0.9586850064
 40
0.9668039492
 40
0.974062534
 40
0.9804506458
 40
0.9859582671
 40
0.9905755551
 40
0.992547354
 40
0.9942930632
 40
0.9958116297
 40
0.9971021276
 40
0.9981640873
 40
0.9989985682
 40
0.9996081452
 40
0.9998304795
 40
1.0
 40
1.0
 40
1.0
 40
1.0
 10
19.8299836269
 20
6.7088663229
 30
0.0
 10
19.8297933876
 20
6.7146977528
 30
0.0
 10
19.8294215904
 20
6.7272713199
 30
0.0
 10
19.828903105
 20
6.7474505256
 30
0.0
 10
19.8283831478
 20
6.7702170367
 30
0.0
 10
19.827659105
 20
6.805278191
 30
0.0
 10
19.8267733013
 20
6.85424287
 30
0.0
 10
19.8257430675
 20
6.9181739637
 30
0.0
 10
19.8247108592
 20
6.9876688904
 30
0.0
 10
19.8236765298
 20
7.06079015
 30
0.0
 10
19.8226419196
 20
7.1354865603
 30
0.0
 10
19.8217732627
 20
7.1977778543
 30
0.0
 10
19.8210708846
 20
7.2468287802
 30
0.0
 10
19.8205482872
 20
7.2824269208
 30
0.0
 10
19.820025896
 20
7.3168663467
 30
0.0
 10
19.8195035477
 20
7.3499044024
 30
0.0
 10
19.8189814403
 20
7.381311787
 30
0.0
 10
19.8184597708
 20
7.4108715163
 30
0.0
 10
19.8179386899
 20
7.4383727213
 30
0.0
 10
19.8174179617
 20
7.4636202433
 30
0.0
 10
19.8168980141
 20
7.4864399196
 30
0.0
 10
19.8164517407
 20
7.5038675538
 30
0.0
 10
19.8160904601
 20
7.5164803841
 30
0.0
 10
19.8158293253
 20
7.5249000212
 30
0.0
 10
19.8155683309
 20
7.5326019395
 30
0.0
 10
19.815307596
 20
7.5395734453
 30
0.0
 10
19.8150472643
 20
7.5458048254
 30
0.0
 10
19.8147875688
 20
7.5512872552
 30
0.0
 10
19.814528652
 20
7.5560119029
 30
0.0
 10
19.8143039708
 20
7.5594709503
 30
0.0
 10
19.8141204519
 20
7.5618521982
 30
0.0
 10
19.813990387
 20
7.5633469366
 30
0.0
 10
19.8138607152
 20
7.5646456784
 30
0.0
 10
19.8137314974
 20
7.565747373
 30
0.0
 10
19.8136033064
 20
7.5666517679
 30
0.0
 10
19.8134759627
 20
7.5673584313
 30
0.0
 10
19.8133641844
 20
7.5678236796
 30
0.0
 10
19.8132685742
 20
7.5680943904
 30
0.0
 10
19.8132200134
 20
7.5681962388
 30
0.0
 10
19.8131943596
 20
7.5682374869
 30
0.0
  0
SPLINE
  5
36C
100
AcDbEntity
  8
0
100
AcDbSpline
 62
7
  6
CONTINUOUS
 70
0
 71
3
 72
23
 73
19
 74
0
 42
0.0000001
 43
0.0000001
 44
0.0000000001
 40
0.0
 40
0.0
 40
0.0
 40
0.0
 40
0.0573411019
 40
0.1166086375
 40
0.1775444392
 40
0.2399785127
 40
0.3037812344
 40
0.3686212055
 40
0.4341438542
 40
0.5000001074
 40
0.565856356
 40
0.6313789912
 40
0.6962189409
 40
0.7600216344
 40
0.8224556745
 40
0.8833914394
 40
0.9426589366
 40
1.0
 40
1.0
 40
1.0
 40
1.0
 10
-1.210016406
 20
12.0471708732
 30
0.0
 10
-1.2100163999
 20
12.0501719213
 30
0.0
 10
-1.2103003639
 20
12.056278198
 30
0.0
 10
-1.2115752626
 20
12.0654949223
 30
0.0
 10
-1.2137602843
 20
12.0748152151
 30
0.0
 10
-1.2169088915
 20
12.0841083375
 30
0.0
 10
-1.2210616387
 20
12.0932243054
 30
0.0
 10
-1.226189108
 20
12.1020181855
 30
0.0
 10
-1.2322574449
 20
12.1103253572
 30
0.0
 10
-1.239178347
 20
12.1180090844
 30
0.0
 10
-1.2468620689
 20
12.1249299913
 30
0.0
 10
-1.255169235
 20
12.1309983323
 30
0.0
 10
-1.2639631092
 20
12.1361258052
 30
0.0
 10
-1.273079071
 20
12.1402785553
 30
0.0
 10
-1.2823721873
 20
12.1434271648
 30
0.0
 10
-1.291692474
 20
12.145612188
 30
0.0
 10
-1.3009091921
 20
12.1468870876
 30
0.0
 10
-1.3070154648
 20
12.1471710518
 30
0.0
 10
-1.3100165109
 20
12.1471710457
 30
0.0
  0
SPLINE
  5
36D
100
AcDbEntity
  8
0
100
AcDbSpline
 62
7
  6
CONTINUOUS
 70
0
 71
3
 72
23
 73
19
 74
0
 42
0.0000001
 43
0.0000001
 44
0.0000000001
 40
0.0
 40
0.0
 40
0.0
 40
0.0
 40
0.0573411019
 40
0.1166086375
 40
0.1775444392
 40
0.2399785127
 40
0.3037812344
 40
0.3686212055
 40
0.4341438542
 40
0.5000001074
 40
0.565856356
 40
0.6313789912
 40
0.6962189408
 40
0.7600216343
 40
0.8224556745
 40
0.8833914393
 40
0.9426589366
 40
1.0
 40
1.0
 40
1.0
 40
1.0
 10
-0.1100166157
 20
12.0471708732
 30
0.0
 10
-0.1100166218
 20
12.0501719213
 30
0.0
 10
-0.1097326578
 20
12.056278198
 30
0.0
 10
-0.1084577591
 20
12.0654949223
 30
0.0
 10
-0.1062727374
 20
12.0748152151
 30
0.0
 10
-0.1031241302
 20
12.0841083375
 30
0.0
 10
-0.098971383
 20
12.0932243054
 30
0.0
 10
-0.0938439137
 20
12.1020181854
 30
0.0
 10
-0.0877755768
 20
12.1103253572
 30
0.0
 10
-0.0808546747
 20
12.1180090843
 30
0.0
 10
-0.0731709528
 20
12.1249299912
 30
0.0
 10
-0.0648637867
 20
12.1309983322
 30
0.0
 10
-0.0560699125
 20
12.1361258051
 30
0.0
 10
-0.0469539507
 20
12.1402785552
 30
0.0
 10
-0.0376608344
 20
12.1434271647
 30
0.0
 10
-0.0283405478
 20
12.1456121879
 30
0.0
 10
-0.0191238296
 20
12.1468870876
 30
0.0
 10
-0.0130175569
 20
12.1471710517
 30
0.0
 10
-0.0100165109
 20
12.1471710456
 30
0.0
  0
LINE
  5
36E
100
AcDbEntity
  8
0
100
AcDbLine
 62
9
  6
CONTINUOUS
 10
-1.2100165109
 20
12.0471708734
 11
-0.6600165109
 21
12.6971708734
  0
LINE
  5
36F
100
AcDbEntity
  8
0
100
AcDbLine
 62
9
  6
CONTINUOUS
 10
-0.660016388
 20
12.6971707282
 11
-1.3100161176
 21
12.1471710447
  0
LINE
  5
370
100
AcDbEntity
  8
0
100
AcDbLine
 62
9
  6
CONTINUOUS
 10
-0.0100170505
 20
12.1471711665
 11
-0.6600166353
 21
12.6971707264
  0
LINE
  5
371
100
AcDbEntity
  8
0
100
AcDbLine
 62
9
  6
CONTINUOUS
 10
-0.1100165109
 20
12.0471708734
 11
-0.6600165109
 21
12.6971708734
  0
SPLINE
  5
372
100
AcDbEntity
  8
0
100
AcDbSpline
 62
7
  6
CONTINUOUS
 70
0
 71
3
 72
17
 73
13
 74
0
 42
0.0000001
 43
0.0000001
 44
0.0000000001
 40
0.0
 40
0.0
 40
0.0
 40
0.0
 40
0.1166045786
 40
0.2399487007
 40
0.3038376149
 40
0.368769934
 40
0.4999998997
 40
0.6312298825
 40
0.6961622215
 40
0.7600511619
 40
0.8833953495
 40
1.0
 40
1.0
 40
1.0
 40
1.0
 10
10.8199834891
 20
9.3671710499
 30
0.0
 10
10.8163253056
 20
9.3671710607
 30
0.0
 10
10.8087829202
 20
9.3664707256
 30
0.0
 10
10.799556578
 20
9.3638335712
 30
0.0
 10
10.7923542071
 20
9.3605303489
 30
0.0
 10
10.7853028339
 20
9.3564058172
 30
0.0
 10
10.7772433383
 20
9.349911056
 30
0.0
 10
10.7707485848
 20
9.3418515535
 30
0.0
 10
10.7666240586
 20
9.3348001749
 30
0.0
 10
10.7633208409
 20
9.327597798
 30
0.0
 10
10.7606836916
 20
9.318371449
 30
0.0
 10
10.7599833598
 20
9.3108290591
 30
0.0
 10
10.7599833719
 20
9.3071708734
 30
0.0
  0
SPLINE
  5
373
100
AcDbEntity
  8
0
100
AcDbSpline
 62
7
  6
CONTINUOUS
 70
0
 71
3
 72
17
 73
13
 74
0
 42
0.0000001
 43
0.0000001
 44
0.0000000001
 40
0.0
 40
0.0
 40
0.0
 40
0.0
 40
0.1166045616
 40
0.2399486744
 40
0.3038375873
 40
0.3687699071
 40
0.4999998781
 40
0.6312298698
 40
0.6961622138
 40
0.7600511586
 40
0.883395351
 40
1.0
 40
1.0
 40
1.0
 40
1.0
 10
10.8199834891
 20
10.3071706728
 30
0.0
 10
10.8163253046
 20
10.3071706604
 30
0.0
 10
10.8087829164
 20
10.307870993
 30
0.0
 10
10.7995565703
 20
10.3105081461
 30
0.0
 10
10.7923541961
 20
10.3138113688
 30
0.0
 10
10.7853028193
 20
10.3179359018
 30
0.0
 10
10.7772433199
 20
10.3244306663
 30
0.0
 10
10.7707485645
 20
10.3324901738
 30
0.0
 10
10.7666240378
 20
10.339541557
 30
0.0
 10
10.7633208205
 20
10.3467439383
 30
0.0
 10
10.7606836733
 20
10.3559702925
 30
0.0
 10
10.7599833443
 20
10.3635126862
 30
0.0
 10
10.7599833581
 20
10.3671708735
 30
0.0
  0
SPLINE
  5
374
100
AcDbEntity
  8
0
100
AcDbSpline
 62
9
  6
CONTINUOUS
 70
0
 71
3
 72
71
 73
67
 74
0
 42
0.0000001
 43
0.0000001
 44
0.0000000001
 40
0.0
 40
0.0
 40
0.0
 40
0.0
 40
0.000051821
 40
0.0001160683
 40
0.0002057677
 40
0.0004612055
 40
0.0008174999
 40
0.0012740164
 40
0.0018301206
 40
0.0024851781
 40
0.0032385546
 40
0.0050377272
 40
0.0072225646
 40
0.0097879936
 40
0.0127289418
 40
0.0160393544
 40
0.0197092458
 40
0.0280836089
 40
0.0377643734
 40
0.0486639707
 40
0.0606954612
 40
0.0737741596
 40
0.0878161405
 40
0.1027377577
 40
0.1349114161
 40
0.1697584418
 40
0.2067973206
 40
0.2456414032
 40
0.2859493252
 40
0.327411432
 40
0.3697883202
 40
0.4128346911
 40
0.4563122847
 40
0.5000004426
 40
0.5436886176
 40
0.58716632
 40
0.6302128526
 40
0.6725896457
 40
0.7140517732
 40
0.754359781
 40
0.7932038174
 40
0.8302425799
 40
0.8650895255
 40
0.8972631248
 40
0.9121847064
 40
0.926226644
 40
0.9393052898
 40
0.9513367173
 40
0.9622362404
 40
0.971916921
 40
0.9802911922
 40
0.9839610353
 40
0.9872713983
 40
0.9902122961
 40
0.9927776748
 40
0.9949624631
 40
0.9967615889
 40
0.9975149431
 40
0.9981699793
 40
0.9987260633
 40
0.9991825609
 40
0.9995388377
 40
0.9997942594
 40
0.9998839513
 40
0.9999481916
 40
1.0
 40
1.0
 40
1.0
 40
1.0
 10
10.8199834793
 20
9.3671710499
 30
0.0
 10
10.819969769
 20
9.3671842898
 30
0.0
 10
10.8199424215
 20
9.3672172074
 30
0.0
 10
10.8198908212
 20
9.3672725336
 30
0.0
 10
10.8197899894
 20
9.3673843831
 30
0.0
 10
10.8196163132
 20
9.3675751328
 30
0.0
 10
10.8193525176
 20
9.3678663142
 30
0.0
 10
10.8190143801
 20
9.3682393494
 30
0.0
 10
10.818602704
 20
9.3686940393
 30
0.0
 10
10.8181179188
 20
9.3692298218
 30
0.0
 10
10.81732673
 20
9.3701049365
 30
0.0
 10
10.8161589761
 20
9.3713981092
 30
0.0
 10
10.8145459192
 20
9.3731871515
 30
0.0
 10
10.8126532775
 20
9.3752895423
 30
0.0
 10
10.8104855354
 20
9.3777012991
 30
0.0
 10
10.8080484178
 20
9.3804171243
 30
0.0
 10
10.8042811891
 20
9.384624394
 30
0.0
 10
10.7989632395
 20
9.3905881195
 30
0.0
 10
10.7919015426
 20
9.3985595608
 30
0.0
 10
10.7839815661
 20
9.4075675388
 30
0.0
 10
10.7752780717
 20
9.4175506051
 30
0.0
 10
10.7658703601
 20
9.4284528224
 30
0.0
 10
10.7558369605
 20
9.4402188556
 30
0.0
 10
10.7413594352
 20
9.4574244056
 30
0.0
 10
10.7222158402
 20
9.4807036556
 30
0.0
 10
10.6984861053
 20
9.5107357144
 30
0.0
 10
10.6740137362
 20
9.5432958627
 30
0.0
 10
10.6494540759
 20
9.5782791979
 30
0.0
 10
10.6254446611
 20
9.6156017918
 30
0.0
 10
10.6029138827
 20
9.655350947
 30
0.0
 10
10.5828330139
 20
9.6975356415
 30
0.0
 10
10.5666099208
 20
9.7421819845
 30
0.0
 10
10.5558432651
 20
9.7889990136
 30
0.0
 10
10.5520357563
 20
9.8371713731
 30
0.0
 10
10.5558434048
 20
9.8853437536
 30
0.0
 10
10.5666101329
 20
9.932160886
 30
0.0
 10
10.5828336108
 20
9.9768071535
 30
0.0
 10
10.6029143528
 20
10.0189919359
 30
0.0
 10
10.6254452925
 20
10.0587410145
 30
0.0
 10
10.6494548959
 20
10.0960635098
 30
0.0
 10
10.6740145661
 20
10.1310468019
 30
0.0
 10
10.6984868529
 20
10.1636069003
 30
0.0
 10
10.7222165217
 20
10.1936388917
 30
0.0
 10
10.7413600761
 20
10.2169180919
 30
0.0
 10
10.7558375679
 20
10.2341236036
 30
0.0
 10
10.7658709357
 20
10.2458896005
 30
0.0
 10
10.7752786095
 20
10.2567917733
 30
0.0
 10
10.7839820595
 20
10.2667747856
 30
0.0
 10
10.7919019859
 20
10.2757826994
 30
0.0
 10
10.7989636262
 20
10.2837540678
 30
0.0
 10
10.8042815249
 20
10.2897177285
 30
0.0
 10
10.8080487096
 20
10.2939249439
 30
0.0
 10
10.8104857922
 20
10.2966407273
 30
0.0
 10
10.8126534982
 20
10.2990524422
 30
0.0
 10
10.8145461034
 20
10.3011547918
 30
0.0
 10
10.8161591242
 20
10.3029437941
 30
0.0
 10
10.8173268486
 20
10.3042369348
 30
0.0
 10
10.8181180147
 20
10.3051120251
 30
0.0
 10
10.8186027839
 20
10.3056477905
 30
0.0
 10
10.8190144446
 20
10.3061024644
 30
0.0
 10
10.8193525681
 20
10.3064754841
 30
0.0
 10
10.8196163492
 20
10.3067666526
 30
0.0
 10
10.8197900171
 20
10.3069573892
 30
0.0
 10
10.8198908381
 20
10.3070692337
 30
0.0
 10
10.8199424367
 20
10.3071245474
 30
0.0
 10
10.8199697692
 20
10.30715747
 30
0.0
 10
10.8199834824
 20
10.3071707003
 30
0.0
  0
SPLINE
  5
375
100
AcDbEntity
  8
0
100
AcDbSpline
 62
9
  6
CONTINUOUS
 70
0
 71
3
 72
101
 73
97
 74
0
 42
0.0000001
 43
0.0000001
 44
0.0000000001
 40
0.0
 40
0.0
 40
0.0
 40
0.0
 40
0.000003308
 40
0.0000130269
 40
0.0000291529
 40
0.0000516821
 40
0.0001159344
 40
0.0002057524
 40
0.0003211046
 40
0.0004619596
 40
0.0006282861
 40
0.0008200525
 40
0.0012797789
 40
0.0018407926
 40
0.0025025575
 40
0.0032645143
 40
0.0041261042
 40
0.0050867634
 40
0.0073020218
 40
0.0099024173
 40
0.0128796561
 40
0.0162244884
 40
0.0199271268
 40
0.0239773387
 40
0.0283638166
 40
0.0330750941
 40
0.038099677
 40
0.0490426806
 40
0.0611003372
 40
0.0741808392
 40
0.0881978731
 40
0.1030700105
 40
0.1187208635
 40
0.1350814333
 40
0.1520880911
 40
0.1696833648
 40
0.2064353715
 40
0.2255043503
 40
0.2449826752
 40
0.2850316385
 40
0.3055453564
 40
0.3263481996
 40
0.3474152899
 40
0.3687228076
 40
0.4119431548
 40
0.4338104768
 40
0.455801895
 40
0.4778790708
 40
0.5000001931
 40
0.5221213171
 40
0.5441985008
 40
0.5661898969
 40
0.588057183
 40
0.6312775587
 40
0.6525851133
 40
0.6736522745
 40
0.6944550592
 40
0.7149687049
 40
0.755017478
 40
0.7744957451
 40
0.7935647269
 40
0.8303166811
 40
0.8479119657
 40
0.8649186555
 40
0.8812791892
 40
0.8969299948
 40
0.9118021217
 40
0.9258191506
 40
0.9388996451
 40
0.9509573135
 40
0.9619003347
 40
0.9669249227
 40
0.9716361994
 40
0.9760226711
 40
0.9800728755
 40
0.9837755075
 40
0.9871203346
 40
0.990097572
 40
0.9926979697
 40
0.9949132404
 40
0.9958739113
 40
0.9967355135
 40
0.9974974814
 40
0.9981592543
 40
0.9987202713
 40
0.9991799943
 40
0.9993717565
 40
0.9995380776
 40
0.9996789265
 40
0.999794272
 40
0.9998840832
 40
0.9999483289
 40
0.999970855
 40
0.9999869781
 40
0.9999966944
 40
1.0
 40
1.0
 40
1.0
 40
1.0
 10
10.7599834891
 20
9.3071708734
 30
0.0
 10
10.759983174
 20
9.3071721407
 30
0.0
 10
10.7599791431
 20
9.3071758516
 30
0.0
 10
10.7599733783
 20
9.3071856188
 30
0.0
 10
10.7599616116
 20
9.3072008263
 30
0.0
 10
10.7599380683
 20
9.3072338439
 30
0.0
 10
10.7598968068
 20
9.3072901075
 30
0.0
 10
10.7598343257
 20
9.3073761469
 30
0.0
 10
10.7597538505
 20
9.3074865376
 30
0.0
 10
10.7596556298
 20
9.3076213511
 30
0.0
 10
10.7595395953
 20
9.3077805152
 30
0.0
 10
10.7593493816
 20
9.3080413793
 30
0.0
 10
10.7590672853
 20
9.3084280791
 30
0.0
 10
10.7586757695
 20
9.3089646205
 30
0.0
 10
10.7582139963
 20
9.3095975936
 30
0.0
 10
10.7576824627
 20
9.3103265522
 30
0.0
 10
10.7570816793
 20
9.311151047
 30
0.0
 10
10.7561435353
 20
9.3124395893
 30
0.0
 10
10.7548025705
 20
9.3142839348
 30
0.0
 10
10.7529955024
 20
9.3167736477
 30
0.0
 10
10.7509288078
 20
9.3196259155
 30
0.0
 10
10.7486099888
 20
9.3228328467
 30
0.0
 10
10.7460471881
 20
9.326386064
 30
0.0
 10
10.7432489622
 20
9.3302764821
 30
0.0
 10
10.7402242545
 20
9.3344944721
 30
0.0
 10
10.7369822347
 20
9.3390299496
 30
0.0
 10
10.7322461316
 20
9.3456790001
 30
0.0
 10
10.7258535922
 20
9.3547087726
 30
0.0
 10
10.7176745967
 20
9.3663701863
 30
0.0
 10
10.7088612042
 20
9.3790687073
 30
0.0
 10
10.6994924198
 20
9.3927339175
 30
0.0
 10
10.6896446033
 20
9.4073005609
 30
0.0
 10
10.6793907825
 20
9.4227089282
 30
0.0
 10
10.668804428
 20
9.4389074304
 30
0.0
 10
10.6579565995
 20
9.455851144
 30
0.0
 10
10.6430194556
 20
9.4797331877
 30
0.0
 10
10.6280942409
 20
9.5045819309
 30
0.0
 10
10.6133657159
 20
9.5304038407
 30
0.0
 10
10.5984557687
 20
9.5576149657
 30
0.0
 10
10.5840878744
 20
9.5857710133
 30
0.0
 10
10.5705613561
 20
9.6149082164
 30
0.0
 10
10.5608227143
 20
9.6375318913
 30
0.0
 10
10.5517028576
 20
9.6607511435
 30
0.0
 10
10.540499629
 20
9.6926349135
 30
0.0
 10
10.5311675422
 20
9.7254978737
 30
0.0
 10
10.524269428
 20
9.7591884642
 30
0.0
 10
10.5204345346
 20
9.7849480418
 30
0.0
 10
10.5180787933
 20
9.8109863189
 30
0.0
 10
10.5172835876
 20
9.8371711013
 30
0.0
 10
10.5180787197
 20
9.8633558945
 30
0.0
 10
10.5204346606
 20
9.8893941487
 30
0.0
 10
10.5242695083
 20
9.9151537097
 30
0.0
 10
10.5311676114
 20
9.9488442933
 30
0.0
 10
10.5404998044
 20
9.9817072375
 30
0.0
 10
10.5517030878
 20
10.0135910417
 30
0.0
 10
10.560822801
 20
10.0368103718
 30
0.0
 10
10.5705615216
 20
10.0594339891
 30
0.0
 10
10.5840880492
 20
10.0885710466
 30
0.0
 10
10.5984558864
 20
10.1167269828
 30
0.0
 10
10.6133658738
 20
10.143937974
 30
0.0
 10
10.628094172
 20
10.1697599645
 30
0.0
 10
10.643019516
 20
10.1946086156
 30
0.0
 10
10.657956692
 20
10.2184906334
 30
0.0
 10
10.6688044349
 20
10.2354344051
 30
0.0
 10
10.6793908017
 20
10.2516328754
 30
0.0
 10
10.6896446391
 20
10.2670411868
 30
0.0
 10
10.6994924113
 20
10.2816078302
 30
0.0
 10
10.7088611861
 20
10.2952730361
 30
0.0
 10
10.7176746012
 20
10.3079715411
 30
0.0
 10
10.7258535963
 20
10.3196329655
 30
0.0
 10
10.7322461314
 20
10.3286627578
 30
0.0
 10
10.7369822338
 20
10.3353118194
 30
0.0
 10
10.7402242547
 20
10.3398472951
 30
0.0
 10
10.7432489653
 20
10.3440652761
 30
0.0
 10
10.7460471941
 20
10.3479556823
 30
0.0
 10
10.7486099959
 20
10.3515088895
 30
0.0
 10
10.7509288151
 20
10.3547158142
 30
0.0
 10
10.7529955108
 20
10.3575680791
 30
0.0
 10
10.7548025798
 20
10.3600577977
 30
0.0
 10
10.7561435429
 20
10.3619021572
 30
0.0
 10
10.7570816834
 20
10.3631907197
 30
0.0
 10
10.7576824652
 20
10.3640152329
 30
0.0
 10
10.758213997
 20
10.3647442082
 30
0.0
 10
10.7586757686
 20
10.3653771934
 30
0.0
 10
10.7590672834
 20
10.3659137394
 30
0.0
 10
10.7593493815
 20
10.3663004358
 30
0.0
 10
10.7595395969
 20
10.3665612921
 30
0.0
 10
10.759655632
 20
10.3667204483
 30
0.0
 10
10.7597538529
 20
10.3668552526
 30
0.0
 10
10.7598343284
 20
10.3669656336
 30
0.0
 10
10.7598968087
 20
10.3670516636
 30
0.0
 10
10.7599380711
 20
10.367107919
 30
0.0
 10
10.7599616126
 20
10.3671409313
 30
0.0
 10
10.7599733812
 20
10.367156134
 30
0.0
 10
10.759979141
 20
10.3671658995
 30
0.0
 10
10.7599831756
 20
10.3671696067
 30
0.0
 10
10.7599834891
 20
10.3671708734
 30
0.0
  0
SPLINE
  5
376
100
AcDbEntity
  8
0
100
AcDbSpline
 62
7
  6
CONTINUOUS
 70
0
 71
3
 72
17
 73
13
 74
0
 42
0.0000001
 43
0.0000001
 44
0.0000000001
 40
0.0
 40
0.0
 40
0.0
 40
0.0
 40
0.1166045788
 40
0.2399487009
 40
0.3038376152
 40
0.3687699342
 40
0.4999998999
 40
0.6312298826
 40
0.6961622216
 40
0.7600511619
 40
0.8833953495
 40
1.0
 40
1.0
 40
1.0
 40
1.0
 10
9.4999834891
 20
13.1671706972
 30
0.0
 10
9.5036416726
 20
13.1671706863
 30
0.0
 10
9.511184058
 20
13.1678710215
 30
0.0
 10
9.5204104002
 20
13.1705081759
 30
0.0
 10
9.5276127711
 20
13.1738113982
 30
0.0
 10
9.5346641443
 20
13.1779359299
 30
0.0
 10
9.5427236398
 20
13.184430691
 30
0.0
 10
9.5492183932
 20
13.1924901935
 30
0.0
 10
9.5533429194
 20
13.1995415721
 30
0.0
 10
9.5566461372
 20
13.2067439489
 30
0.0
 10
9.5592832865
 20
13.2159702978
 30
0.0
 10
9.5599836184
 20
13.2235126877
 30
0.0
 10
9.5599836062
 20
13.2271708735
 30
0.0
  0
SPLINE
  5
377
100
AcDbEntity
  8
0
100
AcDbSpline
 62
7
  6
CONTINUOUS
 70
0
 71
3
 72
17
 73
13
 74
0
 42
0.0000001
 43
0.0000001
 44
0.0000000001
 40
0.0
 40
0.0
 40
0.0
 40
0.0
 40
0.1166045618
 40
0.2399486747
 40
0.3038375876
 40
0.3687699074
 40
0.4999998783
 40
0.6312298699
 40
0.6961622139
 40
0.7600511586
 40
0.883395351
 40
1.0
 40
1.0
 40
1.0
 40
1.0
 10
9.4999834891
 20
12.2271710738
 30
0.0
 10
9.5036416737
 20
12.2271710861
 30
0.0
 10
9.5111840618
 20
12.2264707535
 30
0.0
 10
9.5204104079
 20
12.2238336004
 30
0.0
 10
9.5276127821
 20
12.2205303777
 30
0.0
 10
9.5346641588
 20
12.2164058448
 30
0.0
 10
9.5427236581
 20
12.2099110803
 30
0.0
 10
9.5492184136
 20
12.2018515728
 30
0.0
 10
9.5533429402
 20
12.1948001896
 30
0.0
 10
9.5566461576
 20
12.1875978084
 30
0.0
 10
9.5592833048
 20
12.1783714542
 30
0.0
 10
9.5599836338
 20
12.1708290606
 30
0.0
 10
9.5599836201
 20
12.1671708734
 30
0.0
  0
SPLINE
  5
378
100
AcDbEntity
  8
0
100
AcDbSpline
 62
9
  6
CONTINUOUS
 70
0
 71
3
 72
71
 73
67
 74
0
 42
0.0000001
 43
0.0000001
 44
0.0000000001
 40
0.0
 40
0.0
 40
0.0
 40
0.0
 40
0.0000518208
 40
0.0001160679
 40
0.0002057672
 40
0.0004612048
 40
0.000817499
 40
0.0012740154
 40
0.0018301195
 40
0.0024851769
 40
0.0032385532
 40
0.0050377257
 40
0.0072225629
 40
0.0097879917
 40
0.0127289396
 40
0.0160393517
 40
0.0197092426
 40
0.0280836043
 40
0.0377643674
 40
0.0486639632
 40
0.0606954521
 40
0.073774149
 40
0.0878161284
 40
0.1027377439
 40
0.1349113987
 40
0.1697584218
 40
0.2067973006
 40
0.2456413853
 40
0.2859493112
 40
0.3274114226
 40
0.3697883148
 40
0.4128346886
 40
0.4563122836
 40
0.5000004427
 40
0.5436886189
 40
0.5871663227
 40
0.6302128581
 40
0.6725896553
 40
0.7140517872
 40
0.754359799
 40
0.7932038376
 40
0.8302426
 40
0.8650895429
 40
0.8972631387
 40
0.9121847186
 40
0.9262266546
 40
0.939305299
 40
0.9513367249
 40
0.9622362465
 40
0.9719169256
 40
0.9802911955
 40
0.9839610381
 40
0.9872714006
 40
0.9902122981
 40
0.9927776766
 40
0.9949624647
 40
0.9967615902
 40
0.9975149443
 40
0.9981699804
 40
0.9987260643
 40
0.9991825617
 40
0.9995388383
 40
0.9997942599
 40
0.9998839517
 40
0.9999481919
 40
1.0
 40
1.0
 40
1.0
 40
1.0
 10
9.4999835241
 20
13.1671706971
 30
0.0
 10
9.4999972342
 20
13.1671574571
 30
0.0
 10
9.5000245819
 20
13.1671245399
 30
0.0
 10
9.5000761819
 20
13.1670692137
 30
0.0
 10
9.5001770137
 20
13.1669573644
 30
0.0
 10
9.5003506898
 20
13.1667666148
 30
0.0
 10
9.5006144852
 20
13.1664754336
 30
0.0
 10
9.5009526226
 20
13.1661023985
 30
0.0
 10
9.5013642986
 20
13.1656477086
 30
0.0
 10
9.5018490838
 20
13.1651119262
 30
0.0
 10
9.5026402725
 20
13.1642368117
 30
0.0
 10
9.5038080263
 20
13.1629436391
 30
0.0
 10
9.5054210831
 20
13.1611545971
 30
0.0
 10
9.5073137247
 20
13.1590522066
 30
0.0
 10
9.5094814666
 20
13.1566404501
 30
0.0
 10
9.511918584
 20
13.1539246252
 30
0.0
 10
9.5156858123
 20
13.1497173563
 30
0.0
 10
9.5210037613
 20
13.1437536317
 30
0.0
 10
9.5280654572
 20
13.1357821918
 30
0.0
 10
9.5359854329
 20
13.1267742153
 30
0.0
 10
9.5446889264
 20
13.1167911504
 30
0.0
 10
9.5540966372
 20
13.1058889346
 30
0.0
 10
9.5641300359
 20
13.0941229027
 30
0.0
 10
9.5786075598
 20
13.0769173549
 30
0.0
 10
9.5977511533
 20
13.0536381072
 30
0.0
 10
9.621480887
 20
13.0236060504
 30
0.0
 10
9.6459532569
 20
12.9910459028
 30
0.0
 10
9.6705129195
 20
12.9560625662
 30
0.0
 10
9.6945223369
 20
12.9187399692
 30
0.0
 10
9.7170531182
 20
12.8789908103
 30
0.0
 10
9.7371339898
 20
12.8368061123
 30
0.0
 10
9.753357082
 20
12.7921597656
 30
0.0
 10
9.7641237391
 20
12.7453427347
 30
0.0
 10
9.7679312479
 20
12.6971703737
 30
0.0
 10
9.7641235994
 20
12.6489979916
 30
0.0
 10
9.7533568699
 20
12.6021808573
 30
0.0
 10
9.7371333928
 20
12.5575345862
 30
0.0
 10
9.717052648
 20
12.5153498003
 30
0.0
 10
9.6945217054
 20
12.475600718
 30
0.0
 10
9.6705120993
 20
12.4382782196
 30
0.0
 10
9.645952427
 20
12.4032949262
 30
0.0
 10
9.6214801394
 20
12.3707348285
 30
0.0
 10
9.5977504718
 20
12.3407028391
 30
0.0
 10
9.5786069189
 20
12.3174236412
 30
0.0
 10
9.5641294285
 20
12.3002181316
 30
0.0
 10
9.5540960615
 20
12.2884521362
 30
0.0
 10
9.5446883886
 20
12.2775499649
 30
0.0
 10
9.5359849394
 20
12.267566954
 30
0.0
 10
9.5280650139
 20
12.2585590416
 30
0.0
 10
9.5210033744
 20
12.2505876745
 30
0.0
 10
9.5156854765
 20
12.2446240149
 30
0.0
 10
9.5119182922
 20
12.2404168002
 30
0.0
 10
9.5094812098
 20
12.2377010172
 30
0.0
 10
9.507313504
 20
12.2352893026
 30
0.0
 10
9.505420899
 20
12.2331869533
 30
0.0
 10
9.5038078782
 20
12.2313979512
 30
0.0
 10
9.5026401539
 20
12.2301048107
 30
0.0
 10
9.5018489879
 20
12.2292297205
 30
0.0
 10
9.5013642187
 20
12.2286939552
 30
0.0
 10
9.5009525581
 20
12.2282392814
 30
0.0
 10
9.5006144347
 20
12.2278662618
 30
0.0
 10
9.5003506537
 20
12.2275750935
 30
0.0
 10
9.500176986
 20
12.227384357
 30
0.0
 10
9.500076165
 20
12.2272725127
 30
0.0
 10
9.5000245667
 20
12.227217199
 30
0.0
 10
9.499997234
 20
12.2271842767
 30
0.0
 10
9.4999835211
 20
12.2271710463
 30
0.0
  0
SPLINE
  5
379
100
AcDbEntity
  8
0
100
AcDbSpline
 62
9
  6
CONTINUOUS
 70
0
 71
3
 72
101
 73
97
 74
0
 42
0.0000001
 43
0.0000001
 44
0.0000000001
 40
0.0
 40
0.0
 40
0.0
 40
0.0
 40
0.000003308
 40
0.0000130268
 40
0.0000291528
 40
0.000051682
 40
0.0001159343
 40
0.0002057523
 40
0.0003211046
 40
0.0004619597
 40
0.0006282863
 40
0.0008200528
 40
0.0012797794
 40
0.0018407938
 40
0.0025025595
 40
0.0032645172
 40
0.0041261073
 40
0.0050867661
 40
0.0073020251
 40
0.009902422
 40
0.0128796622
 40
0.0162244965
 40
0.0199271354
 40
0.0239773478
 40
0.0283638274
 40
0.0330751072
 40
0.0380996923
 40
0.0490426987
 40
0.0611003597
 40
0.0741808664
 40
0.0881979071
 40
0.1030700506
 40
0.1187209059
 40
0.1350814742
 40
0.152088135
 40
0.1696834139
 40
0.2064354148
 40
0.2255043948
 40
0.2449827132
 40
0.285031633
 40
0.3055453297
 40
0.3263481488
 40
0.3474152357
 40
0.3687227503
 40
0.4119431006
 40
0.4338104214
 40
0.4558018455
 40
0.4778790291
 40
0.5000001558
 40
0.522121287
 40
0.544198473
 40
0.5661898698
 40
0.5880571602
 40
0.6312775436
 40
0.6525850946
 40
0.6736522407
 40
0.6944550156
 40
0.7149686591
 40
0.7550174091
 40
0.7744956788
 40
0.7935646704
 40
0.8303166188
 40
0.8479119131
 40
0.8649186128
 40
0.8812791505
 40
0.8969299597
 40
0.9118020913
 40
0.9258191244
 40
0.9388996222
 40
0.9509572948
 40
0.9619003192
 40
0.9669249096
 40
0.9716361887
 40
0.9760226621
 40
0.9800728671
 40
0.9837754997
 40
0.9871203289
 40
0.9900975676
 40
0.9926979667
 40
0.9949132379
 40
0.9958739085
 40
0.996735511
 40
0.9974974796
 40
0.9981592533
 40
0.9987202709
 40
0.9991799941
 40
0.9993717564
 40
0.9995380776
 40
0.9996789265
 40
0.9997942721
 40
0.9998840833
 40
0.999948329
 40
0.9999708551
 40
0.9999869782
 40
0.9999966944
 40
1.0
 40
1.0
 40
1.0
 40
1.0
 10
9.5599834891
 20
13.2271708734
 30
0.0
 10
9.5599838043
 20
13.2271696061
 30
0.0
 10
9.5599878351
 20
13.2271658953
 30
0.0
 10
9.5599936
 20
13.2271561281
 30
0.0
 10
9.5600053667
 20
13.2271409207
 30
0.0
 10
9.56002891
 20
13.2271079032
 30
0.0
 10
9.5600701717
 20
13.2270516396
 30
0.0
 10
9.5601326528
 20
13.2269656002
 30
0.0
 10
9.5602131282
 20
13.2268552095
 30
0.0
 10
9.560311349
 20
13.226720396
 30
0.0
 10
9.5604273836
 20
13.2265612317
 30
0.0
 10
9.5606175973
 20
13.2263003675
 30
0.0
 10
9.5608996936
 20
13.2259136672
 30
0.0
 10
9.5612912095
 20
13.225377125
 30
0.0
 10
9.561752983
 20
13.2247441511
 30
0.0
 10
9.562284517
 20
13.2240151918
 30
0.0
 10
9.5628853006
 20
13.2231906967
 30
0.0
 10
9.5638234451
 20
13.2219021546
 30
0.0
 10
9.5651644107
 20
13.2200578089
 30
0.0
 10
9.5669714796
 20
13.2175680949
 30
0.0
 10
9.5690381743
 20
13.2147158249
 30
0.0
 10
9.5713569941
 20
13.2115088925
 30
0.0
 10
9.5739197959
 20
13.2079556745
 30
0.0
 10
9.5767180232
 20
13.2040652561
 30
0.0
 10
9.5797427321
 20
13.1998472647
 30
0.0
 10
9.582984752
 20
13.1953117843
 30
0.0
 10
9.5877208565
 20
13.1886627313
 30
0.0
 10
9.5941133994
 20
13.1796329566
 30
0.0
 10
9.6022923964
 20
13.1679715383
 30
0.0
 10
9.6111057932
 20
13.1552730127
 30
0.0
 10
9.6204745822
 20
13.1416077972
 30
0.0
 10
9.6303223971
 20
13.1270411454
 30
0.0
 10
9.6405762235
 20
13.1116327787
 30
0.0
 10
9.6511625843
 20
13.0954342788
 30
0.0
 10
9.6620104024
 20
13.0784905553
 30
0.0
 10
9.6769475387
 20
13.054608506
 30
0.0
 10
9.6918727862
 20
13.029759782
 30
0.0
 10
9.7066012785
 20
13.0039378583
 30
0.0
 10
9.7215112003
 20
12.9767267419
 30
0.0
 10
9.7358791169
 20
12.9485707374
 30
0.0
 10
9.7494056184
 20
12.9194335648
 30
0.0
 10
9.7591442419
 20
12.8968099027
 30
0.0
 10
9.7682640829
 20
12.8735906579
 30
0.0
 10
9.779467348
 20
12.8417069016
 30
0.0
 10
9.7887993956
 20
12.8088439321
 30
0.0
 10
9.7956975673
 20
12.7751533496
 30
0.0
 10
9.7995324083
 20
12.7493937593
 30
0.0
 10
9.8018882016
 20
12.7233554807
 30
0.0
 10
9.8026833962
 20
12.6971706886
 30
0.0
 10
9.8018882385
 20
12.670985892
 30
0.0
 10
9.7995323414
 20
12.6449476296
 30
0.0
 10
9.7956974635
 20
12.6191880698
 30
0.0
 10
9.7887993807
 20
12.5854974775
 30
0.0
 10
9.7794671724
 20
12.5526345339
 30
0.0
 10
9.7682639134
 20
12.5207507258
 30
0.0
 10
9.7591441801
 20
12.4975314152
 30
0.0
 10
9.7494054539
 20
12.4749078128
 30
0.0
 10
9.7358789935
 20
12.4457707391
 30
0.0
 10
9.7215111027
 20
12.417614839
 30
0.0
 10
9.7066011239
 20
12.3904038487
 30
0.0
 10
9.6918728705
 20
12.3645818294
 30
0.0
 10
9.6769474827
 20
12.3397331978
 30
0.0
 10
9.6620103137
 20
12.3158511696
 30
0.0
 10
9.6511625789
 20
12.2989073815
 30
0.0
 10
9.6405762035
 20
12.2827089085
 30
0.0
 10
9.6303223586
 20
12.2673005964
 30
0.0
 10
9.6204745885
 20
12.2527339457
 30
0.0
 10
9.6111058102
 20
12.2390687363
 30
0.0
 10
9.602292392
 20
12.2263702279
 30
0.0
 10
9.5941133955
 20
12.2147087993
 30
0.0
 10
9.5877208568
 20
12.2056790049
 30
0.0
 10
9.582984753
 20
12.1990299404
 30
0.0
 10
9.5797427319
 20
12.1944944617
 30
0.0
 10
9.57671802
 20
12.1902764794
 30
0.0
 10
9.5739197898
 20
12.1863860727
 30
0.0
 10
9.5713569868
 20
12.1828328647
 30
0.0
 10
9.5690381668
 20
12.1796259387
 30
0.0
 10
9.566971471
 20
12.1767736716
 30
0.0
 10
9.5651644012
 20
12.1742839519
 30
0.0
 10
9.5638234372
 20
12.1724395922
 30
0.0
 10
9.5628852962
 20
12.1711510299
 30
0.0
 10
9.5622845143
 20
12.1703265165
 30
0.0
 10
9.5617529822
 20
12.1695975405
 30
0.0
 10
9.5612912103
 20
12.1689645545
 30
0.0
 10
9.5608996954
 20
12.1684280078
 30
0.0
 10
9.5606175973
 20
12.168041311
 30
0.0
 10
9.5604273818
 20
12.1677804545
 30
0.0
 10
9.5603113467
 20
12.1676212983
 30
0.0
 10
9.5602131257
 20
12.1674864939
 30
0.0
 10
9.5601326501
 20
12.1673761129
 30
0.0
 10
9.5600701697
 20
12.1672900829
 30
0.0
 10
9.5600289072
 20
12.1672338276
 30
0.0
 10
9.5600053657
 20
12.1672008154
 30
0.0
 10
9.5599935971
 20
12.1671856127
 30
0.0
 10
9.5599878373
 20
12.1671758473
 30
0.0
 10
9.5599838027
 20
12.1671721401
 30
0.0
 10
9.5599834891
 20
12.1671708734
 30
0.0
  0
SPLINE
  5
37A
100
AcDbEntity
  8
0
100
AcDbSpline
 62
7
  6
CONTINUOUS
 70
0
 71
3
 72
17
 73
13
 74
0
 42
0.0000001
 43
0.0000001
 44
0.0000000001
 40
0.0
 40
0.0
 40
0.0
 40
0.0
 40
0.1166045788
 40
0.2399487009
 40
0.3038376152
 40
0.3687699342
 40
0.4999998999
 40
0.6312298826
 40
0.6961622216
 40
0.7600511619
 40
0.8833953495
 40
1.0
 40
1.0
 40
1.0
 40
1.0
 10
20.0699834891
 20
10.3071706972
 30
0.0
 10
20.0736416726
 20
10.3071706863
 30
0.0
 10
20.081184058
 20
10.3078710215
 30
0.0
 10
20.0904104002
 20
10.3105081759
 30
0.0
 10
20.0976127711
 20
10.3138113982
 30
0.0
 10
20.1046641443
 20
10.3179359299
 30
0.0
 10
20.1127236398
 20
10.324430691
 30
0.0
 10
20.1192183932
 20
10.3324901935
 30
0.0
 10
20.1233429194
 20
10.3395415721
 30
0.0
 10
20.1266461372
 20
10.3467439489
 30
0.0
 10
20.1292832865
 20
10.3559702978
 30
0.0
 10
20.1299836184
 20
10.3635126877
 30
0.0
 10
20.1299836062
 20
10.3671708735
 30
0.0
  0
SPLINE
  5
37B
100
AcDbEntity
  8
0
100
AcDbSpline
 62
7
  6
CONTINUOUS
 70
0
 71
3
 72
17
 73
13
 74
0
 42
0.0000001
 43
0.0000001
 44
0.0000000001
 40
0.0
 40
0.0
 40
0.0
 40
0.0
 40
0.1166045618
 40
0.2399486747
 40
0.3038375876
 40
0.3687699074
 40
0.4999998783
 40
0.6312298699
 40
0.6961622139
 40
0.7600511586
 40
0.883395351
 40
1.0
 40
1.0
 40
1.0
 40
1.0
 10
20.0699834891
 20
9.3671710738
 30
0.0
 10
20.0736416737
 20
9.3671710861
 30
0.0
 10
20.0811840618
 20
9.3664707535
 30
0.0
 10
20.0904104079
 20
9.3638336004
 30
0.0
 10
20.0976127821
 20
9.3605303777
 30
0.0
 10
20.1046641588
 20
9.3564058448
 30
0.0
 10
20.1127236581
 20
9.3499110803
 30
0.0
 10
20.1192184136
 20
9.3418515728
 30
0.0
 10
20.1233429402
 20
9.3348001896
 30
0.0
 10
20.1266461576
 20
9.3275978084
 30
0.0
 10
20.1292833048
 20
9.3183714542
 30
0.0
 10
20.1299836338
 20
9.3108290606
 30
0.0
 10
20.1299836201
 20
9.3071708734
 30
0.0
  0
SPLINE
  5
37C
100
AcDbEntity
  8
0
100
AcDbSpline
 62
9
  6
CONTINUOUS
 70
0
 71
3
 72
71
 73
67
 74
0
 42
0.0000001
 43
0.0000001
 44
0.0000000001
 40
0.0
 40
0.0
 40
0.0
 40
0.0
 40
0.0000518208
 40
0.0001160679
 40
0.0002057672
 40
0.0004612048
 40
0.000817499
 40
0.0012740154
 40
0.0018301195
 40
0.0024851769
 40
0.0032385532
 40
0.0050377257
 40
0.0072225629
 40
0.0097879917
 40
0.0127289396
 40
0.0160393517
 40
0.0197092426
 40
0.0280836043
 40
0.0377643674
 40
0.0486639632
 40
0.0606954521
 40
0.073774149
 40
0.0878161284
 40
0.1027377439
 40
0.1349113987
 40
0.1697584218
 40
0.2067973006
 40
0.2456413853
 40
0.2859493112
 40
0.3274114226
 40
0.3697883148
 40
0.4128346886
 40
0.4563122836
 40
0.5000004427
 40
0.5436886189
 40
0.5871663227
 40
0.6302128581
 40
0.6725896553
 40
0.7140517872
 40
0.754359799
 40
0.7932038376
 40
0.8302426
 40
0.8650895429
 40
0.8972631387
 40
0.9121847186
 40
0.9262266546
 40
0.939305299
 40
0.9513367249
 40
0.9622362465
 40
0.9719169256
 40
0.9802911955
 40
0.9839610381
 40
0.9872714006
 40
0.9902122981
 40
0.9927776766
 40
0.9949624647
 40
0.9967615902
 40
0.9975149443
 40
0.9981699804
 40
0.9987260643
 40
0.9991825617
 40
0.9995388383
 40
0.9997942599
 40
0.9998839517
 40
0.9999481919
 40
1.0
 40
1.0
 40
1.0
 40
1.0
 10
20.0699835241
 20
10.3071706971
 30
0.0
 10
20.0699972342
 20
10.3071574571
 30
0.0
 10
20.0700245819
 20
10.3071245399
 30
0.0
 10
20.0700761819
 20
10.3070692137
 30
0.0
 10
20.0701770137
 20
10.3069573644
 30
0.0
 10
20.0703506898
 20
10.3067666148
 30
0.0
 10
20.0706144852
 20
10.3064754336
 30
0.0
 10
20.0709526226
 20
10.3061023985
 30
0.0
 10
20.0713642986
 20
10.3056477086
 30
0.0
 10
20.0718490838
 20
10.3051119262
 30
0.0
 10
20.0726402725
 20
10.3042368117
 30
0.0
 10
20.0738080263
 20
10.3029436391
 30
0.0
 10
20.0754210831
 20
10.3011545971
 30
0.0
 10
20.0773137247
 20
10.2990522066
 30
0.0
 10
20.0794814666
 20
10.2966404501
 30
0.0
 10
20.081918584
 20
10.2939246252
 30
0.0
 10
20.0856858123
 20
10.2897173563
 30
0.0
 10
20.0910037613
 20
10.2837536317
 30
0.0
 10
20.0980654572
 20
10.2757821918
 30
0.0
 10
20.1059854329
 20
10.2667742153
 30
0.0
 10
20.1146889264
 20
10.2567911504
 30
0.0
 10
20.1240966372
 20
10.2458889346
 30
0.0
 10
20.1341300359
 20
10.2341229027
 30
0.0
 10
20.1486075598
 20
10.2169173549
 30
0.0
 10
20.1677511533
 20
10.1936381072
 30
0.0
 10
20.191480887
 20
10.1636060504
 30
0.0
 10
20.2159532569
 20
10.1310459028
 30
0.0
 10
20.2405129195
 20
10.0960625662
 30
0.0
 10
20.2645223369
 20
10.0587399692
 30
0.0
 10
20.2870531182
 20
10.0189908103
 30
0.0
 10
20.3071339898
 20
9.9768061123
 30
0.0
 10
20.323357082
 20
9.9321597656
 30
0.0
 10
20.3341237391
 20
9.8853427347
 30
0.0
 10
20.3379312479
 20
9.8371703737
 30
0.0
 10
20.3341235994
 20
9.7889979916
 30
0.0
 10
20.3233568699
 20
9.7421808573
 30
0.0
 10
20.3071333928
 20
9.6975345862
 30
0.0
 10
20.287052648
 20
9.6553498003
 30
0.0
 10
20.2645217054
 20
9.615600718
 30
0.0
 10
20.2405120993
 20
9.5782782196
 30
0.0
 10
20.215952427
 20
9.5432949262
 30
0.0
 10
20.1914801394
 20
9.5107348285
 30
0.0
 10
20.1677504718
 20
9.4807028391
 30
0.0
 10
20.1486069189
 20
9.4574236412
 30
0.0
 10
20.1341294285
 20
9.4402181316
 30
0.0
 10
20.1240960615
 20
9.4284521362
 30
0.0
 10
20.1146883886
 20
9.4175499649
 30
0.0
 10
20.1059849394
 20
9.407566954
 30
0.0
 10
20.0980650139
 20
9.3985590416
 30
0.0
 10
20.0910033744
 20
9.3905876745
 30
0.0
 10
20.0856854765
 20
9.3846240149
 30
0.0
 10
20.0819182922
 20
9.3804168002
 30
0.0
 10
20.0794812098
 20
9.3777010172
 30
0.0
 10
20.077313504
 20
9.3752893026
 30
0.0
 10
20.075420899
 20
9.3731869533
 30
0.0
 10
20.0738078782
 20
9.3713979512
 30
0.0
 10
20.0726401539
 20
9.3701048107
 30
0.0
 10
20.0718489879
 20
9.3692297205
 30
0.0
 10
20.0713642187
 20
9.3686939552
 30
0.0
 10
20.0709525581
 20
9.3682392814
 30
0.0
 10
20.0706144347
 20
9.3678662618
 30
0.0
 10
20.0703506537
 20
9.3675750935
 30
0.0
 10
20.070176986
 20
9.367384357
 30
0.0
 10
20.070076165
 20
9.3672725127
 30
0.0
 10
20.0700245667
 20
9.367217199
 30
0.0
 10
20.069997234
 20
9.3671842767
 30
0.0
 10
20.0699835211
 20
9.3671710463
 30
0.0
  0
SPLINE
  5
37D
100
AcDbEntity
  8
0
100
AcDbSpline
 62
9
  6
CONTINUOUS
 70
0
 71
3
 72
101
 73
97
 74
0
 42
0.0000001
 43
0.0000001
 44
0.0000000001
 40
0.0
 40
0.0
 40
0.0
 40
0.0
 40
0.000003308
 40
0.0000130268
 40
0.0000291528
 40
0.000051682
 40
0.0001159343
 40
0.0002057523
 40
0.0003211046
 40
0.0004619597
 40
0.0006282863
 40
0.0008200528
 40
0.0012797794
 40
0.0018407938
 40
0.0025025595
 40
0.0032645172
 40
0.0041261073
 40
0.0050867661
 40
0.0073020251
 40
0.009902422
 40
0.0128796622
 40
0.0162244965
 40
0.0199271354
 40
0.0239773478
 40
0.0283638274
 40
0.0330751072
 40
0.0380996923
 40
0.0490426987
 40
0.0611003597
 40
0.0741808664
 40
0.0881979071
 40
0.1030700506
 40
0.1187209059
 40
0.1350814742
 40
0.152088135
 40
0.1696834139
 40
0.2064354148
 40
0.2255043948
 40
0.2449827132
 40
0.285031633
 40
0.3055453297
 40
0.3263481488
 40
0.3474152357
 40
0.3687227503
 40
0.4119431006
 40
0.4338104214
 40
0.4558018455
 40
0.4778790291
 40
0.5000001558
 40
0.522121287
 40
0.544198473
 40
0.5661898698
 40
0.5880571602
 40
0.6312775436
 40
0.6525850946
 40
0.6736522407
 40
0.6944550156
 40
0.7149686591
 40
0.7550174091
 40
0.7744956788
 40
0.7935646704
 40
0.8303166188
 40
0.8479119131
 40
0.8649186128
 40
0.8812791505
 40
0.8969299597
 40
0.9118020913
 40
0.9258191244
 40
0.9388996222
 40
0.9509572948
 40
0.9619003192
 40
0.9669249096
 40
0.9716361887
 40
0.9760226621
 40
0.9800728671
 40
0.9837754997
 40
0.9871203289
 40
0.9900975676
 40
0.9926979667
 40
0.9949132379
 40
0.9958739085
 40
0.996735511
 40
0.9974974796
 40
0.9981592533
 40
0.9987202709
 40
0.9991799941
 40
0.9993717564
 40
0.9995380776
 40
0.9996789265
 40
0.9997942721
 40
0.9998840833
 40
0.999948329
 40
0.9999708551
 40
0.9999869782
 40
0.9999966944
 40
1.0
 40
1.0
 40
1.0
 40
1.0
 10
20.1299834891
 20
10.3671708734
 30
0.0
 10
20.1299838043
 20
10.3671696061
 30
0.0
 10
20.1299878351
 20
10.3671658953
 30
0.0
 10
20.1299936
 20
10.3671561281
 30
0.0
 10
20.1300053667
 20
10.3671409207
 30
0.0
 10
20.13002891
 20
10.3671079032
 30
0.0
 10
20.1300701717
 20
10.3670516396
 30
0.0
 10
20.1301326528
 20
10.3669656002
 30
0.0
 10
20.1302131282
 20
10.3668552095
 30
0.0
 10
20.130311349
 20
10.366720396
 30
0.0
 10
20.1304273836
 20
10.3665612317
 30
0.0
 10
20.1306175973
 20
10.3663003675
 30
0.0
 10
20.1308996936
 20
10.3659136672
 30
0.0
 10
20.1312912095
 20
10.365377125
 30
0.0
 10
20.131752983
 20
10.3647441511
 30
0.0
 10
20.132284517
 20
10.3640151918
 30
0.0
 10
20.1328853006
 20
10.3631906967
 30
0.0
 10
20.1338234451
 20
10.3619021546
 30
0.0
 10
20.1351644107
 20
10.3600578089
 30
0.0
 10
20.1369714796
 20
10.3575680949
 30
0.0
 10
20.1390381743
 20
10.3547158249
 30
0.0
 10
20.1413569941
 20
10.3515088925
 30
0.0
 10
20.1439197959
 20
10.3479556745
 30
0.0
 10
20.1467180232
 20
10.3440652561
 30
0.0
 10
20.1497427321
 20
10.3398472647
 30
0.0
 10
20.152984752
 20
10.3353117843
 30
0.0
 10
20.1577208565
 20
10.3286627313
 30
0.0
 10
20.1641133994
 20
10.3196329566
 30
0.0
 10
20.1722923964
 20
10.3079715383
 30
0.0
 10
20.1811057932
 20
10.2952730127
 30
0.0
 10
20.1904745822
 20
10.2816077972
 30
0.0
 10
20.2003223971
 20
10.2670411454
 30
0.0
 10
20.2105762235
 20
10.2516327787
 30
0.0
 10
20.2211625843
 20
10.2354342788
 30
0.0
 10
20.2320104024
 20
10.2184905553
 30
0.0
 10
20.2469475387
 20
10.194608506
 30
0.0
 10
20.2618727862
 20
10.169759782
 30
0.0
 10
20.2766012785
 20
10.1439378583
 30
0.0
 10
20.2915112003
 20
10.1167267419
 30
0.0
 10
20.3058791169
 20
10.0885707374
 30
0.0
 10
20.3194056184
 20
10.0594335648
 30
0.0
 10
20.3291442419
 20
10.0368099027
 30
0.0
 10
20.3382640829
 20
10.0135906579
 30
0.0
 10
20.349467348
 20
9.9817069016
 30
0.0
 10
20.3587993956
 20
9.9488439321
 30
0.0
 10
20.3656975673
 20
9.9151533496
 30
0.0
 10
20.3695324083
 20
9.8893937593
 30
0.0
 10
20.3718882016
 20
9.8633554807
 30
0.0
 10
20.3726833962
 20
9.8371706886
 30
0.0
 10
20.3718882385
 20
9.810985892
 30
0.0
 10
20.3695323414
 20
9.7849476296
 30
0.0
 10
20.3656974635
 20
9.7591880698
 30
0.0
 10
20.3587993807
 20
9.7254974775
 30
0.0
 10
20.3494671724
 20
9.6926345339
 30
0.0
 10
20.3382639134
 20
9.6607507258
 30
0.0
 10
20.3291441801
 20
9.6375314152
 30
0.0
 10
20.3194054539
 20
9.6149078128
 30
0.0
 10
20.3058789935
 20
9.5857707391
 30
0.0
 10
20.2915111027
 20
9.557614839
 30
0.0
 10
20.2766011239
 20
9.5304038487
 30
0.0
 10
20.2618728705
 20
9.5045818294
 30
0.0
 10
20.2469474827
 20
9.4797331978
 30
0.0
 10
20.2320103137
 20
9.4558511696
 30
0.0
 10
20.2211625789
 20
9.4389073815
 30
0.0
 10
20.2105762035
 20
9.4227089085
 30
0.0
 10
20.2003223586
 20
9.4073005964
 30
0.0
 10
20.1904745885
 20
9.3927339457
 30
0.0
 10
20.1811058102
 20
9.3790687363
 30
0.0
 10
20.172292392
 20
9.3663702279
 30
0.0
 10
20.1641133955
 20
9.3547087993
 30
0.0
 10
20.1577208568
 20
9.3456790049
 30
0.0
 10
20.152984753
 20
9.3390299404
 30
0.0
 10
20.1497427319
 20
9.3344944617
 30
0.0
 10
20.14671802
 20
9.3302764794
 30
0.0
 10
20.1439197898
 20
9.3263860727
 30
0.0
 10
20.1413569868
 20
9.3228328647
 30
0.0
 10
20.1390381668
 20
9.3196259387
 30
0.0
 10
20.136971471
 20
9.3167736716
 30
0.0
 10
20.1351644012
 20
9.3142839519
 30
0.0
 10
20.1338234372
 20
9.3124395922
 30
0.0
 10
20.1328852962
 20
9.3111510299
 30
0.0
 10
20.1322845143
 20
9.3103265165
 30
0.0
 10
20.1317529822
 20
9.3095975405
 30
0.0
 10
20.1312912103
 20
9.3089645545
 30
0.0
 10
20.1308996954
 20
9.3084280078
 30
0.0
 10
20.1306175973
 20
9.308041311
 30
0.0
 10
20.1304273818
 20
9.3077804545
 30
0.0
 10
20.1303113467
 20
9.3076212983
 30
0.0
 10
20.1302131257
 20
9.3074864939
 30
0.0
 10
20.1301326501
 20
9.3073761129
 30
0.0
 10
20.1300701697
 20
9.3072900829
 30
0.0
 10
20.1300289072
 20
9.3072338276
 30
0.0
 10
20.1300053657
 20
9.3072008154
 30
0.0
 10
20.1299935971
 20
9.3071856127
 30
0.0
 10
20.1299878373
 20
9.3071758473
 30
0.0
 10
20.1299838027
 20
9.3071721401
 30
0.0
 10
20.1299834891
 20
9.3071708734
 30
0.0
  0
SPLINE
  5
37E
100
AcDbEntity
  8
0
100
AcDbSpline
 62
7
  6
CONTINUOUS
 70
0
 71
3
 72
17
 73
13
 74
0
 42
0.0000001
 43
0.0000001
 44
0.0000000001
 40
0.0
 40
0.0
 40
0.0
 40
0.0
 40
0.1166044674
 40
0.2399485119
 40
0.303837405
 40
0.3687697149
 40
0.4999996926
 40
0.6312297237
 40
0.6961620959
 40
0.7600510705
 40
0.8833953165
 40
1.0
 40
1.0
 40
1.0
 40
1.0
 10
21.3299829286
 20
7.8396708734
 30
0.0
 10
21.3299828924
 20
7.8360126899
 30
0.0
 10
21.3306831782
 20
7.8284702981
 30
0.0
 10
21.3333202794
 20
7.8192439373
 30
0.0
 10
21.3366234655
 20
7.8120415449
 30
0.0
 10
21.3407479659
 20
7.8049901448
 30
0.0
 10
21.3472426986
 20
7.7969306106
 30
0.0
 10
21.3553021863
 20
7.7904358174
 30
0.0
 10
21.36235356
 20
7.7863112596
 30
0.0
 10
21.3695559359
 20
7.7830080116
 30
0.0
 10
21.378782289
 20
7.7803708279
 30
0.0
 10
21.3863246869
 20
7.7796704705
 30
0.0
 10
21.3899828772
 20
7.7796704708
 30
0.0
  0
SPLINE
  5
37F
100
AcDbEntity
  8
0
100
AcDbSpline
 62
7
  6
CONTINUOUS
 70
0
 71
3
 72
17
 73
13
 74
0
 42
0.0000001
 43
0.0000001
 44
0.0000000001
 40
0.0
 40
0.0
 40
0.0
 40
0.0
 40
0.1166044641
 40
0.2399484972
 40
0.3038373817
 40
0.3687696819
 40
0.499999642
 40
0.6312296624
 40
0.6961620331
 40
0.7600510101
 40
0.8833952766
 40
1.0
 40
1.0
 40
1.0
 40
1.0
 10
20.1299840103
 20
7.8396708734
 30
0.0
 10
20.1299840439
 20
7.8360126933
 30
0.0
 10
20.1292837547
 20
7.8284703095
 30
0.0
 10
20.1266466534
 20
7.8192439589
 30
0.0
 10
20.1233434702
 20
7.8120415742
 30
0.0
 10
20.1192189747
 20
7.8049901814
 30
0.0
 10
20.112724251
 20
7.7969306541
 30
0.0
 10
20.1046647751
 20
7.7904358632
 30
0.0
 10
20.0976134111
 20
7.7863113046
 30
0.0
 10
20.0904110438
 20
7.7830080538
 30
0.0
 10
20.0811846997
 20
7.7803708639
 30
0.0
 10
20.0736423076
 20
7.7796704995
 30
0.0
 10
20.0699841194
 20
7.779670496
 30
0.0
  0
SPLINE
  5
380
100
AcDbEntity
  8
0
100
AcDbSpline
 62
9
  6
CONTINUOUS
 70
0
 71
3
 72
103
 73
99
 74
0
 42
0.0000001
 43
0.0000001
 44
0.0000000001
 40
0.0
 40
0.0
 40
0.0
 40
0.0
 40
0.0000035305
 40
0.0000138012
 40
0.0000308082
 40
0.0000545471
 40
0.0001222032
 40
0.0002167344
 40
0.0003381057
 40
0.0004862819
 40
0.0006612281
 40
0.000862909
 40
0.0013463339
 40
0.0019361525
 40
0.0026317103
 40
0.003432322
 40
0.0043373029
 40
0.0053459629
 40
0.0076703411
 40
0.0103958318
 40
0.0135123158
 40
0.017008755
 40
0.0208735598
 40
0.0250947003
 40
0.0296589109
 40
0.039762778
 40
0.0510791805
 40
0.0635037036
 40
0.0769339425
 40
0.0912749525
 40
0.1064384156
 40
0.1223435685
 40
0.1389168534
 40
0.1738080917
 40
0.2106582815
 40
0.2491020746
 40
0.2888452515
 40
0.3091295629
 40
0.3296542035
 40
0.3503977521
 40
0.371338957
 40
0.3924594742
 40
0.4030821218
 40
0.4137426942
 40
0.4351632473
 40
0.4566998148
 40
0.4675046746
 40
0.4783266657
 40
0.4891602395
 40
0.4999997343
 40
0.5108392354
 40
0.5216728421
 40
0.5324947561
 40
0.5432996417
 40
0.5648362642
 40
0.5862567951
 40
0.5969174587
 40
0.6075400954
 40
0.6286607306
 40
0.6496019675
 40
0.6703456304
 40
0.6908703922
 40
0.7111548395
 40
0.7508982133
 40
0.7893419761
 40
0.826191933
 40
0.8610831462
 40
0.8776564449
 40
0.89356162
 40
0.9087251113
 40
0.9230661203
 40
0.9364963429
 40
0.9489208532
 40
0.9602372445
 40
0.9703411019
 40
0.9749053122
 40
0.9791264582
 40
0.9829912713
 40
0.9864877164
 40
0.9896042043
 40
0.9923296917
 40
0.9946540695
 40
0.9956627326
 40
0.996567711
 40
0.9973683162
 40
0.9980638659
 40
0.9986536775
 40
0.999137097
 40
0.9993387747
 40
0.9995137176
 40
0.9996618911
 40
0.9997832603
 40
0.9998777904
 40
0.9999454468
 40
0.9999691865
 40
0.9999861947
 40
0.9999964672
 40
1.0
 40
1.0
 40
1.0
 40
1.0
 10
21.3899828771
 20
7.7796708734
 30
0.0
 10
21.3899811089
 20
7.7796703733
 30
0.0
 10
21.3899762976
 20
7.7796643356
 30
0.0
 10
21.3899632303
 20
7.7796555289
 30
0.0
 10
21.3899431991
 20
7.7796377741
 30
0.0
 10
21.3898995886
 20
7.7796021632
 30
0.0
 10
21.3898254453
 20
7.7795398308
 30
0.0
 10
21.3897120654
 20
7.7794454139
 30
0.0
 10
21.3895666857
 20
7.7793238373
 30
0.0
 10
21.3893891886
 20
7.7791754583
 30
0.0
 10
21.3891796853
 20
7.7790001804
 30
0.0
 10
21.3888364034
 20
7.7787128758
 30
0.0
 10
21.3883276696
 20
7.7782868101
 30
0.0
 10
21.3876220166
 20
7.7776955153
 30
0.0
 10
21.3867898158
 20
7.7769981968
 30
0.0
 10
21.3858317627
 20
7.7761956658
 30
0.0
 10
21.3847485604
 20
7.7752887526
 30
0.0
 10
21.3830567939
 20
7.7738732533
 30
0.0
 10
21.3806372871
 20
7.7718509165
 30
0.0
 10
21.3773747978
 20
7.7691264381
 30
0.0
 10
21.3736430544
 20
7.7660121452
 30
0.0
 10
21.3694544099
 20
7.7625198383
 30
0.0
 10
21.3648216831
 20
7.7586623141
 30
0.0
 10
21.3597587405
 20
7.7544529272
 30
0.0
 10
21.3521940645
 20
7.748173112
 30
0.0
 10
21.3417782596
 20
7.7395460675
 30
0.0
 10
21.3281899107
 20
7.7283356548
 30
0.0
 10
21.3132366971
 20
7.7160591144
 30
0.0
 10
21.2970324775
 20
7.7028254755
 30
0.0
 10
21.2796809852
 20
7.6887430371
 30
0.0
 10
21.2612764847
 20
7.6739141172
 30
0.0
 10
21.2419040385
 20
7.6584349542
 30
0.0
 10
21.2144075193
 20
7.6366747184
 30
0.0
 10
21.1781304995
 20
7.6084431173
 30
0.0
 10
21.1323710379
 20
7.5738684711
 30
0.0
 10
21.083904864
 20
7.5387027465
 30
0.0
 10
21.0416232772
 20
7.5097169057
 30
0.0
 10
21.0063806684
 20
7.4870007395
 30
0.0
 10
20.9790518073
 20
7.470275169
 30
0.0
 10
20.9509637379
 20
7.4541561916
 30
0.0
 10
20.9220535672
 20
7.4388822128
 30
0.0
 10
20.8972720978
 20
7.4271155519
 30
0.0
 10
20.8769745483
 20
7.4184412656
 30
0.0
 10
20.8562874575
 20
7.4103053179
 30
0.0
 10
20.829822936
 20
7.4013719645
 30
0.0
 10
20.8026534744
 20
7.3945219317
 30
0.0
 10
20.7805374877
 20
7.3905291839
 30
0.0
 10
20.7637766638
 20
7.388345336
 30
0.0
 10
20.7469082959
 20
7.3870144507
 30
0.0
 10
20.7299839093
 20
7.3865701107
 30
0.0
 10
20.7130595362
 20
7.38701491
 30
0.0
 10
20.6961911368
 20
7.3883450566
 30
0.0
 10
20.679430295
 20
7.3905288361
 30
0.0
 10
20.6573144263
 20
7.3945221976
 30
0.0
 10
20.6301447414
 20
7.401371381
 30
0.0
 10
20.6036802046
 20
7.410305017
 30
0.0
 10
20.5829932792
 20
7.4184414446
 30
0.0
 10
20.5626954325
 20
7.4271152851
 30
0.0
 10
20.5379137013
 20
7.4388815887
 30
0.0
 10
20.5090034834
 20
7.4541557869
 30
0.0
 10
20.4809154895
 20
7.4702751698
 30
0.0
 10
20.4535863891
 20
7.4870007135
 30
0.0
 10
20.4183435157
 20
7.5097169111
 30
0.0
 10
20.3760619696
 20
7.5387030895
 30
0.0
 10
20.3275957167
 20
7.5738686422
 30
0.0
 10
20.2818363966
 20
7.6084432287
 30
0.0
 10
20.2455594261
 20
7.6366746858
 30
0.0
 10
20.2180629351
 20
7.6584349667
 30
0.0
 10
20.198690471
 20
7.6739141607
 30
0.0
 10
20.1802859324
 20
7.6887430742
 30
0.0
 10
20.1629344355
 20
7.7028255159
 30
0.0
 10
20.1467302386
 20
7.7160591578
 30
0.0
 10
20.1317770357
 20
7.7283356782
 30
0.0
 10
20.1181886967
 20
7.7395460754
 30
0.0
 10
20.1077729097
 20
7.7481731242
 30
0.0
 10
20.1002082391
 20
7.7544529421
 30
0.0
 10
20.0951452895
 20
7.7586623317
 30
0.0
 10
20.0905125489
 20
7.7625198553
 30
0.0
 10
20.0863238914
 20
7.7660121615
 30
0.0
 10
20.0825921464
 20
7.7691264576
 30
0.0
 10
20.0793296577
 20
7.7718509368
 30
0.0
 10
20.0769101497
 20
7.7738732718
 30
0.0
 10
20.0752183805
 20
7.7752887679
 30
0.0
 10
20.074135181
 20
7.7761956798
 30
0.0
 10
20.073177137
 20
7.7769982078
 30
0.0
 10
20.0723449485
 20
7.7776955235
 30
0.0
 10
20.0716393088
 20
7.7782868175
 30
0.0
 10
20.0711305865
 20
7.7787128843
 30
0.0
 10
20.0707873121
 20
7.7790001882
 30
0.0
 10
20.0705778139
 20
7.7791754648
 30
0.0
 10
20.0704003208
 20
7.779323842
 30
0.0
 10
20.0702549436
 20
7.779445417
 30
0.0
 10
20.0701415644
 20
7.7795398318
 30
0.0
 10
20.0700674203
 20
7.7796021645
 30
0.0
 10
20.0700238075
 20
7.7796377728
 30
0.0
 10
20.0700037739
 20
7.7796555307
 30
0.0
 10
20.0699907032
 20
7.7796643323
 30
0.0
 10
20.0699858899
 20
7.7796703765
 30
0.0
 10
20.0699841195
 20
7.7796708734
 30
0.0
  0
SPLINE
  5
381
100
AcDbEntity
  8
0
100
AcDbSpline
 62
9
  6
CONTINUOUS
 70
0
 71
3
 72
63
 73
59
 74
0
 42
0.0000001
 43
0.0000001
 44
0.0000000001
 40
0.0
 40
0.0
 40
0.0
 40
0.0
 40
0.0000550109
 40
0.0002177629
 40
0.0004874676
 40
0.0008633367
 40
0.0019304152
 40
0.0034126924
 40
0.0053038625
 40
0.0075976196
 40
0.0102876585
 40
0.0133676738
 40
0.0206636103
 40
0.0293909825
 40
0.0394465599
 40
0.0507271364
 40
0.0631314714
 40
0.0765661145
 40
0.1061605714
 40
0.1388136735
 40
0.1739657177
 40
0.2111216764
 40
0.2499015876
 40
0.2899669344
 40
0.3310171916
 40
0.3728005399
 40
0.415050617
 40
0.4362912083
 40
0.4575473378
 40
0.4999996328
 40
0.5424520741
 40
0.5637083087
 40
0.5849489848
 40
0.6271991393
 40
0.6689825141
 40
0.7100328294
 40
0.7500982555
 40
0.7888782347
 40
0.8260342335
 40
0.8611862821
 40
0.8938393671
 40
0.9234338058
 40
0.9368684459
 40
0.9492727856
 40
0.9605533756
 40
0.9706089701
 40
0.9793363563
 40
0.986632297
 40
0.9897123091
 40
0.9924023426
 40
0.9946960944
 40
0.996587261
 40
0.9980695388
 40
0.9991366239
 40
0.9995124993
 40
0.9997822124
 40
0.9999449753
 40
1.0
 40
1.0
 40
1.0
 40
1.0
 10
21.3299829286
 20
7.8396704256
 30
0.0
 10
21.3299640964
 20
7.8396502944
 30
0.0
 10
21.3298858097
 20
7.8395742068
 30
0.0
 10
21.3297149669
 20
7.8393996433
 30
0.0
 10
21.3294286518
 20
7.839113091
 30
0.0
 10
21.3288239342
 20
7.8385041116
 30
0.0
 10
21.3277896357
 20
7.8374653629
 30
0.0
 10
21.3262196417
 20
7.8358884686
 30
0.0
 10
21.3242149174
 20
7.8338769759
 30
0.0
 10
21.3217821239
 20
7.8314376402
 30
0.0
 10
21.3189274979
 20
7.8285776262
 30
0.0
 10
21.3143002901
 20
7.8239452611
 30
0.0
 10
21.3075305471
 20
7.8171769043
 30
0.0
 10
21.2982764861
 20
7.8079494561
 30
0.0
 10
21.2875909035
 20
7.7973297827
 30
0.0
 10
21.2755756084
 20
7.7854342347
 30
0.0
 10
21.2623288293
 20
7.7723758665
 30
0.0
 10
21.2424949591
 20
7.752927151
 30
0.0
 10
21.2152905269
 20
7.7265025538
 30
0.0
 10
21.1800162886
 20
7.6927680561
 30
0.0
 10
21.141608125
 20
7.6568319665
 30
0.0
 10
21.100430509
 20
7.6193679336
 30
0.0
 10
21.0566663147
 20
7.5811026247
 30
0.0
 10
21.0104385395
 20
7.5427107445
 30
0.0
 10
20.9614591192
 20
7.5053358146
 30
0.0
 10
20.9095198082
 20
7.4701724074
 30
0.0
 10
20.8632077001
 20
7.4446268297
 30
0.0
 10
20.8239700397
 20
7.4282459339
 30
0.0
 10
20.7833045782
 20
7.4155039896
 30
0.0
 10
20.7299840019
 20
7.4082185188
 30
0.0
 10
20.6766633522
 20
7.4155038405
 30
0.0
 10
20.6359976844
 20
7.4282456894
 30
0.0
 10
20.5967598518
 20
7.4446265255
 30
0.0
 10
20.5504476356
 20
7.4701721107
 30
0.0
 10
20.4985082357
 20
7.5053355308
 30
0.0
 10
20.4495287436
 20
7.5427105031
 30
0.0
 10
20.4033008902
 20
7.5811024501
 30
0.0
 10
20.359536629
 20
7.6193678253
 30
0.0
 10
20.3183589713
 20
7.6568318961
 30
0.0
 10
20.2799507865
 20
7.6927679829
 30
0.0
 10
20.2446765469
 20
7.7265024569
 30
0.0
 10
20.2174721257
 20
7.752927038
 30
0.0
 10
20.1976382623
 20
7.7723757485
 30
0.0
 10
20.184391479
 20
7.7854341234
 30
0.0
 10
20.1723761728
 20
7.7973296853
 30
0.0
 10
20.1616905755
 20
7.8079493757
 30
0.0
 10
20.1524365026
 20
7.8171768369
 30
0.0
 10
20.1456667539
 20
7.8239451987
 30
0.0
 10
20.1410395467
 20
7.8285775612
 30
0.0
 10
20.1381849245
 20
7.8314375693
 30
0.0
 10
20.1357521353
 20
7.8338768992
 30
0.0
 10
20.1337474126
 20
7.8358883877
 30
0.0
 10
20.1321774181
 20
7.837465284
 30
0.0
 10
20.1311431116
 20
7.8385040346
 30
0.0
 10
20.1305383907
 20
7.8391130253
 30
0.0
 10
20.1302520601
 20
7.8393995808
 30
0.0
 10
20.1300812179
 20
7.8395741676
 30
0.0
 10
20.1300029103
 20
7.8396502525
 30
0.0
 10
20.129984079
 20
7.839670394
 30
0.0
  0
ENDSEC
  0
SECTION
  2
OBJECTS
  0
DICTIONARY
  5
C
100
AcDbDictionary
280
0
281
1
  3
ACAD_GROUP
350
D
  3
ACAD_MLINESTYLE
350
17
  3
ACAD_LAYOUT
350
1A
  3
ACAD_PLOTSETTINGS
350
19
  3
ACAD_PLOTSTYLENAME
350
E
  0
DICTIONARY
  5
D
102
{ACAD_REACTORS
330
C
102
}
100
AcDbDictionary
280
0
281
1
  0
ACDBDICTIONARYWDFLT
  5
E
102
{ACAD_REACTORS
330
C
102
}
100
AcDbDictionary
281
1
  3
Normal
350
F
100
AcDbDictionaryWithDefault
340
F
  0
DICTIONARY
  5
17
102
{ACAD_REACTORS
330
C
102
}
100
AcDbDictionary
280
0
281
1
  3
Standard
350
18
  0
DICTIONARY
  5
19
102
{ACAD_REACTORS
330
C
102
}
100
AcDbDictionary
281
1
  0
DICTIONARY
  5
1A
102
{ACAD_REACTORS
330
C
102
}
100
AcDbDictionary
281
1
  3
Model
350
382
  3
Layout1
350
383
  0
ACDBPLACEHOLDER
  5
F
102
{ACAD_REACTORS
330
E
102
}
  0
MLINESTYLE
  5
18
102
{ACAD_REACTORS
330
17
102
}
100
AcDbMlineStyle
  2
STANDARD
 70
0
  3

 62
256
 51
90.0
 52
90.0
 71
2
 49
0.5
 62
256
  6
BYLAYER
 49
-0.5
 62
256
  6
BYLAYER
  0
LAYOUT
  5
382
102
{ACAD_REACTORS
330
1A
102
}
100
AcDbPlotSettings
  1

  2
none_device
  4
ANSI_C_(22.00_x_17.00_Inches)
  6

 40
0.0
 41
0.0
 42
0.0
 43
0.0
 44
558.8
 45
431.8
 46
0.0
 47
0.0
 48
0.0
 49
0.0
140
0.0
141
0.0
142
1.0
143
1.0
 70
1024
 72
0
 73
0
 74
0
  7

 75
0
147
1.0
148
0.0
149
0.0
100
AcDbLayout
  1
Model
 70
0
 71
0
 10
0.0
 20
0.0
 11
22.0
 21
17.0
 12
0.0
 22
0.0
 32
0.0
 14
0.0
 24
0.0
 34
0.0
 15
0.0
 25
0.0
 35
0.0
146
0.0
 13
0.0
 23
0.0
 33
0.0
 16
1.0
 26
0.0
 36
0.0
 17
0.0
 27
1.0
 37
0.0
 76
0
330
202
345
0
346
0
  0
LAYOUT
  5
383
102
{ACAD_REACTORS
330
1A
102
}
100
AcDbPlotSettings
  1

  2
none_device
  4
ANSI_C_(22.00_x_17.00_Inches)
  6

 40
0.0
 41
0.0
 42
0.0
 43
0.0
 44
558.8
 45
431.8
 46
0.0
 47
0.0
 48
0.0
 49
0.0
140
0.0
141
0.0
142
1.0
143
1.0
 70
0
 72
0
 73
0
 74
0
  7

 75
0
147
1.0
148
0.0
149
0.0
100
AcDbLayout
  1
Layout1
 70
0
 71
1
 10
0.0
 20
0.0
 11
22.0
 21
17.0
 12
0.0
 22
0.0
 32
0.0
 14
0.0
 24
0.0
 34
0.0
 15
0.0
 25
0.0
 35
0.0
146
0.0
 13
0.0
 23
0.0
 33
0.0
 16
1.0
 26
0.0
 36
0.0
 17
0.0
 27
1.0
 37
0.0
 76
0
330
203
345
0
346
0
  0
ENDSEC
  0
EOF
