999
DXF file: 3-2554bp_RIGHT.dxf
999
Pro/ENGINEER 2018400 by Parametric Technology Corporation
  0
SECTION
  2
HEADER
  9
$ACADVER
  1
AC1027
  9
$DWGCODEPAGE
  3
ANSI_1252
  9
$EXTMAX
 10
11.0
 20
8.5
 30
0.0
  9
$EXTMIN
 10
0.0
 20
0.0
 30
0.0
  9
$LIMMIN
 10
0.0
 20
0.0
  9
$LIMMAX
 10
11.0
 20
8.5
  9
$VIEWCTR
 10
5.5
 20
4.25
  9
$VIEWSIZE
 40
8.5
  9
$CLAYER
  8
0
  9
$LTSCALE
 40
0.605
  9
$CELTYPE
  6
BYLAYER
  9
$DIMSCALE
 40
1.0
  9
$DIMASZ
 40
0.1
  9
$DIMEXO
 40
0.0625
  9
$DIMDLI
 40
0.418
  9
$DIMEXE
 40
0.125
  9
$DIMCEN
 40
0.099
  9
$DIMLFAC
 40
1.0
  9
$DIMBLK
  1
_FILLED
  9
$DIMALT
 70
1
  9
$DIMALTD
 70
1
  9
$DIMALTTD
 70
2
  9
$DIMALTF
 40
25.4
  9
$DIMTXT
 40
0.08
  9
$DIMTOL
 70
1
  9
$DIMLIM
 70
0
  9
$DIMTFAC
 40
1.0
  9
$DIMTP
 40
0.01
  9
$DIMTM
 40
0.01
  9
$DIMGAP
 40
0.09
  9
$DIMDSEP
 70
46
  9
$AUNITS
 70
0
  9
$PDMODE
 70
3
  9
$PDSIZE
 40
0.3125
  9
$HANDSEED
  5
5A8
  9
$TILEMODE
 70
1
  9
$MEASUREMENT
 70
0
  9
$INSUNITS
 70
1
  0
ENDSEC
  0
SECTION
  2
CLASSES
  0
CLASS
  1
ACDBDICTIONARYWDFLT
  2
AcDbDictionaryWithDefault
  3
AutoCAD 2000
 90
0
 91
1
280
0
281
0
  0
CLASS
  1
ACDBPLACEHOLDER
  2
AcDbPlaceHolder
  3
AutoCAD 2000
 90
0
 91
1
280
0
281
0
  0
CLASS
  1
LAYOUT
  2
AcDbLayout
  3
AutoCAD 2000
 90
0
 91
0
280
0
281
0
  0
ENDSEC
  0
SECTION
  2
TABLES
  0
TABLE
  2
VPORT
  5
8
100
AcDbSymbolTable
 70
2
  0
VPORT
  5
1F4
100
AcDbSymbolTableRecord
100
AcDbViewportTableRecord
  2
*ACTIVE
 70
0
 10
0.0
 20
0.0
 11
1.0
 21
1.0
 12
5.5
 22
4.25
 13
0.0
 23
0.0
 14
1.0
 24
1.0
 15
0.0
 25
0.0
 16
0.0
 26
0.0
 36
1.0
 17
0.0
 27
0.0
 37
0.0
 40
8.5
 41
1.2941176471
 42
50.0
 43
0.0
 44
0.0
 50
0.0
 51
0.0
 71
0
 72
100
 73
1
 74
1
 75
0
 76
0
 77
0
 78
0
  0
ENDTAB
  0
TABLE
  2
LTYPE
  5
5
100
AcDbSymbolTable
 70
6
  0
LTYPE
  5
14
100
AcDbSymbolTableRecord
100
AcDbLinetypeTableRecord
  2
BYBLOCK
 70
0
  3

 72
65
 73
0
 40
0.0
  0
LTYPE
  5
15
100
AcDbSymbolTableRecord
100
AcDbLinetypeTableRecord
  2
BYLAYER
 70
0
  3

 72
65
 73
0
 40
0.0
  0
LTYPE
  5
16
100
AcDbSymbolTableRecord
100
AcDbLinetypeTableRecord
  2
CONTINUOUS
 70
64
  3
Solid line
 72
65
 73
0
 40
0.0
  0
LTYPE
  5
1F5
100
AcDbSymbolTableRecord
100
AcDbLinetypeTableRecord
  2
CENTER
 70
64
  3
____ _ ____ _ ____ _ ____ _ ____ _ ____ _ ____
 72
65
 73
4
 40
0.6
 49
0.375
 74
0
 49
-0.075
 74
0
 49
0.075
 74
0
 49
-0.075
 74
0
  0
LTYPE
  5
1F6
100
AcDbSymbolTableRecord
100
AcDbLinetypeTableRecord
  2
HIDDEN
 70
64
  3
- - - - - - - - - - - - - - - - - - - -
 72
65
 73
2
 40
0.2
 49
0.1
 74
0
 49
-0.1
 74
0
  0
LTYPE
  5
1F7
100
AcDbSymbolTableRecord
100
AcDbLinetypeTableRecord
  2
PHANTOM
 70
64
  3
_____ _ _ _____ _ _ _____ _ _ _____
 72
65
 73
6
 40
0.8
 49
0.45
 74
0
 49
-0.05
 74
0
 49
0.1
 74
0
 49
-0.05
 74
0
 49
0.1
 74
0
 49
-0.05
 74
0
  0
LTYPE
  5
1F8
100
AcDbSymbolTableRecord
100
AcDbLinetypeTableRecord
  2
DOT
 70
64
  3
. . . . . . . . . . . . . . . . . . . .
 72
65
 73
2
 40
0.2
 49
0.1
 74
0
 49
-0.1
 74
0
  0
LTYPE
  5
1F9
100
AcDbSymbolTableRecord
100
AcDbLinetypeTableRecord
  2
DASHED
 70
64
  3
- - - - - - - - - - - - - - - - - - - -
 72
65
 73
2
 40
0.2
 49
0.1
 74
0
 49
-0.1
 74
0
  0
ENDTAB
  0
TABLE
  2
LAYER
  5
2
100
AcDbSymbolTable
 70
36
  0
LAYER
  5
10
100
AcDbSymbolTableRecord
100
AcDbLayerTableRecord
  2
0
 70
0
 62
7
  6
CONTINUOUS
370
-3
390
F
  0
LAYER
  5
1FA
100
AcDbSymbolTableRecord
100
AcDbLayerTableRecord
  2
DEFAULT_1
 70
0
 62
7
  6
CENTER
370
-3
390
F
  0
LAYER
  5
1FB
100
AcDbSymbolTableRecord
100
AcDbLayerTableRecord
  2
DEFAULT_2
 70
0
 62
8
  6
HIDDEN
370
-3
390
F
  0
LAYER
  5
1FC
100
AcDbSymbolTableRecord
100
AcDbLayerTableRecord
  2
DEFAULT_3
 70
0
 62
7
  6
PHANTOM
370
-3
390
F
  0
LAYER
  5
1FD
100
AcDbSymbolTableRecord
100
AcDbLayerTableRecord
  2
DEFAULT_COORDINATE_SYSTEM
 70
0
 62
7
  6
CONTINUOUS
370
-3
390
F
  0
LAYER
  5
1FE
100
AcDbSymbolTableRecord
100
AcDbLayerTableRecord
  2
DEFAULT_DATUM_AXES
 70
0
 62
7
  6
CONTINUOUS
370
-3
390
F
  0
LAYER
  5
1FF
100
AcDbSymbolTableRecord
100
AcDbLayerTableRecord
  2
DEFAULT_DATUM_PLANES
 70
0
 62
7
  6
CONTINUOUS
370
-3
390
F
  0
ENDTAB
  0
TABLE
  2
STYLE
  5
3
100
AcDbSymbolTable
 70
1
  0
STYLE
  5
11
100
AcDbSymbolTableRecord
100
AcDbTextStyleTableRecord
  2
STANDARD
 70
0
 40
0.0
 41
0.8
 50
0.0
 71
0
 42
0.2
  3
txt
  4

  0
STYLE
  5
200
100
AcDbSymbolTableRecord
100
AcDbTextStyleTableRecord
  2
TEXTSTYLE_1
 70
0
 40
0.0
 41
0.8
 50
0.0
 71
0
 42
0.2
  3
gdt
  4

  0
ENDTAB
  0
TABLE
  2
VIEW
  5
6
100
AcDbSymbolTable
 70
0
  0
ENDTAB
  0
TABLE
  2
UCS
  5
7
100
AcDbSymbolTable
 70
0
  0
ENDTAB
  0
TABLE
  2
APPID
  5
9
100
AcDbSymbolTable
 70
1
  0
APPID
  5
201
100
AcDbSymbolTableRecord
100
AcDbRegAppTableRecord
  2
ACAD
 70
0
  0
ENDTAB
  0
TABLE
  2
BLOCK_RECORD
  5
1
100
AcDbSymbolTable
 70
0
  0
BLOCK_RECORD
  5
202
100
AcDbSymbolTableRecord
100
AcDbBlockTableRecord
  2
*Model_Space
  0
BLOCK_RECORD
  5
203
100
AcDbSymbolTableRecord
100
AcDbBlockTableRecord
  2
*Paper_Space
  0
BLOCK_RECORD
  5
204
100
AcDbSymbolTableRecord
100
AcDbBlockTableRecord
  2
_FILLED
  0
ENDTAB
  0
TABLE
  2
DIMSTYLE
  5
A
100
AcDbSymbolTable
 70
1
100
AcDbDimStyleTable
 71
0
  0
DIMSTYLE
105
205
100
AcDbSymbolTableRecord
100
AcDbDimStyleTableRecord
  2
STANDARD
 70
0
  3

  4

 40
1.0
 41
0.1
 42
0.0625
 43
0.38
 44
0.125
 45
0.0
 46
0.0
 47
0.01
 48
0.01
140
0.08
141
0.09
142
0.0
143
25.4
144
1.0
145
0.0
146
1.0
147
0.09
 71
1.0
 72
0.0
 73
1
 74
1
 75
0
 76
0
 77
0
 78
4
 79
1
170
1
171
1
172
0
173
0
174
0
175
0
176
0
177
0
178
0
270
2
179
2
271
2
272
2
273
2
274
2
275
0
280
0
281
0
282
0
283
1
284
4
285
0
286
0
287
3
288
0
340
11
278
46
341
204
342
204
343
204
344
204
  0
ENDTAB
  0
ENDSEC
  0
SECTION
  2
BLOCKS
  0
BLOCK
  5
20
100
AcDbEntity
  8
0
100
AcDbBlockBegin
  2
*Model_Space
 70
0
 10
0.0
 20
0.0
 30
0.0
  3
*Model_Space
  1

  0
ENDBLK
  5
21
100
AcDbEntity
  8
0
100
AcDbBlockEnd
  0
BLOCK
  5
1C
100
AcDbEntity
  8
0
100
AcDbBlockBegin
  2
*Paper_Space
 70
0
 10
0.0
 20
0.0
 30
0.0
  3
*Paper_Space
  1

  0
ENDBLK
  5
1D
100
AcDbEntity
  8
0
100
AcDbBlockEnd
  0
BLOCK
  5
206
100
AcDbEntity
  8
0
100
AcDbBlockBegin
  2
_FILLED
 70
64
 10
0.0
 20
0.0
  3
_FILLED
  1

  0
SOLID
  5
207
100
AcDbEntity
  8
0
  6
BYBLOCK
 62
0
100
AcDbTrace
 10
0.0
 20
0.0
 11
-1.0
 21
0.2
 12
-1.0
 22
-0.2
 13
-1.0
 23
-0.2
  0
ENDBLK
  5
208
100
AcDbEntity
  8
0
  6
BYBLOCK
 62
0
100
AcDbBlockEnd
  0
ENDSEC
  0
SECTION
  2
ENTITIES
  0
MTEXT
  5
209
100
AcDbEntity
  8
0
100
AcDbMText
 62
2
  6
CONTINUOUS
  7
STANDARD
 71
3
 72
1
 10
5.6215733503
 20
1.5644583329
 30
0.0
 11
1.0
 21
0.0
 31
0.0
 73
2
 44
0.9
  1
SCALE  .250
 40
0.08
 41
0.704
  0
LINE
  5
20A
100
AcDbEntity
  8
0
100
AcDbLine
 62
7
  6
CONTINUOUS
 10
0.0
 20
0.0
 11
0.0
 21
8.5
  0
LINE
  5
20B
100
AcDbEntity
  8
0
100
AcDbLine
 62
7
  6
CONTINUOUS
 10
0.0
 20
0.0
 11
11.0
 21
0.0
  0
LINE
  5
20C
100
AcDbEntity
  8
0
100
AcDbLine
 62
7
  6
CONTINUOUS
 10
0.0
 20
8.5
 11
11.0
 21
8.5
  0
LINE
  5
20D
100
AcDbEntity
  8
0
100
AcDbLine
 62
7
  6
CONTINUOUS
 10
11.0
 20
0.0
 11
11.0
 21
8.5
  0
LINE
  5
20E
100
AcDbEntity
  8
0
100
AcDbLine
 62
7
  6
CONTINUOUS
 10
3.3591572523
 20
6.5687408007
 11
3.3467828837
 21
6.5563664321
  0
LINE
  5
20F
100
AcDbEntity
  8
0
100
AcDbLine
 62
7
  6
CONTINUOUS
 10
3.6811951998
 20
6.6485946756
 11
3.6775320806
 21
6.6449315564
  0
LINE
  5
210
100
AcDbEntity
  8
0
100
AcDbLine
 62
7
  6
CONTINUOUS
 10
3.5886387154
 20
6.6596836786
 11
3.5019044338
 21
6.5780215772
  0
LINE
  5
211
100
AcDbEntity
  8
0
100
AcDbLine
 62
7
  6
CONTINUOUS
 10
6.3057649275
 20
2.8526457019
 11
6.2928085877
 21
2.8526457019
  0
LINE
  5
212
100
AcDbEntity
  8
0
100
AcDbLine
 62
7
  6
CONTINUOUS
 10
3.4746145315
 20
6.4108571147
 11
3.472795904
 21
6.4087435747
  0
LINE
  5
213
100
AcDbEntity
  8
0
100
AcDbLine
 62
7
  6
CONTINUOUS
 10
3.4833835299
 20
6.4020881163
 11
3.4815649025
 21
6.3999745762
  0
LINE
  5
214
100
AcDbEntity
  8
0
100
AcDbLine
 62
7
  6
CONTINUOUS
 10
3.5093072781
 20
6.3761643681
 11
3.5074886506
 21
6.3740508281
  0
LINE
  5
215
100
AcDbEntity
  8
0
100
AcDbLine
 62
7
  6
CONTINUOUS
 10
3.5475430549
 20
6.3322606633
 11
3.5426226986
 21
6.3265424114
  0
LINE
  5
216
100
AcDbEntity
  8
0
100
AcDbLine
 62
7
  6
CONTINUOUS
 10
3.5512527837
 20
6.3342188625
 11
3.5494341562
 21
6.3321053225
  0
LINE
  5
217
100
AcDbEntity
  8
0
100
AcDbLine
 62
7
  6
CONTINUOUS
 10
3.557159787
 20
6.3194730244
 11
3.5537059751
 21
6.3154591349
  0
LINE
  5
218
100
AcDbEntity
  8
0
100
AcDbLine
 62
7
  6
CONTINUOUS
 10
3.503491879
 20
6.3819797672
 11
3.501378339
 21
6.3801611397
  0
LINE
  5
219
100
AcDbEntity
  8
0
100
AcDbLine
 62
7
  6
CONTINUOUS
 10
3.5294156272
 20
6.356056019
 11
3.5273020871
 21
6.3542373916
  0
LINE
  5
21A
100
AcDbEntity
  8
0
100
AcDbLine
 62
7
  6
CONTINUOUS
 10
3.5713611328
 20
6.3141105134
 11
3.5692475927
 21
6.312291886
  0
LINE
  5
21B
100
AcDbEntity
  8
0
100
AcDbLine
 62
7
  6
CONTINUOUS
 10
3.5776884081
 20
6.2992329744
 11
3.5735194116
 21
6.2956456984
  0
LINE
  5
21C
100
AcDbEntity
  8
0
100
AcDbLine
 62
7
  6
CONTINUOUS
 10
5.4482649275
 20
2.8888957019
 11
5.3357649275
 21
2.8888957019
  0
LINE
  5
21D
100
AcDbEntity
  8
0
100
AcDbLine
 62
7
  6
CONTINUOUS
 10
5.4532649275
 20
2.8938957019
 11
5.3307649275
 21
2.8938957019
  0
LINE
  5
21E
100
AcDbEntity
  8
0
100
AcDbLine
 62
7
  6
CONTINUOUS
 10
5.4532649275
 20
2.9072371028
 11
5.3307649275
 21
2.9072371028
  0
LINE
  5
21F
100
AcDbEntity
  8
0
100
AcDbLine
 62
7
  6
CONTINUOUS
 10
5.4540464481
 20
2.9099212099
 11
5.329983407
 21
2.9099212099
  0
LINE
  5
220
100
AcDbEntity
  8
0
100
AcDbLine
 62
7
  6
CONTINUOUS
 10
5.2958248019
 20
3.0311457019
 11
5.4882050532
 21
3.0311457019
  0
LINE
  5
221
100
AcDbEntity
  8
0
100
AcDbLine
 62
7
  6
CONTINUOUS
 10
3.5911637794
 20
6.2887327509
 11
3.5862004976
 21
6.2829646125
  0
LINE
  5
222
100
AcDbEntity
  8
0
100
AcDbLine
 62
7
  6
CONTINUOUS
 10
3.6073868269
 20
6.2780848193
 11
3.6055681994
 21
6.2759712793
  0
LINE
  5
223
100
AcDbEntity
  8
0
100
AcDbLine
 62
7
  6
CONTINUOUS
 10
3.6182967605
 20
6.2509933883
 11
3.6133333767
 21
6.2452251316
  0
LINE
  5
224
100
AcDbEntity
  8
0
100
AcDbLine
 62
7
  6
CONTINUOUS
 10
3.6333682335
 20
6.2360074261
 11
3.628365301
 21
6.2301932073
  0
LINE
  5
225
100
AcDbEntity
  8
0
100
AcDbLine
 62
7
  6
CONTINUOUS
 10
3.6427980878
 20
6.2369751732
 11
3.637891818
 21
6.2312732921
  0
LINE
  5
226
100
AcDbEntity
  8
0
100
AcDbLine
 62
7
  6
CONTINUOUS
 10
3.6752560806
 20
6.2102155656
 11
3.6734374531
 21
6.2081020256
  0
LINE
  5
227
100
AcDbEntity
  8
0
100
AcDbLine
 62
7
  6
CONTINUOUS
 10
3.6766189582
 20
6.1926875637
 11
3.6716480019
 21
6.1869105064
  0
LINE
  5
228
100
AcDbEntity
  8
0
100
AcDbLine
 62
7
  6
CONTINUOUS
 10
3.6867720984
 20
6.1669349482
 11
3.6849279383
 21
6.1647917352
  0
LINE
  5
229
100
AcDbEntity
  8
0
100
AcDbLine
 62
7
  6
CONTINUOUS
 10
3.7100595074
 20
6.1694888439
 11
3.7052572583
 21
6.1639078517
  0
LINE
  5
22A
100
AcDbEntity
  8
0
100
AcDbLine
 62
7
  6
CONTINUOUS
 10
3.6100278236
 20
6.2666049878
 11
3.6060139341
 21
6.2631511759
  0
LINE
  5
22B
100
AcDbEntity
  8
0
100
AcDbLine
 62
7
  6
CONTINUOUS
 10
3.627495176
 20
6.2579764702
 11
3.6253816359
 21
6.2561578428
  0
LINE
  5
22C
100
AcDbEntity
  8
0
100
AcDbLine
 62
7
  6
CONTINUOUS
 10
3.6512424523
 20
6.2130159905
 11
3.6481787375
 21
6.2103797708
  0
LINE
  5
22D
100
AcDbEntity
  8
0
100
AcDbLine
 62
7
  6
CONTINUOUS
 10
3.6622387704
 20
6.2153607878
 11
3.6577052545
 21
6.2114598555
  0
LINE
  5
22E
100
AcDbEntity
  8
0
100
AcDbLine
 62
7
  6
CONTINUOUS
 10
3.6953644297
 20
6.1901072165
 11
3.6932508897
 21
6.188288589
  0
LINE
  5
22F
100
AcDbEntity
  8
0
100
AcDbLine
 62
7
  6
CONTINUOUS
 10
3.6962656478
 20
6.1712309244
 11
3.6914614384
 21
6.1670970699
  0
LINE
  5
230
100
AcDbEntity
  8
0
100
AcDbLine
 62
7
  6
CONTINUOUS
 10
5.3039214032
 20
3.1238957019
 11
5.4801084519
 21
3.1238957019
  0
LINE
  5
231
100
AcDbEntity
  8
0
100
AcDbLine
 62
7
  6
CONTINUOUS
 10
3.7135942992
 20
6.1479230958
 11
3.708137853
 21
6.1415818206
  0
LINE
  5
232
100
AcDbEntity
  8
0
100
AcDbLine
 62
7
  6
CONTINUOUS
 10
3.7428332234
 20
6.1262599367
 11
3.7379609469
 21
6.1205975614
  0
LINE
  5
233
100
AcDbEntity
  8
0
100
AcDbLine
 62
7
  6
CONTINUOUS
 10
3.7518943328
 20
6.1335773134
 11
3.7500757054
 21
6.1314637733
  0
LINE
  5
234
100
AcDbEntity
  8
0
100
AcDbLine
 62
7
  6
CONTINUOUS
 10
3.763869409
 20
6.0924666412
 11
3.7591741504
 21
6.0870099893
  0
LINE
  5
235
100
AcDbEntity
  8
0
100
AcDbLine
 62
7
  6
CONTINUOUS
 10
3.7769172415
 20
6.0844104806
 11
3.771548519
 21
6.0781711545
  0
LINE
  5
236
100
AcDbEntity
  8
0
100
AcDbLine
 62
7
  6
CONTINUOUS
 10
3.7883643164
 20
6.0908728829
 11
3.7837059751
 21
6.0854591349
  0
LINE
  5
237
100
AcDbEntity
  8
0
100
AcDbLine
 62
7
  6
CONTINUOUS
 10
3.8124485897
 20
6.0438130594
 11
3.8077877416
 21
6.0383963981
  0
LINE
  5
238
100
AcDbEntity
  8
0
100
AcDbLine
 62
7
  6
CONTINUOUS
 10
3.8240250421
 20
6.0447371979
 11
3.8193058162
 21
6.0392526921
  0
LINE
  5
239
100
AcDbEntity
  8
0
100
AcDbLine
 62
7
  6
CONTINUOUS
 10
3.8339521242
 20
6.051519522
 11
3.8321334967
 21
6.049405982
  0
LINE
  5
23A
100
AcDbEntity
  8
0
100
AcDbLine
 62
7
  6
CONTINUOUS
 10
4.0715673344
 20
6.4361582793
 11
4.0801653434
 21
6.4447562883
  0
LINE
  5
23B
100
AcDbEntity
  8
0
100
AcDbLine
 62
7
  6
CONTINUOUS
 10
4.1343871103
 20
6.4989780551
 11
4.1422780125
 21
6.5068689574
  0
LINE
  5
23C
100
AcDbEntity
  8
0
100
AcDbLine
 62
7
  6
CONTINUOUS
 10
4.2715495483
 20
6.5795719507
 11
4.2874470783
 21
6.5954694807
  0
LINE
  5
23D
100
AcDbEntity
  8
0
100
AcDbLine
 62
7
  6
CONTINUOUS
 10
4.3316536247
 20
6.6396760271
 11
4.3475635273
 21
6.6555859297
  0
LINE
  5
23E
100
AcDbEntity
  8
0
100
AcDbLine
 62
7
  6
CONTINUOUS
 10
4.1589411844
 20
6.4603842219
 11
4.1187591766
 21
6.4202022142
  0
LINE
  5
23F
100
AcDbEntity
  8
0
100
AcDbLine
 62
7
  6
CONTINUOUS
 10
4.1284189965
 20
6.4105423943
 11
4.1686010042
 21
6.4507244021
  0
LINE
  5
240
100
AcDbEntity
  8
0
100
AcDbLine
 62
7
  6
CONTINUOUS
 10
4.2879013927
 20
6.5561490386
 11
4.2574732001
 21
6.5257208461
  0
LINE
  5
241
100
AcDbEntity
  8
0
100
AcDbLine
 62
7
  6
CONTINUOUS
 10
4.1388904564
 20
6.4000709343
 11
4.1790724642
 21
6.4402529421
  0
LINE
  5
242
100
AcDbEntity
  8
0
100
AcDbLine
 62
7
  6
CONTINUOUS
 10
4.1500727107
 20
6.3888886801
 11
4.1902547185
 21
6.4290706879
  0
LINE
  5
243
100
AcDbEntity
  8
0
100
AcDbLine
 62
7
  6
CONTINUOUS
 10
4.1618580679
 20
6.3771033228
 11
4.2020400757
 21
6.4172853306
  0
LINE
  5
244
100
AcDbEntity
  8
0
100
AcDbLine
 62
7
  6
CONTINUOUS
 10
3.7101698952
 20
6.149649351
 11
3.7047413749
 21
6.1449782987
  0
LINE
  5
245
100
AcDbEntity
  8
0
100
AcDbLine
 62
7
  6
CONTINUOUS
 10
3.7298270902
 20
6.1481871275
 11
3.7250706948
 21
6.1440944152
  0
LINE
  5
246
100
AcDbEntity
  8
0
100
AcDbLine
 62
7
  6
CONTINUOUS
 10
3.7335230085
 20
6.1265626539
 11
3.7279512895
 21
6.121768384
  0
LINE
  5
247
100
AcDbEntity
  8
0
100
AcDbLine
 62
7
  6
CONTINUOUS
 10
3.7720026819
 20
6.1134689643
 11
3.7698891419
 21
6.1116503368
  0
LINE
  5
248
100
AcDbEntity
  8
0
100
AcDbLine
 62
7
  6
CONTINUOUS
 10
3.7628031335
 20
6.1051111888
 11
3.7577743835
 21
6.1007841249
  0
LINE
  5
249
100
AcDbEntity
  8
0
100
AcDbLine
 62
7
  6
CONTINUOUS
 10
3.7971580651
 20
6.0633450681
 11
3.7913619556
 21
6.058357718
  0
LINE
  5
24A
100
AcDbEntity
  8
0
100
AcDbLine
 62
7
  6
CONTINUOUS
 10
3.8085068163
 20
6.0699371862
 11
3.8035194116
 21
6.0656456984
  0
LINE
  5
24B
100
AcDbEntity
  8
0
100
AcDbLine
 62
7
  6
CONTINUOUS
 10
5.3284750334
 20
3.2506856967
 11
5.4555548216
 21
3.2506856967
  0
LINE
  5
24C
100
AcDbEntity
  8
0
100
AcDbLine
 62
7
  6
CONTINUOUS
 10
5.3410149275
 20
3.3813957019
 11
5.4430149275
 21
3.3813957019
  0
LINE
  5
24D
100
AcDbEntity
  8
0
100
AcDbLine
 62
7
  6
CONTINUOUS
 10
3.8633662808
 20
5.997590541
 11
3.8581690997
 21
5.9915505738
  0
LINE
  5
24E
100
AcDbEntity
  8
0
100
AcDbLine
 62
7
  6
CONTINUOUS
 10
3.8723761005
 20
6.0064847556
 11
3.867891818
 21
6.0012732921
  0
LINE
  5
24F
100
AcDbEntity
  8
0
100
AcDbLine
 62
7
  6
CONTINUOUS
 10
3.9178431354
 20
5.9676285108
 11
3.9160245079
 21
5.9655149708
  0
LINE
  5
250
100
AcDbEntity
  8
0
100
AcDbLine
 62
7
  6
CONTINUOUS
 10
3.9104013157
 20
5.9579519985
 11
3.905871218
 21
5.9526872903
  0
LINE
  5
251
100
AcDbEntity
  8
0
100
AcDbLine
 62
7
  6
CONTINUOUS
 10
3.9084687359
 20
5.9451831052
 11
3.905014924
 21
5.9411692157
  0
LINE
  5
252
100
AcDbEntity
  8
0
100
AcDbLine
 62
7
  6
CONTINUOUS
 10
4.1741330288
 20
6.364828362
 11
4.2143150366
 21
6.4050103697
  0
LINE
  5
253
100
AcDbEntity
  8
0
100
AcDbLine
 62
7
  6
CONTINUOUS
 10
4.1867793787
 20
6.3521820121
 11
4.2269613864
 21
6.3923640199
  0
LINE
  5
254
100
AcDbEntity
  8
0
100
AcDbLine
 62
7
  6
CONTINUOUS
 10
4.1996753263
 20
6.3392860645
 11
4.2398573341
 21
6.3794680723
  0
LINE
  5
255
100
AcDbEntity
  8
0
100
AcDbLine
 62
7
  6
CONTINUOUS
 10
4.2126966766
 20
6.3262647142
 11
4.2528786844
 21
6.3664467219
  0
LINE
  5
256
100
AcDbEntity
  8
0
100
AcDbLine
 62
7
  6
CONTINUOUS
 10
4.2257180269
 20
6.3132433638
 11
4.2659000347
 21
6.3534253716
  0
LINE
  5
257
100
AcDbEntity
  8
0
100
AcDbLine
 62
7
  6
CONTINUOUS
 10
4.2386139745
 20
6.3003474162
 11
4.2787959823
 21
6.340529424
  0
LINE
  5
258
100
AcDbEntity
  8
0
100
AcDbLine
 62
7
  6
CONTINUOUS
 10
4.2512603244
 20
6.2877010664
 11
4.2914423322
 21
6.3278830741
  0
LINE
  5
259
100
AcDbEntity
  8
0
100
AcDbLine
 62
7
  6
CONTINUOUS
 10
4.2635352853
 20
6.2754261055
 11
4.303717293
 21
6.3156081133
  0
LINE
  5
25A
100
AcDbEntity
  8
0
100
AcDbLine
 62
7
  6
CONTINUOUS
 10
4.2753206425
 20
6.2636407482
 11
4.3155026503
 21
6.303822756
  0
LINE
  5
25B
100
AcDbEntity
  8
0
100
AcDbLine
 62
7
  6
CONTINUOUS
 10
4.2865028968
 20
6.252458494
 11
4.3266849045
 21
6.2926405018
  0
LINE
  5
25C
100
AcDbEntity
  8
0
100
AcDbLine
 62
7
  6
CONTINUOUS
 10
4.442581001
 20
6.4014694302
 11
4.4121528085
 21
6.3710412377
  0
LINE
  5
25D
100
AcDbEntity
  8
0
100
AcDbLine
 62
7
  6
CONTINUOUS
 10
3.8316150676
 20
6.0220367734
 11
3.8276011781
 21
6.0185829615
  0
LINE
  5
25E
100
AcDbEntity
  8
0
100
AcDbLine
 62
7
  6
CONTINUOUS
 10
3.844383968
 20
6.0239693594
 11
3.8391192527
 21
6.0194392556
  0
LINE
  5
25F
100
AcDbEntity
  8
0
100
AcDbLine
 62
7
  6
CONTINUOUS
 10
3.8540604733
 20
6.0314111729
 11
3.8519469332
 21
6.0295925455
  0
LINE
  5
260
100
AcDbEntity
  8
0
100
AcDbLine
 62
7
  6
CONTINUOUS
 10
3.8929167036
 20
5.9859441257
 11
3.8877052545
 21
5.9814598555
  0
LINE
  5
261
100
AcDbEntity
  8
0
100
AcDbLine
 62
7
  6
CONTINUOUS
 10
3.884022498
 20
5.9769343137
 11
3.8779825363
 21
5.9717371373
  0
LINE
  5
262
100
AcDbEntity
  8
0
100
AcDbLine
 62
7
  6
CONTINUOUS
 10
3.9379514845
 20
5.9475201617
 11
3.9358379444
 21
5.9457015343
  0
LINE
  5
263
100
AcDbEntity
  8
0
100
AcDbLine
 62
7
  6
CONTINUOUS
 10
3.9311691606
 20
5.9375930799
 11
3.9256846545
 21
5.9328738538
  0
LINE
  5
264
100
AcDbEntity
  8
0
100
AcDbLine
 62
7
  6
CONTINUOUS
 10
3.9302450154
 20
5.9260166217
 11
3.9248283605
 21
5.9213557791
  0
LINE
  5
265
100
AcDbEntity
  8
0
100
AcDbLine
 62
7
  6
CONTINUOUS
 10
6.2225149275
 20
3.4026457019
 11
6.2025149275
 21
3.4026457019
  0
LINE
  5
266
100
AcDbEntity
  8
0
100
AcDbLine
 62
7
  6
CONTINUOUS
 10
6.1600149275
 20
3.4538957019
 11
6.1425149275
 21
3.4538957019
  0
LINE
  5
267
100
AcDbEntity
  8
0
100
AcDbLine
 62
7
  6
CONTINUOUS
 10
5.4457649244
 20
3.4563957019
 11
5.3382649307
 21
3.4563957019
  0
LINE
  5
268
100
AcDbEntity
  8
0
100
AcDbLine
 62
7
  6
CONTINUOUS
 10
5.4507649275
 20
3.4613957019
 11
5.3332649275
 21
3.4613957019
  0
LINE
  5
269
100
AcDbEntity
  8
0
100
AcDbLine
 62
7
  6
CONTINUOUS
 10
5.4507649275
 20
3.4713957019
 11
5.3332649275
 21
3.4713957019
  0
LINE
  5
26A
100
AcDbEntity
  8
0
100
AcDbLine
 62
7
  6
CONTINUOUS
 10
5.4457649244
 20
3.4763957019
 11
5.3382649307
 21
3.4763957019
  0
LINE
  5
26B
100
AcDbEntity
  8
0
100
AcDbLine
 62
7
  6
CONTINUOUS
 10
6.1100149275
 20
3.5001457019
 11
6.0920149275
 21
3.5001457019
  0
LINE
  5
26C
100
AcDbEntity
  8
0
100
AcDbLine
 62
7
  6
CONTINUOUS
 10
6.0530149275
 20
3.5001457019
 11
6.0350149275
 21
3.5001457019
  0
LINE
  5
26D
100
AcDbEntity
  8
0
100
AcDbLine
 62
7
  6
CONTINUOUS
 10
6.0275149275
 20
3.5263957019
 11
5.6098409238
 21
3.5263957019
  0
LINE
  5
26E
100
AcDbEntity
  8
0
100
AcDbLine
 62
7
  6
CONTINUOUS
 10
3.956369148
 20
5.9220748531
 11
3.9520776608
 21
5.9170874492
  0
LINE
  5
26F
100
AcDbEntity
  8
0
100
AcDbLine
 62
7
  6
CONTINUOUS
 10
3.9497770289
 20
5.9107261009
 11
3.9447896804
 21
5.9049299931
  0
LINE
  5
270
100
AcDbEntity
  8
0
100
AcDbLine
 62
7
  6
CONTINUOUS
 10
3.9915431322
 20
5.8763711489
 11
3.9872160873
 21
5.871342421
  0
LINE
  5
271
100
AcDbEntity
  8
0
100
AcDbLine
 62
7
  6
CONTINUOUS
 10
3.9999009267
 20
5.8855707195
 11
3.9980822992
 21
5.8834571795
  0
LINE
  5
272
100
AcDbEntity
  8
0
100
AcDbLine
 62
7
  6
CONTINUOUS
 10
4.0129946252
 20
5.8470910564
 11
4.0082003465
 21
5.8415193271
  0
LINE
  5
273
100
AcDbEntity
  8
0
100
AcDbLine
 62
7
  6
CONTINUOUS
 10
4.0346190913
 20
5.8433951293
 11
4.0305263776
 21
5.8386387324
  0
LINE
  5
274
100
AcDbEntity
  8
0
100
AcDbLine
 62
7
  6
CONTINUOUS
 10
4.0360813138
 20
5.8237379331
 11
4.0314102611
 21
5.8183094124
  0
LINE
  5
275
100
AcDbEntity
  8
0
100
AcDbLine
 62
7
  6
CONTINUOUS
 10
4.0576629111
 20
5.8098337135
 11
4.0535290323
 21
5.805029476
  0
LINE
  5
276
100
AcDbEntity
  8
0
100
AcDbLine
 62
7
  6
CONTINUOUS
 10
4.2969743567
 20
6.241987034
 11
4.3371563645
 21
6.2821690418
  0
LINE
  5
277
100
AcDbEntity
  8
0
100
AcDbLine
 62
7
  6
CONTINUOUS
 10
4.3066341766
 20
6.2323272142
 11
4.3468161844
 21
6.2725092219
  0
LINE
  5
278
100
AcDbEntity
  8
0
100
AcDbLine
 62
7
  6
CONTINUOUS
 10
4.4660039132
 20
6.3851175859
 11
4.4819014431
 21
6.4010151158
  0
LINE
  5
279
100
AcDbEntity
  8
0
100
AcDbLine
 62
7
  6
CONTINUOUS
 10
4.5261079896
 20
6.4452216623
 11
4.5420178921
 21
6.4611315649
  0
LINE
  5
27A
100
AcDbEntity
  8
0
100
AcDbLine
 62
7
  6
CONTINUOUS
 10
4.3225902417
 20
6.1851353719
 11
4.3311882507
 21
6.193733381
  0
LINE
  5
27B
100
AcDbEntity
  8
0
100
AcDbLine
 62
7
  6
CONTINUOUS
 10
4.3854100176
 20
6.2479551478
 11
4.3933009198
 21
6.2558460501
  0
LINE
  5
27C
100
AcDbEntity
  8
0
100
AcDbLine
 62
7
  6
CONTINUOUS
 10
3.977304868
 20
5.9019323734
 11
3.9718910974
 21
5.8972740127
  0
LINE
  5
27D
100
AcDbEntity
  8
0
100
AcDbLine
 62
7
  6
CONTINUOUS
 10
3.9708424134
 20
5.8904852535
 11
3.964603117
 21
5.8851165566
  0
LINE
  5
27E
100
AcDbEntity
  8
0
100
AcDbLine
 62
7
  6
CONTINUOUS
 10
3.9788986038
 20
5.8774374467
 11
3.9734419517
 21
5.8727421879
  0
LINE
  5
27F
100
AcDbEntity
  8
0
100
AcDbLine
 62
7
  6
CONTINUOUS
 10
4.0200092758
 20
5.8654623704
 11
4.0178957358
 21
5.8636437429
  0
LINE
  5
280
100
AcDbEntity
  8
0
100
AcDbLine
 62
7
  6
CONTINUOUS
 10
4.012691909
 20
5.8564012694
 11
4.0070295238
 21
5.8515289845
  0
LINE
  5
281
100
AcDbEntity
  8
0
100
AcDbLine
 62
7
  6
CONTINUOUS
 10
4.0343550711
 20
5.8271623478
 11
4.028013783
 21
5.8217058905
  0
LINE
  5
282
100
AcDbEntity
  8
0
100
AcDbLine
 62
7
  6
CONTINUOUS
 10
4.0559208077
 20
5.8236275461
 11
4.0503398142
 21
5.8188252959
  0
LINE
  5
283
100
AcDbEntity
  8
0
100
AcDbLine
 62
7
  6
CONTINUOUS
 10
4.0533669107
 20
5.8003401359
 11
4.0512236976
 21
5.7984959759
  0
LINE
  5
284
100
AcDbEntity
  8
0
100
AcDbLine
 62
7
  6
CONTINUOUS
 10
5.304545543
 20
3.5771457019
 11
5.317045543
 21
3.5771457019
  0
LINE
  5
285
100
AcDbEntity
  8
0
100
AcDbLine
 62
7
  6
CONTINUOUS
 10
5.3470149275
 20
3.5771457019
 11
5.3595149275
 21
3.5771457019
  0
LINE
  5
286
100
AcDbEntity
  8
0
100
AcDbLine
 62
7
  6
CONTINUOUS
 10
5.3018345318
 20
3.5913957019
 11
5.302045543
 21
3.5913957019
  0
LINE
  5
287
100
AcDbEntity
  8
0
100
AcDbLine
 62
7
  6
CONTINUOUS
 10
5.3620149275
 20
3.5951457019
 11
5.3681609569
 21
3.5951457019
  0
LINE
  5
288
100
AcDbEntity
  8
0
100
AcDbLine
 62
7
  6
CONTINUOUS
 10
5.5382649275
 20
3.6138957019
 11
5.5450149275
 21
3.6138957019
  0
LINE
  5
289
100
AcDbEntity
  8
0
100
AcDbLine
 62
7
  6
CONTINUOUS
 10
5.5382649275
 20
3.7188957019
 11
5.5450149275
 21
3.7188957019
  0
LWPOLYLINE
  5
28A
100
AcDbEntity
  8
0
100
AcDbPolyline
 62
7
  6
CONTINUOUS
 90
58
 70
0
 10
5.3681609647
 20
3.5951456724
 10
5.368376802
 20
3.5951445077
 10
5.368716824
 20
3.5951379463
 10
5.3690566856
 20
3.5951256043
 10
5.3693962885
 20
3.5951074851
 10
5.3697355344
 20
3.5950835941
 10
5.3700743253
 20
3.595053938
 10
5.3704125632
 20
3.5950185256
 10
5.3707501502
 20
3.5949773669
 10
5.3710869887
 20
3.5949304739
 10
5.3714229813
 20
3.5948778601
 10
5.3717580308
 20
3.5948195409
 10
5.3720920402
 20
3.5947555329
 10
5.3724249131
 20
3.5946858548
 10
5.372756553
 20
3.5946105267
 10
5.3730868643
 20
3.5945295703
 10
5.3734157512
 20
3.5944430091
 10
5.3737431188
 20
3.5943508681
 10
5.3740688723
 20
3.594253174
 10
5.3743929176
 20
3.5941499549
 10
5.374715161
 20
3.5940412408
 10
5.3750355092
 20
3.593927063
 10
5.3753538698
 20
3.5938074546
 10
5.3756701505
 20
3.5936824502
 10
5.37598426
 20
3.5935520859
 10
5.3762961075
 20
3.5934163994
 10
5.3766056027
 20
3.59327543
 10
5.3769126561
 20
3.5931292183
 10
5.3772171791
 20
3.5929778068
 10
5.3775190835
 20
3.592821239
 10
5.377818282
 20
3.5926595605
 10
5.3781146881
 20
3.5924928178
 10
5.3784082161
 20
3.5923210591
 10
5.3786987812
 20
3.5921443343
 10
5.3789862993
 20
3.5919626943
 10
5.3792706872
 20
3.5917761917
 10
5.3795518628
 20
3.5915848804
 10
5.3798297448
 20
3.5913888157
 10
5.3801042527
 20
3.5911880543
 10
5.3803753073
 20
3.5909826543
 10
5.3806428301
 20
3.5907726751
 10
5.3809067437
 20
3.5905581774
 10
5.381166972
 20
3.5903392231
 10
5.3814234396
 20
3.5901158757
 10
5.3816760724
 20
3.5898881996
 10
5.3819247973
 20
3.5896562608
 10
5.3821695424
 20
3.5894201263
 10
5.3824102369
 20
3.5891798643
 10
5.3826468113
 20
3.5889355444
 10
5.3828791971
 20
3.5886872372
 10
5.3831073272
 20
3.5884350145
 10
5.3833311355
 20
3.5881789491
 10
5.3835505574
 20
3.5879191153
 10
5.3837655295
 20
3.587655588
 10
5.3839759894
 20
3.5873884436
 10
5.3841818765
 20
3.5871177592
 10
5.3843831312
 20
3.5868436131
 10
5.3845796952
 20
3.5865660845
  0
LINE
  5
28B
100
AcDbEntity
  8
0
100
AcDbLine
 62
7
  6
CONTINUOUS
 10
4.0765391789
 20
5.8089324673
 11
4.0747205515
 21
5.8068189272
  0
LINE
  5
28C
100
AcDbEntity
  8
0
100
AcDbLine
 62
7
  6
CONTINUOUS
 10
4.1017927446
 20
5.7758068013
 11
4.097891818
 21
5.7712732921
  0
LINE
  5
28D
100
AcDbEntity
  8
0
100
AcDbLine
 62
7
  6
CONTINUOUS
 10
4.0994479529
 20
5.7648104899
 11
4.0968117332
 21
5.7617467751
  0
LINE
  5
28E
100
AcDbEntity
  8
0
100
AcDbLine
 62
7
  6
CONTINUOUS
 10
4.1444084327
 20
5.7410632135
 11
4.1425898052
 21
5.7389496735
  0
LINE
  5
28F
100
AcDbEntity
  8
0
100
AcDbLine
 62
7
  6
CONTINUOUS
 10
4.1530369503
 20
5.7235958611
 11
4.1495831384
 21
5.7195819716
  0
LINE
  5
290
100
AcDbEntity
  8
0
100
AcDbLine
 62
7
  6
CONTINUOUS
 10
4.1856649373
 20
5.6912564462
 11
4.1820776608
 21
5.6870874492
  0
LINE
  5
291
100
AcDbEntity
  8
0
100
AcDbLine
 62
7
  6
CONTINUOUS
 10
4.0791195126
 20
5.7901869841
 11
4.0733424688
 21
5.7852160395
  0
LINE
  5
292
100
AcDbEntity
  8
0
100
AcDbLine
 62
7
  6
CONTINUOUS
 10
4.096647528
 20
5.7888241182
 11
4.094533988
 21
5.7870054907
  0
LINE
  5
293
100
AcDbEntity
  8
0
100
AcDbLine
 62
7
  6
CONTINUOUS
 10
4.1234071202
 20
5.756366112
 11
4.1177052545
 21
5.7514598555
  0
LINE
  5
294
100
AcDbEntity
  8
0
100
AcDbLine
 62
7
  6
CONTINUOUS
 10
4.1224393886
 20
5.7469362711
 11
4.1166251697
 21
5.7419333386
  0
LINE
  5
295
100
AcDbEntity
  8
0
100
AcDbLine
 62
7
  6
CONTINUOUS
 10
4.1374253507
 20
5.731864798
 11
4.131657094
 21
5.7269014143
  0
LINE
  5
296
100
AcDbEntity
  8
0
100
AcDbLine
 62
7
  6
CONTINUOUS
 10
4.1645167818
 20
5.7209548644
 11
4.1624032417
 21
5.719136237
  0
LINE
  5
297
100
AcDbEntity
  8
0
100
AcDbLine
 62
7
  6
CONTINUOUS
 10
4.1751647133
 20
5.704731817
 11
4.1693965749
 21
5.6997685351
  0
LINE
  5
298
100
AcDbEntity
  8
0
100
AcDbLine
 62
7
  6
CONTINUOUS
 10
5.3620149275
 20
3.7376457019
 11
5.515047208
 21
3.7376457019
  0
LINE
  5
299
100
AcDbEntity
  8
0
100
AcDbLine
 62
7
  6
CONTINUOUS
 10
5.3018345318
 20
3.7413957019
 11
5.302045543
 21
3.7413957019
  0
LINE
  5
29A
100
AcDbEntity
  8
0
100
AcDbLine
 62
7
  6
CONTINUOUS
 10
5.304545543
 20
3.7556457019
 11
5.317045543
 21
3.7556457019
  0
LINE
  5
29B
100
AcDbEntity
  8
0
100
AcDbLine
 62
7
  6
CONTINUOUS
 10
5.3470149275
 20
3.7556457019
 11
5.3595149275
 21
3.7556457019
  0
LINE
  5
29C
100
AcDbEntity
  8
0
100
AcDbLine
 62
7
  6
CONTINUOUS
 10
6.0275149275
 20
3.8063957019
 11
5.6098409238
 21
3.8063957019
  0
LINE
  5
29D
100
AcDbEntity
  8
0
100
AcDbLine
 62
7
  6
CONTINUOUS
 10
6.1100149275
 20
3.8326457019
 11
6.0920149275
 21
3.8326457019
  0
LINE
  5
29E
100
AcDbEntity
  8
0
100
AcDbLine
 62
7
  6
CONTINUOUS
 10
6.0530149275
 20
3.8326457019
 11
6.0350149275
 21
3.8326457019
  0
LINE
  5
29F
100
AcDbEntity
  8
0
100
AcDbLine
 62
7
  6
CONTINUOUS
 10
6.1600149275
 20
3.8788957019
 11
6.1425149275
 21
3.8788957019
  0
LINE
  5
2A0
100
AcDbEntity
  8
0
100
AcDbLine
 62
7
  6
CONTINUOUS
 10
4.2005424759
 20
5.6849291703
 11
4.1987238484
 21
5.6828156303
  0
LINE
  5
2A1
100
AcDbEntity
  8
0
100
AcDbLine
 62
7
  6
CONTINUOUS
 10
4.2424879815
 20
5.6429836647
 11
4.240669354
 21
5.6408701247
  0
LINE
  5
2A2
100
AcDbEntity
  8
0
100
AcDbLine
 62
7
  6
CONTINUOUS
 10
4.2684117296
 20
5.6170599166
 11
4.2665931021
 21
5.6149463765
  0
LINE
  5
2A3
100
AcDbEntity
  8
0
100
AcDbLine
 62
7
  6
CONTINUOUS
 10
4.5350266381
 20
5.7947632373
 11
4.5313635188
 21
5.7911001181
  0
LINE
  5
2A4
100
AcDbEntity
  8
0
100
AcDbLine
 62
7
  6
CONTINUOUS
 10
4.2059049869
 20
5.6707278246
 11
4.2018910974
 21
5.6672740127
  0
LINE
  5
2A5
100
AcDbEntity
  8
0
100
AcDbLine
 62
7
  6
CONTINUOUS
 10
4.220650825
 20
5.6648208212
 11
4.2185372849
 21
5.6630021938
  0
LINE
  5
2A6
100
AcDbEntity
  8
0
100
AcDbLine
 62
7
  6
CONTINUOUS
 10
4.2186926254
 20
5.6611110922
 11
4.2129743738
 21
5.6561907362
  0
LINE
  5
2A7
100
AcDbEntity
  8
0
100
AcDbLine
 62
7
  6
CONTINUOUS
 10
4.2625963306
 20
5.6228753156
 11
4.2604827905
 21
5.6210566882
  0
LINE
  5
2A8
100
AcDbEntity
  8
0
100
AcDbLine
 62
7
  6
CONTINUOUS
 10
4.2885200787
 20
5.5969515675
 11
4.2864065387
 21
5.59513294
  0
LINE
  5
2A9
100
AcDbEntity
  8
0
100
AcDbLine
 62
7
  6
CONTINUOUS
 10
4.2972890772
 20
5.588182569
 11
4.2951755372
 21
5.5863639415
  0
LINE
  5
2AA
100
AcDbEntity
  8
0
100
AcDbLine
 62
7
  6
CONTINUOUS
 10
6.2225149275
 20
3.9301457019
 11
6.2025149275
 21
3.9301457019
  0
LINE
  5
2AB
100
AcDbEntity
  8
0
100
AcDbLine
 62
7
  6
CONTINUOUS
 10
4.5461156411
 20
5.702206753
 11
4.4644535397
 21
5.6154724713
  0
LINE
  5
2AC
100
AcDbEntity
  8
0
100
AcDbLine
 62
7
  6
CONTINUOUS
 10
4.4551727632
 20
5.4727252899
 11
4.4427983945
 21
5.4603509212
  0
LINE
  5
2AD
100
AcDbEntity
  8
0
100
AcDbLine
 62
7
  6
CONTINUOUS
 10
5.3617859073
 20
3.5311722516
 11
5.4396053515
 21
3.4766824901
  0
LINE
  5
2AE
100
AcDbEntity
  8
0
100
AcDbLine
 62
7
  6
CONTINUOUS
 10
4.2437072188
 20
6.4924868273
 11
4.2437072188
 21
6.4881947865
  0
LINE
  5
2AF
100
AcDbEntity
  8
0
100
AcDbLine
 62
7
  6
CONTINUOUS
 10
6.3057649275
 20
4.4801457019
 11
6.2928085877
 21
4.4801457019
  0
LINE
  5
2B0
100
AcDbEntity
  8
0
100
AcDbLine
 62
7
  6
CONTINUOUS
 10
4.6875149275
 20
6.7992082019
 11
4.6875149275
 21
6.5335832019
  0
LWPOLYLINE
  5
2B1
100
AcDbEntity
  8
0
100
AcDbPolyline
 62
7
  6
CONTINUOUS
 90
9
 70
0
 10
5.3845796952
 20
3.5865660845
 10
5.3847715117
 20
3.5862852538
 10
5.3849585254
 20
3.5860012022
 10
5.3851406821
 20
3.5857140117
 10
5.385317929
 20
3.5854237654
 10
5.3854902151
 20
3.5851305472
 10
5.3856574905
 20
3.584834442
 10
5.3858197067
 20
3.5845355353
 10
5.385976817
 20
3.5842339136
  0
LINE
  5
2B2
100
AcDbEntity
  8
0
100
AcDbLine
 62
7
  6
CONTINUOUS
 10
3.6929130776
 20
6.1683466497
 11
3.7093173653
 21
6.1505682897
  0
LINE
  5
2B3
100
AcDbEntity
  8
0
100
AcDbLine
 62
7
  6
CONTINUOUS
 10
3.63785255
 20
6.2312376849
 11
3.6378572325
 21
6.2312325865
  0
LINE
  5
2B4
100
AcDbEntity
  8
0
100
AcDbLine
 62
7
  6
CONTINUOUS
 10
3.6176002548
 20
6.25177566
 11
3.6325202615
 21
6.2350219452
  0
LINE
  5
2B5
100
AcDbEntity
  8
0
100
AcDbLine
 62
7
  6
CONTINUOUS
 10
3.5468570211
 20
6.3330603843
 11
3.5487306586
 21
6.3308786912
  0
LINE
  5
2B6
100
AcDbEntity
  8
0
100
AcDbLine
 62
7
  6
CONTINUOUS
 10
3.8374621995
 20
6.0164376143
 11
3.8355292369
 21
6.0187106651
  0
LINE
  5
2B7
100
AcDbEntity
  8
0
100
AcDbLine
 62
7
  6
CONTINUOUS
 10
5.3859769281
 20
3.5842336937
 11
5.3860420406
 21
3.5841049053
  0
LINE
  5
2B8
100
AcDbEntity
  8
0
100
AcDbLine
 62
7
  6
CONTINUOUS
 10
3.9028695767
 20
5.951030237
 11
3.9051426276
 21
5.9490972745
  0
LINE
  5
2B9
100
AcDbEntity
  8
0
100
AcDbLine
 62
7
  6
CONTINUOUS
 10
4.2173107831
 20
5.6622985861
 11
4.2194923467
 21
5.6604250587
  0
LINE
  5
2BA
100
AcDbEntity
  8
0
100
AcDbLine
 62
7
  6
CONTINUOUS
 10
4.1214537365
 20
5.7460884534
 11
4.1382076225
 21
5.7311682924
  0
LINE
  5
2BB
100
AcDbEntity
  8
0
100
AcDbLine
 62
7
  6
CONTINUOUS
 10
4.1176644486
 20
5.7514253621
 11
4.1176695572
 21
5.7514206703
  0
LINE
  5
2BC
100
AcDbEntity
  8
0
100
AcDbLine
 62
7
  6
CONTINUOUS
 10
4.0370002522
 20
5.8228854028
 11
4.0547786434
 21
5.8064810864
  0
LINE
  5
2BD
100
AcDbEntity
  8
0
100
AcDbLine
 62
7
  6
CONTINUOUS
 10
3.9678986663
 20
5.8879522619
 11
3.979676895
 21
5.8766934808
  0
LINE
  5
2BE
100
AcDbEntity
  8
0
100
AcDbLine
 62
7
  6
CONTINUOUS
 10
3.9683443941
 20
5.8729330783
 11
3.9538194055
 21
5.8874580668
  0
LINE
  5
2BF
100
AcDbEntity
  8
0
100
AcDbLine
 62
7
  6
CONTINUOUS
 10
3.9197308029
 20
5.9215466695
 11
3.9052058143
 21
5.936071658
  0
LINE
  5
2C0
100
AcDbEntity
  8
0
100
AcDbLine
 62
7
  6
CONTINUOUS
 10
3.8225036205
 20
6.0187738519
 11
3.8079786319
 21
6.0332988405
  0
LINE
  5
2C1
100
AcDbEntity
  8
0
100
AcDbLine
 62
7
  6
CONTINUOUS
 10
3.7738900293
 20
6.0673874431
 11
3.7593650407
 21
6.0819124317
  0
LINE
  5
2C2
100
AcDbEntity
  8
0
100
AcDbLine
 62
7
  6
CONTINUOUS
 10
4.04612614
 20
5.7986868662
 11
4.0316011515
 21
5.8132118548
  0
LINE
  5
2C3
100
AcDbEntity
  8
0
100
AcDbLine
 62
7
  6
CONTINUOUS
 10
4.0229162254
 20
5.8218967809
 11
4.0083912368
 21
5.8364217695
  0
LINE
  5
2C4
100
AcDbEntity
  8
0
100
AcDbLine
 62
7
  6
CONTINUOUS
 10
3.9595055593
 20
5.8853074469
 11
3.9449805708
 21
5.8998324355
  0
LINE
  5
2C5
100
AcDbEntity
  8
0
100
AcDbLine
 62
7
  6
CONTINUOUS
 10
3.8728849786
 20
5.9719280276
 11
3.8583599901
 21
5.9864530162
  0
LINE
  5
2C6
100
AcDbEntity
  8
0
100
AcDbLine
 62
7
  6
CONTINUOUS
 10
3.786264398
 20
6.0585486083
 11
3.7717394094
 21
6.0730735969
  0
LINE
  5
2C7
100
AcDbEntity
  8
0
100
AcDbLine
 62
7
  6
CONTINUOUS
 10
3.7228537319
 20
6.1219592744
 11
3.7083287433
 21
6.1364842629
  0
LINE
  5
2C8
100
AcDbEntity
  8
0
100
AcDbLine
 62
7
  6
CONTINUOUS
 10
3.6996438173
 20
6.145169189
 11
3.6851188287
 21
6.1596941776
  0
LINE
  5
2C9
100
AcDbEntity
  8
0
100
AcDbLine
 62
7
  6
CONTINUOUS
 10
3.9734419517
 20
5.8727421879
 11
3.9619700785
 21
5.8842140611
  0
LINE
  5
2CA
100
AcDbEntity
  8
0
100
AcDbLine
 62
7
  6
CONTINUOUS
 10
3.9248283605
 20
5.9213557791
 11
3.905014924
 21
5.9411692157
  0
LINE
  5
2CB
100
AcDbEntity
  8
0
100
AcDbLine
 62
7
  6
CONTINUOUS
 10
3.8276011781
 20
6.0185829615
 11
3.8077877416
 21
6.0383963981
  0
LINE
  5
2CC
100
AcDbEntity
  8
0
100
AcDbLine
 62
7
  6
CONTINUOUS
 10
3.7706460235
 20
6.0755381161
 11
3.7591741504
 21
6.0870099893
  0
LINE
  5
2CD
100
AcDbEntity
  8
0
100
AcDbLine
 62
7
  6
CONTINUOUS
 10
4.0512236976
 20
5.7984959759
 11
4.0314102611
 21
5.8183094124
  0
LINE
  5
2CE
100
AcDbEntity
  8
0
100
AcDbLine
 62
7
  6
CONTINUOUS
 10
4.028013783
 20
5.8217058905
 11
4.0082003465
 21
5.8415193271
  0
LINE
  5
2CF
100
AcDbEntity
  8
0
100
AcDbLine
 62
7
  6
CONTINUOUS
 10
3.964603117
 20
5.8851165566
 11
3.9447896804
 21
5.9049299931
  0
LINE
  5
2D0
100
AcDbEntity
  8
0
100
AcDbLine
 62
7
  6
CONTINUOUS
 10
3.8779825363
 20
5.9717371373
 11
3.8581690997
 21
5.9915505738
  0
LINE
  5
2D1
100
AcDbEntity
  8
0
100
AcDbLine
 62
7
  6
CONTINUOUS
 10
3.7913619556
 20
6.058357718
 11
3.771548519
 21
6.0781711545
  0
LINE
  5
2D2
100
AcDbEntity
  8
0
100
AcDbLine
 62
7
  6
CONTINUOUS
 10
3.7279512895
 20
6.121768384
 11
3.708137853
 21
6.1415818206
  0
LINE
  5
2D3
100
AcDbEntity
  8
0
100
AcDbLine
 62
7
  6
CONTINUOUS
 10
3.7047413749
 20
6.1449782987
 11
3.6849279383
 21
6.1647917352
  0
LINE
  5
2D4
100
AcDbEntity
  8
0
100
AcDbLine
 62
7
  6
CONTINUOUS
 10
4.1265595364
 20
5.7270923046
 11
4.1120345478
 21
5.7416172932
  0
LINE
  5
2D5
100
AcDbEntity
  8
0
100
AcDbLine
 62
7
  6
CONTINUOUS
 10
4.1115276121
 20
5.7421242289
 11
4.0970026236
 21
5.7566492175
  0
LINE
  5
2D6
100
AcDbEntity
  8
0
100
AcDbLine
 62
7
  6
CONTINUOUS
 10
4.0682449112
 20
5.7854069298
 11
4.0537199227
 21
5.7999319184
  0
LINE
  5
2D7
100
AcDbEntity
  8
0
100
AcDbLine
 62
7
  6
CONTINUOUS
 10
4.0019319662
 20
5.8517198748
 11
3.9874069776
 21
5.8662448634
  0
LINE
  5
2D8
100
AcDbEntity
  8
0
100
AcDbLine
 62
7
  6
CONTINUOUS
 10
3.9205870969
 20
5.9330647441
 11
3.9060621084
 21
5.9475897327
  0
LINE
  5
2D9
100
AcDbEntity
  8
0
100
AcDbLine
 62
7
  6
CONTINUOUS
 10
3.8340216951
 20
6.0196301459
 11
3.8194967066
 21
6.0341551345
  0
LINE
  5
2DA
100
AcDbEntity
  8
0
100
AcDbLine
 62
7
  6
CONTINUOUS
 10
3.7526768258
 20
6.1009750152
 11
3.7381518373
 21
6.1155000038
  0
LINE
  5
2DB
100
AcDbEntity
  8
0
100
AcDbLine
 62
7
  6
CONTINUOUS
 10
3.6863638808
 20
6.1672879602
 11
3.6718388923
 21
6.1818129488
  0
LINE
  5
2DC
100
AcDbEntity
  8
0
100
AcDbLine
 62
7
  6
CONTINUOUS
 10
3.6430811799
 20
6.2105706611
 11
3.6285561914
 21
6.2250956497
  0
LINE
  5
2DD
100
AcDbEntity
  8
0
100
AcDbLine
 62
7
  6
CONTINUOUS
 10
3.6280492557
 20
6.2256025854
 11
3.6135242671
 21
6.240127574
  0
LINE
  5
2DE
100
AcDbEntity
  8
0
100
AcDbLine
 62
7
  6
CONTINUOUS
 10
3.8374621995
 20
6.0164376143
 11
3.8601024146
 21
5.9937973992
  0
LINE
  5
2DF
100
AcDbEntity
  8
0
100
AcDbLine
 62
7
  6
CONTINUOUS
 10
3.8802293616
 20
5.9736704522
 11
3.9028695767
 21
5.951030237
  0
LINE
  5
2E0
100
AcDbEntity
  8
0
100
AcDbLine
 62
7
  6
CONTINUOUS
 10
3.7951384565
 20
6.0598950183
 11
3.8118805591
 21
6.0431529157
  0
LINE
  5
2E1
100
AcDbEntity
  8
0
100
AcDbLine
 62
7
  6
CONTINUOUS
 10
3.8364972667
 20
6.0185362081
 11
3.8606267328
 21
5.994406742
  0
LINE
  5
2E2
100
AcDbEntity
  8
0
100
AcDbLine
 62
7
  6
CONTINUOUS
 10
3.8808387045
 20
5.9741947704
 11
3.9049681706
 21
5.9500653043
  0
LINE
  5
2E3
100
AcDbEntity
  8
0
100
AcDbLine
 62
7
  6
CONTINUOUS
 10
3.9295848782
 20
5.9254485967
 11
3.9463269808
 21
5.9087064941
  0
LINE
  5
2E4
100
AcDbEntity
  8
0
100
AcDbLine
 62
7
  6
CONTINUOUS
 10
3.7942498615
 20
6.0608426603
 11
3.8119078683
 21
6.0431846534
  0
LINE
  5
2E5
100
AcDbEntity
  8
0
100
AcDbLine
 62
7
  6
CONTINUOUS
 10
3.8365587411
 20
6.0185337806
 11
3.860654042
 21
5.9944384797
  0
LINE
  5
2E6
100
AcDbEntity
  8
0
100
AcDbLine
 62
7
  6
CONTINUOUS
 10
3.8808704422
 20
5.9742220796
 11
3.904965743
 21
5.9501267787
  0
LINE
  5
2E7
100
AcDbEntity
  8
0
100
AcDbLine
 62
7
  6
CONTINUOUS
 10
3.9296166159
 20
5.9254759058
 11
3.9472746227
 21
5.907817899
  0
LINE
  5
2E8
100
AcDbEntity
  8
0
100
AcDbLine
 62
7
  6
CONTINUOUS
 10
3.9801877089
 20
5.8762077492
 11
3.9681913511
 21
5.8882041069
  0
LINE
  5
2E9
100
AcDbEntity
  8
0
100
AcDbLine
 62
7
  6
CONTINUOUS
 10
3.9478772308
 20
5.9085182273
 11
3.9242810926
 21
5.9321143655
  0
LINE
  5
2EA
100
AcDbEntity
  8
0
100
AcDbLine
 62
7
  6
CONTINUOUS
 10
3.9051117297
 20
5.9512837284
 11
3.8815707704
 21
5.9748246876
  0
LINE
  5
2EB
100
AcDbEntity
  8
0
100
AcDbLine
 62
7
  6
CONTINUOUS
 10
3.8612566501
 20
5.995138808
 11
3.8377156908
 21
6.0186797673
  0
LINE
  5
2EC
100
AcDbEntity
  8
0
100
AcDbLine
 62
7
  6
CONTINUOUS
 10
3.8185463279
 20
6.0378491302
 11
3.7949501898
 21
6.0614452683
  0
LINE
  5
2ED
100
AcDbEntity
  8
0
100
AcDbLine
 62
7
  6
CONTINUOUS
 10
3.7746360694
 20
6.0817593887
 11
3.7626397117
 21
6.0937557464
  0
LINE
  5
2EE
100
AcDbEntity
  8
0
100
AcDbLine
 62
7
  6
CONTINUOUS
 10
4.131657094
 20
5.7269014143
 11
4.0968117332
 21
5.7617467751
  0
LINE
  5
2EF
100
AcDbEntity
  8
0
100
AcDbLine
 62
7
  6
CONTINUOUS
 10
4.0733424688
 20
5.7852160395
 11
4.0535290323
 21
5.805029476
  0
LINE
  5
2F0
100
AcDbEntity
  8
0
100
AcDbLine
 62
7
  6
CONTINUOUS
 10
4.0070295238
 20
5.8515289845
 11
3.9872160873
 21
5.871342421
  0
LINE
  5
2F1
100
AcDbEntity
  8
0
100
AcDbLine
 62
7
  6
CONTINUOUS
 10
3.9256846545
 20
5.9328738538
 11
3.905871218
 21
5.9526872903
  0
LINE
  5
2F2
100
AcDbEntity
  8
0
100
AcDbLine
 62
7
  6
CONTINUOUS
 10
3.8391192527
 20
6.0194392556
 11
3.8193058162
 21
6.0392526921
  0
LINE
  5
2F3
100
AcDbEntity
  8
0
100
AcDbLine
 62
7
  6
CONTINUOUS
 10
3.7577743835
 20
6.1007841249
 11
3.7379609469
 21
6.1205975614
  0
LINE
  5
2F4
100
AcDbEntity
  8
0
100
AcDbLine
 62
7
  6
CONTINUOUS
 10
3.6914614384
 20
6.1670970699
 11
3.6716480019
 21
6.1869105064
  0
LINE
  5
2F5
100
AcDbEntity
  8
0
100
AcDbLine
 62
7
  6
CONTINUOUS
 10
3.6481787375
 20
6.2103797708
 11
3.6133333767
 21
6.2452251316
  0
LINE
  5
2F6
100
AcDbEntity
  8
0
100
AcDbLine
 62
7
  6
CONTINUOUS
 10
3.7332781758
 20
6.1263519838
 11
3.7384565857
 21
6.121173574
  0
LINE
  5
2F7
100
AcDbEntity
  8
0
100
AcDbLine
 62
7
  6
CONTINUOUS
 10
3.758350396
 20
6.1012797636
 11
3.7761321188
 21
6.0834980408
  0
LINE
  5
2F8
100
AcDbEntity
  8
0
100
AcDbLine
 62
7
  6
CONTINUOUS
 10
3.7966888418
 20
6.0629413178
 11
3.8198014549
 21
6.0398287047
  0
LINE
  5
2F9
100
AcDbEntity
  8
0
100
AcDbLine
 62
7
  6
CONTINUOUS
 10
3.8396952653
 20
6.0199348943
 11
3.8627526995
 21
5.9968774601
  0
LINE
  5
2FA
100
AcDbEntity
  8
0
100
AcDbLine
 62
7
  6
CONTINUOUS
 10
3.8833094225
 20
5.9763207371
 11
3.9063668567
 21
5.9532633029
  0
LINE
  5
2FB
100
AcDbEntity
  8
0
100
AcDbLine
 62
7
  6
CONTINUOUS
 10
3.9262606671
 20
5.9333694925
 11
3.9493732802
 21
5.9102568794
  0
LINE
  5
2FC
100
AcDbEntity
  8
0
100
AcDbLine
 62
7
  6
CONTINUOUS
 10
3.9699300032
 20
5.8897001564
 11
3.987711726
 21
5.8719184336
  0
LINE
  5
2FD
100
AcDbEntity
  8
0
100
AcDbLine
 62
7
  6
CONTINUOUS
 10
4.0076055364
 20
5.8520246232
 11
4.0127839463
 21
5.8468462133
  0
LINE
  5
2FE
100
AcDbEntity
  8
0
100
AcDbLine
 62
7
  6
CONTINUOUS
 10
3.7093173653
 20
6.1505682897
 11
3.7128396194
 21
6.1470460356
  0
LINE
  5
2FF
100
AcDbEntity
  8
0
100
AcDbLine
 62
7
  6
CONTINUOUS
 10
3.734171214
 20
6.1257144411
 11
3.7385747523
 21
6.1213109027
  0
LINE
  5
300
100
AcDbEntity
  8
0
100
AcDbLine
 62
7
  6
CONTINUOUS
 10
3.7584877248
 20
6.1013979302
 11
3.7762502855
 21
6.0836353696
  0
LINE
  5
301
100
AcDbEntity
  8
0
100
AcDbLine
 62
7
  6
CONTINUOUS
 10
3.7968261706
 20
6.0630594844
 11
3.8199196216
 21
6.0399660335
  0
LINE
  5
302
100
AcDbEntity
  8
0
100
AcDbLine
 62
7
  6
CONTINUOUS
 10
3.8398325941
 20
6.0200530609
 11
3.8628708662
 21
5.9970147889
  0
LINE
  5
303
100
AcDbEntity
  8
0
100
AcDbLine
 62
7
  6
CONTINUOUS
 10
3.8834467513
 20
5.9764389037
 11
3.9064850234
 21
5.9534006317
  0
LINE
  5
304
100
AcDbEntity
  8
0
100
AcDbLine
 62
7
  6
CONTINUOUS
 10
3.9263979959
 20
5.9334876591
 11
3.9494914469
 21
5.9103942082
  0
LINE
  5
305
100
AcDbEntity
  8
0
100
AcDbLine
 62
7
  6
CONTINUOUS
 10
3.970067332
 20
5.889818323
 11
3.9878298927
 21
5.8720557624
  0
LINE
  5
306
100
AcDbEntity
  8
0
100
AcDbLine
 62
7
  6
CONTINUOUS
 10
4.0077428652
 20
5.8521427898
 11
4.0121464035
 21
5.8477392515
  0
LINE
  5
307
100
AcDbEntity
  8
0
100
AcDbLine
 62
7
  6
CONTINUOUS
 10
4.033477998
 20
5.826407657
 11
4.0370002522
 21
5.8228854028
  0
LINE
  5
308
100
AcDbEntity
  8
0
100
AcDbLine
 62
7
  6
CONTINUOUS
 10
4.0549095589
 20
5.8066338718
 11
4.0086339196
 21
5.8529095111
  0
LINE
  5
309
100
AcDbEntity
  8
0
100
AcDbLine
 62
7
  6
CONTINUOUS
 10
3.9885966139
 20
5.8729468168
 11
3.9272890504
 21
5.9342543804
  0
LINE
  5
30A
100
AcDbEntity
  8
0
100
AcDbLine
 62
7
  6
CONTINUOUS
 10
3.9072517447
 20
5.9542916861
 11
3.8407236486
 21
6.0208197822
  0
LINE
  5
30B
100
AcDbEntity
  8
0
100
AcDbLine
 62
7
  6
CONTINUOUS
 10
3.8206863429
 20
6.0408570879
 11
3.7593787793
 21
6.1021646515
  0
LINE
  5
30C
100
AcDbEntity
  8
0
100
AcDbLine
 62
7
  6
CONTINUOUS
 10
3.7393414736
 20
6.1222019572
 11
3.6930658343
 21
6.1684775965
  0
LINE
  5
30D
100
AcDbEntity
  8
0
100
AcDbLine
 62
7
  6
CONTINUOUS
 10
4.2078768162
 20
5.6563816265
 11
4.1822685512
 21
5.6819898916
  0
LINE
  5
30E
100
AcDbEntity
  8
0
100
AcDbLine
 62
7
  6
CONTINUOUS
 10
4.1642990173
 20
5.6999594255
 11
4.1497740287
 21
5.714484414
  0
LINE
  5
30F
100
AcDbEntity
  8
0
100
AcDbLine
 62
7
  6
CONTINUOUS
 10
4.1126076969
 20
5.7516507459
 11
4.0980827083
 21
5.7661757344
  0
LINE
  5
310
100
AcDbEntity
  8
0
100
AcDbLine
 62
7
  6
CONTINUOUS
 10
4.0452422566
 20
5.8190161862
 11
4.030717268
 21
5.8335411748
  0
LINE
  5
311
100
AcDbEntity
  8
0
100
AcDbLine
 62
7
  6
CONTINUOUS
 10
3.9667935398
 20
5.897464903
 11
3.9522685512
 21
5.9119898916
  0
LINE
  5
312
100
AcDbEntity
  8
0
100
AcDbLine
 62
7
  6
CONTINUOUS
 10
3.8826076969
 20
5.9816507459
 11
3.8680827083
 21
5.9961757344
  0
LINE
  5
313
100
AcDbEntity
  8
0
100
AcDbLine
 62
7
  6
CONTINUOUS
 10
3.798421854
 20
6.0658365887
 11
3.7838968654
 21
6.0803615773
  0
LINE
  5
314
100
AcDbEntity
  8
0
100
AcDbLine
 62
7
  6
CONTINUOUS
 10
3.7199731372
 20
6.1442853055
 11
3.7054481486
 21
6.1588102941
  0
LINE
  5
315
100
AcDbEntity
  8
0
100
AcDbLine
 62
7
  6
CONTINUOUS
 10
3.6526076969
 20
6.2116507459
 11
3.6380827083
 21
6.2261757344
  0
LINE
  5
316
100
AcDbEntity
  8
0
100
AcDbLine
 62
7
  6
CONTINUOUS
 10
3.6009163765
 20
6.2633420663
 11
3.5863913879
 21
6.2778670549
  0
LINE
  5
317
100
AcDbEntity
  8
0
100
AcDbLine
 62
7
  6
CONTINUOUS
 10
3.568421854
 20
6.2958365887
 11
3.5538968654
 21
6.3103615773
  0
LINE
  5
318
100
AcDbEntity
  8
0
100
AcDbLine
 62
7
  6
CONTINUOUS
 10
3.5538317701
 20
6.3104266727
 11
3.542813589
 21
6.3214448538
  0
LINE
  5
319
100
AcDbEntity
  8
0
100
AcDbLine
 62
7
  6
CONTINUOUS
 10
3.6558281957
 20
6.2105960732
 11
3.6752859162
 21
6.1911383527
  0
LINE
  5
31A
100
AcDbEntity
  8
0
100
AcDbLine
 62
7
  6
CONTINUOUS
 10
3.6956892847
 20
6.1707349841
 11
3.704393476
 21
6.1620307929
  0
LINE
  5
31B
100
AcDbEntity
  8
0
100
AcDbLine
 62
7
  6
CONTINUOUS
 10
3.723193636
 20
6.1432306329
 11
3.7415988612
 21
6.1248254077
  0
LINE
  5
31C
100
AcDbEntity
  8
0
100
AcDbLine
 62
7
  6
CONTINUOUS
 10
3.7620022297
 20
6.1044220391
 11
3.7828421928
 21
6.0835820761
  0
LINE
  5
31D
100
AcDbEntity
  8
0
100
AcDbLine
 62
7
  6
CONTINUOUS
 10
3.8016423528
 20
6.0647819161
 11
3.8229437305
 21
6.0434805384
  0
LINE
  5
31E
100
AcDbEntity
  8
0
100
AcDbLine
 62
7
  6
CONTINUOUS
 10
3.843347099
 20
6.0230771698
 11
3.8670280356
 21
5.9993962332
  0
LINE
  5
31F
100
AcDbEntity
  8
0
100
AcDbLine
 62
7
  6
CONTINUOUS
 10
3.8858281957
 20
5.9805960732
 11
3.9095091323
 21
5.9569151366
  0
LINE
  5
320
100
AcDbEntity
  8
0
100
AcDbLine
 62
7
  6
CONTINUOUS
 10
3.9299125008
 20
5.936511768
 11
3.9512138785
 21
5.9152103903
  0
LINE
  5
321
100
AcDbEntity
  8
0
100
AcDbLine
 62
7
  6
CONTINUOUS
 10
3.9700140385
 20
5.8964102303
 11
3.9908540015
 21
5.8755702673
  0
LINE
  5
322
100
AcDbEntity
  8
0
100
AcDbLine
 62
7
  6
CONTINUOUS
 10
4.0112573701
 20
5.8551668987
 11
4.0296625953
 21
5.8367616735
  0
LINE
  5
323
100
AcDbEntity
  8
0
100
AcDbLine
 62
7
  6
CONTINUOUS
 10
4.0484627553
 20
5.8179615135
 11
4.0571669466
 21
5.8092573223
  0
LINE
  5
324
100
AcDbEntity
  8
0
100
AcDbLine
 62
7
  6
CONTINUOUS
 10
4.0775703151
 20
5.7888539537
 11
4.0970280356
 21
5.7693962332
  0
LINE
  5
325
100
AcDbEntity
  8
0
100
AcDbLine
 62
7
  6
CONTINUOUS
 10
3.6562767683
 20
6.2106933558
 11
3.6755383742
 21
6.1914317499
  0
LINE
  5
326
100
AcDbEntity
  8
0
100
AcDbLine
 62
7
  6
CONTINUOUS
 10
3.6965785484
 20
6.1703915757
 11
3.7044907585
 21
6.1624793655
  0
LINE
  5
327
100
AcDbEntity
  8
0
100
AcDbLine
 62
7
  6
CONTINUOUS
 10
3.7236422086
 20
6.1433279154
 11
3.7418513192
 21
6.1251188049
  0
LINE
  5
328
100
AcDbEntity
  8
0
100
AcDbLine
 62
7
  6
CONTINUOUS
 10
3.7622956269
 20
6.1046744971
 11
3.7829394753
 21
6.0840306487
  0
LINE
  5
329
100
AcDbEntity
  8
0
100
AcDbLine
 62
7
  6
CONTINUOUS
 10
3.8020909254
 20
6.0648791986
 11
3.8231961885
 21
6.0437739356
  0
LINE
  5
32A
100
AcDbEntity
  8
0
100
AcDbLine
 62
7
  6
CONTINUOUS
 10
3.8436404962
 20
6.0233296279
 11
3.8671253182
 21
5.9998448059
  0
LINE
  5
32B
100
AcDbEntity
  8
0
100
AcDbLine
 62
7
  6
CONTINUOUS
 10
3.8862767683
 20
5.9806933558
 11
3.9097615903
 21
5.9572085338
  0
LINE
  5
32C
100
AcDbEntity
  8
0
100
AcDbLine
 62
7
  6
CONTINUOUS
 10
3.930205898
 20
5.9367642261
 11
3.9513111611
 21
5.915658963
  0
LINE
  5
32D
100
AcDbEntity
  8
0
100
AcDbLine
 62
7
  6
CONTINUOUS
 10
3.9704626112
 20
5.8965075129
 11
3.9911064596
 21
5.8758636645
  0
LINE
  5
32E
100
AcDbEntity
  8
0
100
AcDbLine
 62
7
  6
CONTINUOUS
 10
4.0115507673
 20
5.8554193568
 11
4.0297598779
 21
5.8372102462
  0
LINE
  5
32F
100
AcDbEntity
  8
0
100
AcDbLine
 62
7
  6
CONTINUOUS
 10
4.048911328
 20
5.8180587961
 11
4.0568235381
 21
5.810146586
  0
LINE
  5
330
100
AcDbEntity
  8
0
100
AcDbLine
 62
7
  6
CONTINUOUS
 10
4.0778637123
 20
5.7891064118
 11
4.0971253182
 21
5.7698448059
  0
LINE
  5
331
100
AcDbEntity
  8
0
100
AcDbLine
 62
7
  6
CONTINUOUS
 10
4.2129743738
 20
5.6561907362
 11
4.1820776608
 21
5.6870874492
  0
LINE
  5
332
100
AcDbEntity
  8
0
100
AcDbLine
 62
7
  6
CONTINUOUS
 10
4.1693965749
 20
5.6997685351
 11
4.1495831384
 21
5.7195819716
  0
LINE
  5
333
100
AcDbEntity
  8
0
100
AcDbLine
 62
7
  6
CONTINUOUS
 10
4.1177052545
 20
5.7514598555
 11
4.097891818
 21
5.7712732921
  0
LINE
  5
334
100
AcDbEntity
  8
0
100
AcDbLine
 62
7
  6
CONTINUOUS
 10
4.0503398142
 20
5.8188252959
 11
4.0305263776
 21
5.8386387324
  0
LINE
  5
335
100
AcDbEntity
  8
0
100
AcDbLine
 62
7
  6
CONTINUOUS
 10
3.9718910974
 20
5.8972740127
 11
3.9520776608
 21
5.9170874492
  0
LINE
  5
336
100
AcDbEntity
  8
0
100
AcDbLine
 62
7
  6
CONTINUOUS
 10
3.8877052545
 20
5.9814598555
 11
3.867891818
 21
6.0012732921
  0
LINE
  5
337
100
AcDbEntity
  8
0
100
AcDbLine
 62
7
  6
CONTINUOUS
 10
3.8035194116
 20
6.0656456984
 11
3.7837059751
 21
6.0854591349
  0
LINE
  5
338
100
AcDbEntity
  8
0
100
AcDbLine
 62
7
  6
CONTINUOUS
 10
3.7250706948
 20
6.1440944152
 11
3.7052572583
 21
6.1639078517
  0
LINE
  5
339
100
AcDbEntity
  8
0
100
AcDbLine
 62
7
  6
CONTINUOUS
 10
3.6577052545
 20
6.2114598555
 11
3.637891818
 21
6.2312732921
  0
LINE
  5
33A
100
AcDbEntity
  8
0
100
AcDbLine
 62
7
  6
CONTINUOUS
 10
3.6060139341
 20
6.2631511759
 11
3.5862004976
 21
6.2829646125
  0
LINE
  5
33B
100
AcDbEntity
  8
0
100
AcDbLine
 62
7
  6
CONTINUOUS
 10
3.5735194116
 20
6.2956456984
 11
3.5426226986
 21
6.3265424114
  0
LINE
  5
33C
100
AcDbEntity
  8
0
100
AcDbLine
 62
7
  6
CONTINUOUS
 10
4.1380227147
 20
5.7313328171
 11
4.123004382
 21
5.7463511498
  0
LINE
  5
33D
100
AcDbEntity
  8
0
100
AcDbLine
 62
7
  6
CONTINUOUS
 10
4.1216656547
 20
5.747689877
 11
4.1178076062
 21
5.7515479256
  0
LINE
  5
33E
100
AcDbEntity
  8
0
100
AcDbLine
 62
7
  6
CONTINUOUS
 10
4.097979888
 20
5.7713756437
 11
4.0784220893
 21
5.7909334424
  0
LINE
  5
33F
100
AcDbEntity
  8
0
100
AcDbLine
 62
7
  6
CONTINUOUS
 10
4.075906105
 20
5.7934494267
 11
4.0504421659
 21
5.8189133659
  0
LINE
  5
340
100
AcDbEntity
  8
0
100
AcDbLine
 62
7
  6
CONTINUOUS
 10
4.0306144477
 20
5.8387410841
 11
4.0096531191
 21
5.8597024127
  0
LINE
  5
341
100
AcDbEntity
  8
0
100
AcDbLine
 62
7
  6
CONTINUOUS
 10
4.0062633427
 20
5.8630921891
 11
3.971993449
 21
5.8973620827
  0
LINE
  5
342
100
AcDbEntity
  8
0
100
AcDbLine
 62
7
  6
CONTINUOUS
 10
3.9521657309
 20
5.9171898009
 11
3.9249920241
 21
5.9443635077
  0
LINE
  5
343
100
AcDbEntity
  8
0
100
AcDbLine
 62
7
  6
CONTINUOUS
 10
3.9211373125
 20
5.9482182193
 11
3.8878076062
 21
5.9815479256
  0
LINE
  5
344
100
AcDbEntity
  8
0
100
AcDbLine
 62
7
  6
CONTINUOUS
 10
3.867979888
 20
6.0013756437
 11
3.8346501817
 21
6.0347053501
  0
LINE
  5
345
100
AcDbEntity
  8
0
100
AcDbLine
 62
7
  6
CONTINUOUS
 10
3.8307954701
 20
6.0385600616
 11
3.8036217633
 21
6.0657337684
  0
LINE
  5
346
100
AcDbEntity
  8
0
100
AcDbLine
 62
7
  6
CONTINUOUS
 10
3.7837940452
 20
6.0855614866
 11
3.7495241515
 21
6.1198313802
  0
LINE
  5
347
100
AcDbEntity
  8
0
100
AcDbLine
 62
7
  6
CONTINUOUS
 10
3.7461343751
 20
6.1232211567
 11
3.7251730465
 21
6.1441824853
  0
LINE
  5
348
100
AcDbEntity
  8
0
100
AcDbLine
 62
7
  6
CONTINUOUS
 10
3.7053453283
 20
6.1640102034
 11
3.6798813892
 21
6.1894741426
  0
LINE
  5
349
100
AcDbEntity
  8
0
100
AcDbLine
 62
7
  6
CONTINUOUS
 10
3.6773654049
 20
6.1919901269
 11
3.6578076062
 21
6.2115479256
  0
LINE
  5
34A
100
AcDbEntity
  8
0
100
AcDbLine
 62
7
  6
CONTINUOUS
 10
3.637979888
 20
6.2313756437
 11
3.6341218395
 21
6.2352336923
  0
LINE
  5
34B
100
AcDbEntity
  8
0
100
AcDbLine
 62
7
  6
CONTINUOUS
 10
3.6327831122
 20
6.2365724196
 11
3.6177647795
 21
6.2515907522
  0
LINE
  5
34C
100
AcDbEntity
  8
0
100
AcDbLine
 62
7
  6
CONTINUOUS
 10
3.5788103915
 20
6.2969629245
 11
3.5892567928
 21
6.2865165232
  0
LINE
  5
34D
100
AcDbEntity
  8
0
100
AcDbLine
 62
7
  6
CONTINUOUS
 10
3.6095658448
 20
6.2662074712
 11
3.6409481132
 21
6.2348252027
  0
LINE
  5
34E
100
AcDbEntity
  8
0
100
AcDbLine
 62
7
  6
CONTINUOUS
 10
3.6612571652
 20
6.2145161508
 11
3.7083135535
 21
6.1674597624
  0
LINE
  5
34F
100
AcDbEntity
  8
0
100
AcDbLine
 62
7
  6
CONTINUOUS
 10
3.7286226055
 20
6.1471507104
 11
3.7867622703
 21
6.0890110456
  0
LINE
  5
350
100
AcDbEntity
  8
0
100
AcDbLine
 62
7
  6
CONTINUOUS
 10
3.8070713223
 20
6.0687019936
 11
3.8709481132
 21
6.0048252027
  0
LINE
  5
351
100
AcDbEntity
  8
0
100
AcDbLine
 62
7
  6
CONTINUOUS
 10
3.8912571652
 20
5.9845161508
 11
3.9551339561
 21
5.9206393599
  0
LINE
  5
352
100
AcDbEntity
  8
0
100
AcDbLine
 62
7
  6
CONTINUOUS
 10
3.9754430081
 20
5.9003303079
 11
4.0335826729
 21
5.8421906431
  0
LINE
  5
353
100
AcDbEntity
  8
0
100
AcDbLine
 62
7
  6
CONTINUOUS
 10
4.0538917249
 20
5.8218815911
 11
4.1009481132
 21
5.7748252027
  0
LINE
  5
354
100
AcDbEntity
  8
0
100
AcDbLine
 62
7
  6
CONTINUOUS
 10
4.1212571652
 20
5.7545161508
 11
4.1526394336
 21
5.7231338823
  0
LINE
  5
355
100
AcDbEntity
  8
0
100
AcDbLine
 62
7
  6
CONTINUOUS
 10
4.1729484856
 20
5.7028248304
 11
4.1833948869
 21
5.692378429
  0
LINE
  5
356
100
AcDbEntity
  8
0
100
AcDbLine
 62
7
  6
CONTINUOUS
 10
4.2900779795
 20
5.5865548319
 11
4.2813637352
 21
5.5952690763
  0
LINE
  5
357
100
AcDbEntity
  8
0
100
AcDbLine
 62
7
  6
CONTINUOUS
 10
4.2813089811
 20
5.5953238304
 11
4.2667839925
 21
5.6098488189
  0
LINE
  5
358
100
AcDbEntity
  8
0
100
AcDbLine
 62
7
  6
CONTINUOUS
 10
4.2553852329
 20
5.6212475785
 11
4.2408602444
 21
5.6357725671
  0
LINE
  5
359
100
AcDbEntity
  8
0
100
AcDbLine
 62
7
  6
CONTINUOUS
 10
4.2134397273
 20
5.6631930841
 11
4.1989147388
 21
5.6777180727
  0
LINE
  5
35A
100
AcDbEntity
  8
0
100
AcDbLine
 62
7
  6
CONTINUOUS
 10
4.1573056841
 20
5.7193271273
 11
4.1427806956
 21
5.7338521159
  0
LINE
  5
35B
100
AcDbEntity
  8
0
100
AcDbLine
 62
7
  6
CONTINUOUS
 10
4.0894364304
 20
5.787196381
 11
4.0749114418
 21
5.8017213696
  0
LINE
  5
35C
100
AcDbEntity
  8
0
100
AcDbLine
 62
7
  6
CONTINUOUS
 10
4.0127981782
 20
5.8638346333
 11
3.9982731896
 21
5.8783596218
  0
LINE
  5
35D
100
AcDbEntity
  8
0
100
AcDbLine
 62
7
  6
CONTINUOUS
 10
3.9307403868
 20
5.9458924246
 11
3.9162153983
 21
5.9604174132
  0
LINE
  5
35E
100
AcDbEntity
  8
0
100
AcDbLine
 62
7
  6
CONTINUOUS
 10
3.8468493756
 20
6.0297834358
 11
3.8323243871
 21
6.0443084244
  0
LINE
  5
35F
100
AcDbEntity
  8
0
100
AcDbLine
 62
7
  6
CONTINUOUS
 10
3.7647915843
 20
6.1118412271
 11
3.7502665957
 21
6.1263662157
  0
LINE
  5
360
100
AcDbEntity
  8
0
100
AcDbLine
 62
7
  6
CONTINUOUS
 10
3.6881533321
 20
6.1884794794
 11
3.6736283435
 21
6.2030044679
  0
LINE
  5
361
100
AcDbEntity
  8
0
100
AcDbLine
 62
7
  6
CONTINUOUS
 10
3.6202840783
 20
6.2563487331
 11
3.6057590898
 21
6.2708737217
  0
LINE
  5
362
100
AcDbEntity
  8
0
100
AcDbLine
 62
7
  6
CONTINUOUS
 10
3.5641500351
 20
6.3124827763
 11
3.5496250466
 21
6.3270077649
  0
LINE
  5
363
100
AcDbEntity
  8
0
100
AcDbLine
 62
7
  6
CONTINUOUS
 10
3.5222045295
 20
6.3544282819
 11
3.507679541
 21
6.3689532705
  0
LINE
  5
364
100
AcDbEntity
  8
0
100
AcDbLine
 62
7
  6
CONTINUOUS
 10
3.4962807814
 20
6.38035203
 11
3.4817557928
 21
6.3948770186
  0
LINE
  5
365
100
AcDbEntity
  8
0
100
AcDbLine
 62
7
  6
CONTINUOUS
 10
3.4817010206
 20
6.3949317909
 11
3.4729867943
 21
6.4036460171
  0
LINE
  5
366
100
AcDbEntity
  8
0
100
AcDbLine
 62
7
  6
CONTINUOUS
 10
3.5783007089
 20
6.2984180125
 11
3.5896940428
 21
6.2870246786
  0
LINE
  5
367
100
AcDbEntity
  8
0
100
AcDbLine
 62
7
  6
CONTINUOUS
 10
3.6208016007
 20
6.2559171207
 11
3.6413853632
 21
6.2353333582
  0
LINE
  5
368
100
AcDbEntity
  8
0
100
AcDbLine
 62
7
  6
CONTINUOUS
 10
3.6618930315
 20
6.2148256899
 11
3.6731967311
 21
6.2035219903
  0
LINE
  5
369
100
AcDbEntity
  8
0
100
AcDbLine
 62
7
  6
CONTINUOUS
 10
3.6886708544
 20
6.188047867
 11
3.7087508036
 21
6.1679679179
  0
LINE
  5
36A
100
AcDbEntity
  8
0
100
AcDbLine
 62
7
  6
CONTINUOUS
 10
3.729130761
 20
6.1475879605
 11
3.7498349833
 21
6.1268837381
  0
LINE
  5
36B
100
AcDbEntity
  8
0
100
AcDbLine
 62
7
  6
CONTINUOUS
 10
3.7653091067
 20
6.1114096148
 11
3.7871995204
 21
6.0895192011
  0
LINE
  5
36C
100
AcDbEntity
  8
0
100
AcDbLine
 62
7
  6
CONTINUOUS
 10
3.8075794778
 20
6.0691392437
 11
3.8318927747
 21
6.0448259468
  0
LINE
  5
36D
100
AcDbEntity
  8
0
100
AcDbLine
 62
7
  6
CONTINUOUS
 10
3.847366898
 20
6.0293518234
 11
3.8713853632
 21
6.0053333582
  0
LINE
  5
36E
100
AcDbEntity
  8
0
100
AcDbLine
 62
7
  6
CONTINUOUS
 10
3.8917653206
 20
5.9849534008
 11
3.9157837859
 21
5.9609349356
  0
LINE
  5
36F
100
AcDbEntity
  8
0
100
AcDbLine
 62
7
  6
CONTINUOUS
 10
3.9312579092
 20
5.9454608122
 11
3.9555712061
 21
5.9211475153
  0
LINE
  5
370
100
AcDbEntity
  8
0
100
AcDbLine
 62
7
  6
CONTINUOUS
 10
3.9759511635
 20
5.9007675579
 11
3.9978415772
 21
5.8788771442
  0
LINE
  5
371
100
AcDbEntity
  8
0
100
AcDbLine
 62
7
  6
CONTINUOUS
 10
4.0133157005
 20
5.8634030209
 11
4.0340199229
 21
5.8426987985
  0
LINE
  5
372
100
AcDbEntity
  8
0
100
AcDbLine
 62
7
  6
CONTINUOUS
 10
4.0543998803
 20
5.8223188411
 11
4.0744798294
 21
5.802238892
  0
LINE
  5
373
100
AcDbEntity
  8
0
100
AcDbLine
 62
7
  6
CONTINUOUS
 10
4.0899539528
 20
5.7867647687
 11
4.1012576524
 21
5.7754610691
  0
LINE
  5
374
100
AcDbEntity
  8
0
100
AcDbLine
 62
7
  6
CONTINUOUS
 10
4.1217653206
 20
5.7549534008
 11
4.1423490832
 21
5.7343696383
  0
LINE
  5
375
100
AcDbEntity
  8
0
100
AcDbLine
 62
7
  6
CONTINUOUS
 10
4.173456641
 20
5.7032620804
 11
4.1848499749
 21
5.6918687465
  0
LINE
  5
376
100
AcDbEntity
  8
0
100
AcDbLine
 62
7
  6
CONTINUOUS
 10
4.2189500616
 20
5.6608898638
 11
4.2174788207
 21
5.6623611046
  0
LINE
  5
377
100
AcDbEntity
  8
0
100
AcDbLine
 62
7
  6
CONTINUOUS
 10
4.1980827592
 20
5.6817571661
 11
4.1756082368
 21
5.7042316885
  0
LINE
  5
378
100
AcDbEntity
  8
0
100
AcDbLine
 62
7
  6
CONTINUOUS
 10
4.1723107647
 20
5.7075291606
 11
4.1613447775
 21
5.7184951478
  0
LINE
  5
379
100
AcDbEntity
  8
0
100
AcDbLine
 62
7
  6
CONTINUOUS
 10
4.141948716
 20
5.7378912093
 11
4.1229240486
 21
5.7569158767
  0
LINE
  5
37A
100
AcDbEntity
  8
0
100
AcDbLine
 62
7
  6
CONTINUOUS
 10
4.1182607188
 20
5.7615792065
 11
4.0934755238
 21
5.7863644015
  0
LINE
  5
37B
100
AcDbEntity
  8
0
100
AcDbLine
 62
7
  6
CONTINUOUS
 10
4.0740794623
 20
5.805760463
 11
4.0538986974
 21
5.8259412279
  0
LINE
  5
37C
100
AcDbEntity
  8
0
100
AcDbLine
 62
7
  6
CONTINUOUS
 10
4.0481873081
 20
5.8316526172
 11
4.0168372716
 21
5.8630026538
  0
LINE
  5
37D
100
AcDbEntity
  8
0
100
AcDbLine
 62
7
  6
CONTINUOUS
 10
3.9974412101
 20
5.8823987152
 11
3.9732361467
 21
5.9066037786
  0
LINE
  5
37E
100
AcDbEntity
  8
0
100
AcDbLine
 62
7
  6
CONTINUOUS
 10
3.9668659196
 20
5.9129740057
 11
3.9347794802
 21
5.9450604451
  0
LINE
  5
37F
100
AcDbEntity
  8
0
100
AcDbLine
 62
7
  6
CONTINUOUS
 10
3.9153834187
 20
5.9644565066
 11
3.886433416
 21
5.9934065093
  0
LINE
  5
380
100
AcDbEntity
  8
0
100
AcDbLine
 62
7
  6
CONTINUOUS
 10
3.8798384717
 20
6.0000014536
 11
3.850888469
 21
6.0289514563
  0
LINE
  5
381
100
AcDbEntity
  8
0
100
AcDbLine
 62
7
  6
CONTINUOUS
 10
3.8314924075
 20
6.0483475178
 11
3.7994059681
 21
6.0804339572
  0
LINE
  5
382
100
AcDbEntity
  8
0
100
AcDbLine
 62
7
  6
CONTINUOUS
 10
3.7930357411
 20
6.0868041842
 11
3.7688306777
 21
6.1110092476
  0
LINE
  5
383
100
AcDbEntity
  8
0
100
AcDbLine
 62
7
  6
CONTINUOUS
 10
3.7494346162
 20
6.1304053091
 11
3.7180845797
 21
6.1617553456
  0
LINE
  5
384
100
AcDbEntity
  8
0
100
AcDbLine
 62
7
  6
CONTINUOUS
 10
3.7123731904
 20
6.1674667349
 11
3.6921924255
 21
6.1876474999
  0
LINE
  5
385
100
AcDbEntity
  8
0
100
AcDbLine
 62
7
  6
CONTINUOUS
 10
3.672796364
 20
6.2070435613
 11
3.648011169
 21
6.2318287563
  0
LINE
  5
386
100
AcDbEntity
  8
0
100
AcDbLine
 62
7
  6
CONTINUOUS
 10
3.6433478391
 20
6.2364920862
 11
3.6243231717
 21
6.2555167536
  0
LINE
  5
387
100
AcDbEntity
  8
0
100
AcDbLine
 62
7
  6
CONTINUOUS
 10
3.6049271102
 20
6.2749128151
 11
3.5939611231
 21
6.2858788022
  0
LINE
  5
388
100
AcDbEntity
  8
0
100
AcDbLine
 62
7
  6
CONTINUOUS
 10
3.5906636509
 20
6.2891762744
 11
3.5681891285
 21
6.3116507968
  0
LINE
  5
389
100
AcDbEntity
  8
0
100
AcDbLine
 62
7
  6
CONTINUOUS
 10
3.548793067
 20
6.3310468583
 11
3.5473218262
 21
6.3325180991
  0
LINE
  5
38A
100
AcDbEntity
  8
0
100
AcDbLine
 62
7
  6
CONTINUOUS
 10
4.2951755372
 20
5.5863639415
 11
4.2665931021
 21
5.6149463765
  0
LINE
  5
38B
100
AcDbEntity
  8
0
100
AcDbLine
 62
7
  6
CONTINUOUS
 10
4.2604827905
 20
5.6210566882
 11
4.240669354
 21
5.6408701247
  0
LINE
  5
38C
100
AcDbEntity
  8
0
100
AcDbLine
 62
7
  6
CONTINUOUS
 10
4.2185372849
 20
5.6630021938
 11
4.1987238484
 21
5.6828156303
  0
LINE
  5
38D
100
AcDbEntity
  8
0
100
AcDbLine
 62
7
  6
CONTINUOUS
 10
4.1624032417
 20
5.719136237
 11
4.1425898052
 21
5.7389496735
  0
LINE
  5
38E
100
AcDbEntity
  8
0
100
AcDbLine
 62
7
  6
CONTINUOUS
 10
4.094533988
 20
5.7870054907
 11
4.0747205515
 21
5.8068189272
  0
LINE
  5
38F
100
AcDbEntity
  8
0
100
AcDbLine
 62
7
  6
CONTINUOUS
 10
4.0178957358
 20
5.8636437429
 11
3.9980822992
 21
5.8834571795
  0
LINE
  5
390
100
AcDbEntity
  8
0
100
AcDbLine
 62
7
  6
CONTINUOUS
 10
3.9358379444
 20
5.9457015343
 11
3.9160245079
 21
5.9655149708
  0
LINE
  5
391
100
AcDbEntity
  8
0
100
AcDbLine
 62
7
  6
CONTINUOUS
 10
3.8519469332
 20
6.0295925455
 11
3.8321334967
 21
6.049405982
  0
LINE
  5
392
100
AcDbEntity
  8
0
100
AcDbLine
 62
7
  6
CONTINUOUS
 10
3.7698891419
 20
6.1116503368
 11
3.7500757054
 21
6.1314637733
  0
LINE
  5
393
100
AcDbEntity
  8
0
100
AcDbLine
 62
7
  6
CONTINUOUS
 10
3.6932508897
 20
6.188288589
 11
3.6734374531
 21
6.2081020256
  0
LINE
  5
394
100
AcDbEntity
  8
0
100
AcDbLine
 62
7
  6
CONTINUOUS
 10
3.6253816359
 20
6.2561578428
 11
3.6055681994
 21
6.2759712793
  0
LINE
  5
395
100
AcDbEntity
  8
0
100
AcDbLine
 62
7
  6
CONTINUOUS
 10
3.5692475927
 20
6.312291886
 11
3.5494341562
 21
6.3321053225
  0
LINE
  5
396
100
AcDbEntity
  8
0
100
AcDbLine
 62
7
  6
CONTINUOUS
 10
3.5273020871
 20
6.3542373916
 11
3.5074886506
 21
6.3740508281
  0
LINE
  5
397
100
AcDbEntity
  8
0
100
AcDbLine
 62
7
  6
CONTINUOUS
 10
3.501378339
 20
6.3801611397
 11
3.472795904
 21
6.4087435747
  0
LINE
  5
398
100
AcDbEntity
  8
0
100
AcDbLine
 62
7
  6
CONTINUOUS
 10
3.3467828837
 20
6.5386887625
 11
4.425120725
 21
5.4603509212
  0
LINE
  5
399
100
AcDbEntity
  8
0
100
AcDbLine
 62
7
  6
CONTINUOUS
 10
3.3467828837
 20
6.5563664321
 11
4.4427983945
 21
5.4603509212
  0
LINE
  5
39A
100
AcDbEntity
  8
0
100
AcDbLine
 62
7
  6
CONTINUOUS
 10
4.4551727632
 20
5.4727252899
 11
3.3591572523
 21
6.5687408007
  0
LINE
  5
39B
100
AcDbEntity
  8
0
100
AcDbLine
 62
7
  6
CONTINUOUS
 10
4.458173138
 20
5.4969485262
 11
3.3833804886
 21
6.5717411755
  0
LINE
  5
39C
100
AcDbEntity
  8
0
100
AcDbLine
 62
7
  6
CONTINUOUS
 10
4.4482784721
 20
5.5223995413
 11
3.4088315037
 21
6.5618465096
  0
LINE
  5
39D
100
AcDbEntity
  8
0
100
AcDbLine
 62
7
  6
CONTINUOUS
 10
3.7631254432
 20
6.0932449325
 11
3.774384224
 21
6.0814667035
  0
LINE
  5
39E
100
AcDbEntity
  8
0
100
AcDbLine
 62
7
  6
CONTINUOUS
 10
4.4644535397
 20
5.6154724713
 11
3.5019044338
 21
6.5780215772
  0
LINE
  5
39F
100
AcDbEntity
  8
0
100
AcDbLine
 62
7
  6
CONTINUOUS
 10
3.5886387154
 20
6.6596836786
 11
4.5461156411
 21
5.702206753
  0
LINE
  5
3A0
100
AcDbEntity
  8
0
100
AcDbLine
 62
7
  6
CONTINUOUS
 10
3.5971466037
 20
6.6609250279
 11
4.5473569904
 21
5.7107146413
  0
LINE
  5
3A1
100
AcDbEntity
  8
0
100
AcDbLine
 62
7
  6
CONTINUOUS
 10
5.4801084519
 20
3.1238957019
 11
5.4555548216
 21
3.2506856967
  0
LINE
  5
3A2
100
AcDbEntity
  8
0
100
AcDbLine
 62
7
  6
CONTINUOUS
 10
5.2995971411
 20
3.7400110865
 11
5.2995971411
 21
3.5927803173
  0
LINE
  5
3A3
100
AcDbEntity
  8
0
100
AcDbLine
 62
7
  6
CONTINUOUS
 10
5.3018345318
 20
3.7413957019
 11
5.3018345318
 21
3.5913957019
  0
LINE
  5
3A4
100
AcDbEntity
  8
0
100
AcDbLine
 62
7
  6
CONTINUOUS
 10
5.302045543
 20
3.7531457019
 11
5.302045543
 21
3.5796457019
  0
LINE
  5
3A5
100
AcDbEntity
  8
0
100
AcDbLine
 62
7
  6
CONTINUOUS
 10
5.304545543
 20
3.7556457019
 11
5.304545543
 21
3.5771457019
  0
LINE
  5
3A6
100
AcDbEntity
  8
0
100
AcDbLine
 62
7
  6
CONTINUOUS
 10
5.317045543
 20
3.7556457019
 11
5.317045543
 21
3.5771457019
  0
LINE
  5
3A7
100
AcDbEntity
  8
0
100
AcDbLine
 62
7
  6
CONTINUOUS
 10
5.3307649275
 20
2.8938957019
 11
5.3307649275
 21
2.9072371028
  0
LINE
  5
3A8
100
AcDbEntity
  8
0
100
AcDbLine
 62
7
  6
CONTINUOUS
 10
5.3332649275
 20
3.4613957019
 11
5.3332649275
 21
3.4713957019
  0
LINE
  5
3A9
100
AcDbEntity
  8
0
100
AcDbLine
 62
7
  6
CONTINUOUS
 10
5.3410149275
 20
3.3813957019
 11
5.3410149275
 21
3.4563957019
  0
LINE
  5
3AA
100
AcDbEntity
  8
0
100
AcDbLine
 62
7
  6
CONTINUOUS
 10
5.3470149275
 20
3.7556457019
 11
5.3470149275
 21
3.5771457019
  0
LINE
  5
3AB
100
AcDbEntity
  8
0
100
AcDbLine
 62
7
  6
CONTINUOUS
 10
5.3595149275
 20
3.7556457019
 11
5.3595149275
 21
3.5771457019
  0
LINE
  5
3AC
100
AcDbEntity
  8
0
100
AcDbLine
 62
7
  6
CONTINUOUS
 10
5.3620149275
 20
3.7531457019
 11
5.3620149275
 21
3.5796457019
  0
LINE
  5
3AD
100
AcDbEntity
  8
0
100
AcDbLine
 62
7
  6
CONTINUOUS
 10
3.6517530339
 20
6.6549357623
 11
4.5413677247
 21
5.7653210714
  0
LINE
  5
3AE
100
AcDbEntity
  8
0
100
AcDbLine
 62
7
  6
CONTINUOUS
 10
3.6588902923
 20
6.652966743
 11
4.5393987054
 21
5.7724583298
  0
LINE
  5
3AF
100
AcDbEntity
  8
0
100
AcDbLine
 62
7
  6
CONTINUOUS
 10
4.5313635188
 20
5.7911001181
 11
3.6775320806
 21
6.6449315564
  0
LINE
  5
3B0
100
AcDbEntity
  8
0
100
AcDbLine
 62
7
  6
CONTINUOUS
 10
3.6811951998
 20
6.6485946756
 11
4.5350266381
 21
5.7947632373
  0
LINE
  5
3B1
100
AcDbEntity
  8
0
100
AcDbLine
 62
7
  6
CONTINUOUS
 10
3.6914598925
 20
6.6489158384
 11
4.5353478008
 21
5.80502793
  0
LINE
  5
3B2
100
AcDbEntity
  8
0
100
AcDbLine
 62
7
  6
CONTINUOUS
 10
5.4430149275
 20
3.3813957019
 11
5.4430149275
 21
3.4563957019
  0
LINE
  5
3B3
100
AcDbEntity
  8
0
100
AcDbLine
 62
7
  6
CONTINUOUS
 10
5.4507649275
 20
3.4613957019
 11
5.4507649275
 21
3.4713957019
  0
LINE
  5
3B4
100
AcDbEntity
  8
0
100
AcDbLine
 62
7
  6
CONTINUOUS
 10
5.4532649275
 20
2.8938957019
 11
5.4532649275
 21
2.9072371028
  0
LINE
  5
3B5
100
AcDbEntity
  8
0
100
AcDbLine
 62
7
  6
CONTINUOUS
 10
5.5345989718
 20
3.7218562282
 11
5.5345989752
 21
3.6205834116
  0
LINE
  5
3B6
100
AcDbEntity
  8
0
100
AcDbLine
 62
7
  6
CONTINUOUS
 10
5.5382649275
 20
3.6138957019
 11
5.5382649275
 21
3.7188957019
  0
LINE
  5
3B7
100
AcDbEntity
  8
0
100
AcDbLine
 62
7
  6
CONTINUOUS
 10
5.5450149275
 20
3.5946970067
 11
5.5450149275
 21
3.7380943971
  0
LINE
  5
3B8
100
AcDbEntity
  8
0
100
AcDbLine
 62
7
  6
CONTINUOUS
 10
4.0609413872
 20
6.4416694514
 11
4.3281014138
 21
6.1745094247
  0
LINE
  5
3B9
100
AcDbEntity
  8
0
100
AcDbLine
 62
7
  6
CONTINUOUS
 10
4.0715673334
 20
6.4361582803
 11
4.3225902427
 21
6.1851353709
  0
LINE
  5
3BA
100
AcDbEntity
  8
0
100
AcDbLine
 62
7
  6
CONTINUOUS
 10
4.0801653434
 20
6.4447562883
 11
4.3311882507
 21
6.193733381
  0
LINE
  5
3BB
100
AcDbEntity
  8
0
100
AcDbLine
 62
7
  6
CONTINUOUS
 10
4.1343871103
 20
6.4989780551
 11
4.3854100176
 21
6.2479551478
  0
LINE
  5
3BC
100
AcDbEntity
  8
0
100
AcDbLine
 62
7
  6
CONTINUOUS
 10
4.1422780125
 20
6.5068689574
 11
4.3933009198
 21
6.2558460501
  0
LINE
  5
3BD
100
AcDbEntity
  8
0
100
AcDbLine
 62
7
  6
CONTINUOUS
 10
4.1634912183
 20
6.506868955
 11
4.3932994328
 21
6.2770607405
  0
LINE
  5
3BE
100
AcDbEntity
  8
0
100
AcDbLine
 62
7
  6
CONTINUOUS
 10
4.3546663871
 20
6.3385338091
 11
4.2249657716
 21
6.4682344247
  0
LINE
  5
3BF
100
AcDbEntity
  8
0
100
AcDbLine
 62
7
  6
CONTINUOUS
 10
4.374626749
 20
6.3572752564
 11
4.2437072188
 21
6.4881947865
  0
LINE
  5
3C0
100
AcDbEntity
  8
0
100
AcDbLine
 62
7
  6
CONTINUOUS
 10
4.2437072188
 20
6.4924868273
 11
4.3789187898
 21
6.3572752564
  0
LINE
  5
3C1
100
AcDbEntity
  8
0
100
AcDbLine
 62
7
  6
CONTINUOUS
 10
5.5493785708
 20
3.589737667
 11
5.5493785708
 21
3.7430537368
  0
LINE
  5
3C2
100
AcDbEntity
  8
0
100
AcDbLine
 62
7
  6
CONTINUOUS
 10
5.6048535856
 20
3.5310400935
 11
5.6048535856
 21
3.8017513103
  0
LINE
  5
3C3
100
AcDbEntity
  8
0
100
AcDbLine
 62
7
  6
CONTINUOUS
 10
5.6098409238
 20
3.5263957019
 11
5.6098409238
 21
3.8063957019
  0
LINE
  5
3C4
100
AcDbEntity
  8
0
100
AcDbLine
 62
7
  6
CONTINUOUS
 10
5.3039214032
 20
3.1238957019
 11
5.3284750334
 21
3.2506856967
  0
LINE
  5
3C5
100
AcDbEntity
  8
0
100
AcDbLine
 62
7
  6
CONTINUOUS
 10
4.2574732001
 20
6.5257208461
 11
4.4121528085
 21
6.3710412377
  0
LINE
  5
3C6
100
AcDbEntity
  8
0
100
AcDbLine
 62
7
  6
CONTINUOUS
 10
4.2715495483
 20
6.5725008829
 11
4.4589328454
 21
6.3851175859
  0
LINE
  5
3C7
100
AcDbEntity
  8
0
100
AcDbLine
 62
7
  6
CONTINUOUS
 10
4.2715495483
 20
6.5795719507
 11
4.4660039132
 21
6.3851175859
  0
LINE
  5
3C8
100
AcDbEntity
  8
0
100
AcDbLine
 62
7
  6
CONTINUOUS
 10
4.4819014431
 20
6.4010151158
 11
4.2874470783
 21
6.5954694807
  0
LINE
  5
3C9
100
AcDbEntity
  8
0
100
AcDbLine
 62
7
  6
CONTINUOUS
 10
4.5261079896
 20
6.4452216623
 11
4.3316536247
 21
6.6396760271
  0
LINE
  5
3CA
100
AcDbEntity
  8
0
100
AcDbLine
 62
7
  6
CONTINUOUS
 10
4.3475635273
 20
6.6555859297
 11
4.5420178921
 21
6.4611315649
  0
LINE
  5
3CB
100
AcDbEntity
  8
0
100
AcDbLine
 62
7
  6
CONTINUOUS
 10
4.3504092127
 20
6.6598113122
 11
4.5420178921
 21
6.4682026327
  0
LINE
  5
3CC
100
AcDbEntity
  8
0
100
AcDbLine
 62
7
  6
CONTINUOUS
 10
6.0275149275
 20
3.8063957019
 11
6.0275149275
 21
3.5263957019
  0
LINE
  5
3CD
100
AcDbEntity
  8
0
100
AcDbLine
 62
7
  6
CONTINUOUS
 10
6.0350149275
 20
3.5001457019
 11
6.0350149275
 21
3.8326457019
  0
LINE
  5
3CE
100
AcDbEntity
  8
0
100
AcDbLine
 62
7
  6
CONTINUOUS
 10
6.0530149275
 20
3.5001457019
 11
6.0530149275
 21
3.8326457019
  0
LINE
  5
3CF
100
AcDbEntity
  8
0
100
AcDbLine
 62
7
  6
CONTINUOUS
 10
5.3617859073
 20
3.5311722516
 11
5.3845439978
 21
3.5636741732
  0
LINE
  5
3D0
100
AcDbEntity
  8
0
100
AcDbLine
 62
7
  6
CONTINUOUS
 10
6.0875149275
 20
6.5085207019
 11
6.0875149275
 21
6.8242707019
  0
LINE
  5
3D1
100
AcDbEntity
  8
0
100
AcDbLine
 62
7
  6
CONTINUOUS
 10
6.0920149275
 20
3.5001457019
 11
6.0920149275
 21
3.8326457019
  0
LINE
  5
3D2
100
AcDbEntity
  8
0
100
AcDbLine
 62
7
  6
CONTINUOUS
 10
6.1100149275
 20
3.5001457019
 11
6.1100149275
 21
3.8326457019
  0
LINE
  5
3D3
100
AcDbEntity
  8
0
100
AcDbLine
 62
7
  6
CONTINUOUS
 10
6.1425149275
 20
3.4538957019
 11
6.1425149275
 21
3.8788957019
  0
LINE
  5
3D4
100
AcDbEntity
  8
0
100
AcDbLine
 62
7
  6
CONTINUOUS
 10
6.1600149275
 20
3.4451457019
 11
6.1600149275
 21
3.8876457019
  0
LINE
  5
3D5
100
AcDbEntity
  8
0
100
AcDbLine
 62
7
  6
CONTINUOUS
 10
6.1887649275
 20
6.5085207019
 11
6.1887649275
 21
6.8242707019
  0
LINE
  5
3D6
100
AcDbEntity
  8
0
100
AcDbLine
 62
7
  6
CONTINUOUS
 10
6.2025149275
 20
3.4026457019
 11
6.2025149275
 21
3.9301457019
  0
LINE
  5
3D7
100
AcDbEntity
  8
0
100
AcDbLine
 62
7
  6
CONTINUOUS
 10
6.2225149275
 20
3.2755825831
 11
6.2225149275
 21
4.0572088207
  0
LINE
  5
3D8
100
AcDbEntity
  8
0
100
AcDbLine
 62
7
  6
CONTINUOUS
 10
6.2250149275
 20
6.4363957019
 11
6.2250149275
 21
6.8963957019
  0
LINE
  5
3D9
100
AcDbEntity
  8
0
100
AcDbLine
 62
7
  6
CONTINUOUS
 10
6.2275949098
 20
3.1796953495
 11
6.2275949098
 21
4.1530960543
  0
LINE
  5
3DA
100
AcDbEntity
  8
0
100
AcDbLine
 62
7
  6
CONTINUOUS
 10
5.4396053515
 20
3.4766824901
 11
5.5165824855
 21
3.5866172306
  0
LINE
  5
3DB
100
AcDbEntity
  8
0
100
AcDbLine
 62
7
  6
CONTINUOUS
 10
6.2642649275
 20
2.8754030277
 11
6.2642649275
 21
4.4573883761
  0
LINE
  5
3DC
100
AcDbEntity
  8
0
100
AcDbLine
 62
7
  6
CONTINUOUS
 10
6.2667951141
 20
2.8718569658
 11
6.2667951141
 21
4.460934438
  0
LINE
  5
3DD
100
AcDbEntity
  8
0
100
AcDbLine
 62
7
  6
CONTINUOUS
 10
6.2725149275
 20
6.4026457019
 11
6.2725149275
 21
6.9301457019
  0
LINE
  5
3DE
100
AcDbEntity
  8
0
100
AcDbLine
 62
7
  6
CONTINUOUS
 10
6.2897009321
 20
2.8542968983
 11
6.2897009321
 21
4.4784945055
  0
LINE
  5
3DF
100
AcDbEntity
  8
0
100
AcDbLine
 62
7
  6
CONTINUOUS
 10
6.2925149275
 20
6.4026457019
 11
6.2925149275
 21
6.9301457019
  0
LINE
  5
3E0
100
AcDbEntity
  8
0
100
AcDbLine
 62
7
  6
CONTINUOUS
 10
6.2928085877
 20
2.8526457019
 11
6.2928085877
 21
4.4801457019
  0
LINE
  5
3E1
100
AcDbEntity
  8
0
100
AcDbLine
 62
7
  6
CONTINUOUS
 10
6.3057649275
 20
4.4801457019
 11
6.3057649275
 21
2.8526457019
  0
LINE
  5
3E2
100
AcDbEntity
  8
0
100
AcDbLine
 62
7
  6
CONTINUOUS
 10
6.3425149275
 20
4.5101457019
 11
6.3425149275
 21
2.8239838
  0
LINE
  5
3E3
100
AcDbEntity
  8
0
100
AcDbLine
 62
7
  6
CONTINUOUS
 10
6.3425149275
 20
6.3538957019
 11
6.3425149275
 21
6.9788957019
  0
LINE
  5
3E4
100
AcDbEntity
  8
0
100
AcDbLine
 62
7
  6
CONTINUOUS
 10
4.3789187898
 20
6.3572752564
 11
4.374626749
 21
6.3572752564
  0
LINE
  5
3E5
100
AcDbEntity
  8
0
100
AcDbLine
 62
7
  6
CONTINUOUS
 10
6.2725149275
 20
6.4026457019
 11
6.2925149275
 21
6.4026457019
  0
LINE
  5
3E6
100
AcDbEntity
  8
0
100
AcDbLine
 62
7
  6
CONTINUOUS
 10
4.6875149275
 20
6.5335832019
 11
6.0875149275
 21
6.5338068216
  0
LINE
  5
3E7
100
AcDbEntity
  8
0
100
AcDbLine
 62
7
  6
CONTINUOUS
 10
6.0875149275
 20
6.5085207019
 11
6.1887649275
 21
6.5085207019
  0
LWPOLYLINE
  5
3E8
100
AcDbEntity
  8
0
100
AcDbPolyline
 62
7
  6
CONTINUOUS
 90
10
 70
0
 10
4.6875149275
 20
6.5335832019
 10
4.8430704831
 20
6.5335859626
 10
4.9986260386
 20
6.5335942449
 10
5.154181594
 20
6.5336080485
 10
5.3097371492
 20
6.5336273737
 10
5.4652927044
 20
6.5336522203
 10
5.6208482597
 20
6.5336825884
 10
5.7764038154
 20
6.533718478
 10
5.9319593714
 20
6.5337598891
 10
6.0875149275
 20
6.5338068216
  0
LWPOLYLINE
  5
3E9
100
AcDbEntity
  8
0
100
AcDbPolyline
 62
7
  6
CONTINUOUS
 90
10
 70
0
 10
4.6875149275
 20
6.7992082019
 10
4.8430704831
 20
6.7992054412
 10
4.9986260386
 20
6.799197159
 10
5.154181594
 20
6.7991833553
 10
5.3097371492
 20
6.7991640301
 10
5.4652927044
 20
6.7991391835
 10
5.6208482597
 20
6.7991088154
 10
5.7764038154
 20
6.7990729258
 10
5.9319593714
 20
6.7990315147
 10
6.0875149275
 20
6.7989845822
  0
LINE
  5
3EA
100
AcDbEntity
  8
0
100
AcDbLine
 62
7
  6
CONTINUOUS
 10
4.6875149275
 20
6.7992082019
 11
6.0875149275
 21
6.7989845822
  0
LINE
  5
3EB
100
AcDbEntity
  8
0
100
AcDbLine
 62
7
  6
CONTINUOUS
 10
6.0875149275
 20
6.8242707019
 11
6.1887649275
 21
6.8242707019
  0
LINE
  5
3EC
100
AcDbEntity
  8
0
100
AcDbLine
 62
7
  6
CONTINUOUS
 10
6.2725149275
 20
6.9301457019
 11
6.2925149275
 21
6.9301457019
  0
ARC
  5
3ED
100
AcDbEntity
  8
0
100
AcDbCircle
 62
7
  6
CONTINUOUS
 10
4.6535149275
 20
3.3813957019
 40
0.6875
100
AcDbArc
 50
349.04
 51
360.0
  0
ARC
  5
3EE
100
AcDbEntity
  8
0
100
AcDbCircle
 62
7
  6
CONTINUOUS
 10
3.8213667996
 20
5.4287632776
 40
0.4380674802
100
AcDbArc
 50
47.1758756193
 51
47.4381179082
  0
ARC
  5
3EF
100
AcDbEntity
  8
0
100
AcDbCircle
 62
7
  6
CONTINUOUS
 10
3.7994417247
 20
5.6515642944
 40
0.2958364952
100
AcDbArc
 50
45.6445290767
 51
46.6696780263
  0
ARC
  5
3F0
100
AcDbEntity
  8
0
100
AcDbCircle
 62
7
  6
CONTINUOUS
 10
3.8870041857
 20
5.5990445899
 40
0.2710667366
100
AcDbArc
 50
45.8225064698
 51
46.8071414445
  0
ARC
  5
3F1
100
AcDbEntity
  8
0
100
AcDbCircle
 62
7
  6
CONTINUOUS
 10
3.7379943661
 20
5.7612205614
 40
0.2617431238
100
AcDbArc
 50
44.4033329038
 51
45.5966670961
  0
ARC
  5
3F2
100
AcDbEntity
  8
0
100
AcDbCircle
 62
7
  6
CONTINUOUS
 10
3.739375093
 20
5.762775778
 40
0.2596659459
100
AcDbArc
 50
45.5742141587
 51
46.7414384029
  0
ARC
  5
3F3
100
AcDbEntity
  8
0
100
AcDbCircle
 62
7
  6
CONTINUOUS
 10
3.6534237795
 20
5.8573336594
 40
0.2535817926
100
AcDbArc
 50
44.384128913
 51
45.615871087
  0
ARC
  5
3F4
100
AcDbEntity
  8
0
100
AcDbCircle
 62
7
  6
CONTINUOUS
 10
3.9525345878
 20
5.5870225833
 40
0.240697248
100
AcDbArc
 50
46.4865179195
 51
47.2494878103
  0
ARC
  5
3F5
100
AcDbEntity
  8
0
100
AcDbCircle
 62
7
  6
CONTINUOUS
 10
3.8858605014
 20
5.6615840454
 40
0.2351027675
100
AcDbArc
 50
46.3342252073
 51
47.1675763885
  0
ARC
  5
3F6
100
AcDbEntity
  8
0
100
AcDbCircle
 62
7
  6
CONTINUOUS
 10
3.825623484
 20
5.7652563374
 40
0.2043769438
100
AcDbArc
 50
46.2837115492
 51
47.2371599224
  0
ARC
  5
3F7
100
AcDbEntity
  8
0
100
AcDbCircle
 62
7
  6
CONTINUOUS
 10
3.8674047131
 20
5.7208437831
 40
0.1987871425
100
AcDbArc
 50
44.309122695
 51
45.690877305
  0
ARC
  5
3F8
100
AcDbEntity
  8
0
100
AcDbCircle
 62
7
  6
CONTINUOUS
 10
3.6072757456
 20
5.9809727507
 40
0.1987871423
100
AcDbArc
 50
44.3091226945
 51
45.6908773055
  0
ARC
  5
3F9
100
AcDbEntity
  8
0
100
AcDbCircle
 62
7
  6
CONTINUOUS
 10
3.7428182993
 20
5.8563863369
 40
0.1984939027
100
AcDbArc
 50
43.653793895
 51
46.346206105
  0
ARC
  5
3FA
100
AcDbEntity
  8
0
100
AcDbCircle
 62
7
  6
CONTINUOUS
 10
3.7705006154
 20
5.8854654284
 40
0.1583454069
100
AcDbArc
 50
46.3301222374
 51
47.4702652695
  0
ARC
  5
3FB
100
AcDbEntity
  8
0
100
AcDbCircle
 62
7
  6
CONTINUOUS
 10
3.9333920373
 20
5.948544075
 40
0.00375
100
AcDbArc
 50
225.0
 51
310.7108466712
  0
ARC
  5
3FC
100
AcDbEntity
  8
0
100
AcDbCircle
 62
7
  6
CONTINUOUS
 10
3.9188670487
 20
5.9630690636
 40
0.00375
100
AcDbArc
 50
139.2891533288
 51
225.0
  0
ARC
  5
3FD
100
AcDbEntity
  8
0
100
AcDbCircle
 62
7
  6
CONTINUOUS
 10
4.0154498286
 20
5.8664862837
 40
0.00375
100
AcDbArc
 50
225.0
 51
310.7108466712
  0
ARC
  5
3FE
100
AcDbEntity
  8
0
100
AcDbCircle
 62
7
  6
CONTINUOUS
 10
4.00092484
 20
5.8810112723
 40
0.00375
100
AcDbArc
 50
139.2891533288
 51
225.0
  0
ARC
  5
3FF
100
AcDbEntity
  8
0
100
AcDbCircle
 62
7
  6
CONTINUOUS
 10
3.8852593473
 20
5.9843023963
 40
0.00375
100
AcDbArc
 50
225.0
 51
310.7108466712
  0
ARC
  5
400
100
AcDbEntity
  8
0
100
AcDbCircle
 62
7
  6
CONTINUOUS
 10
3.9694451902
 20
5.9001165534
 40
0.00375
100
AcDbArc
 50
225.0
 51
310.7108466712
  0
ARC
  5
401
100
AcDbEntity
  8
0
100
AcDbCircle
 62
7
  6
CONTINUOUS
 10
3.9549202016
 20
5.914641542
 40
0.00375
100
AcDbArc
 50
139.2891533288
 51
225.0
  0
ARC
  5
402
100
AcDbEntity
  8
0
100
AcDbCircle
 62
7
  6
CONTINUOUS
 10
3.9232387474
 20
5.9357163945
 40
0.00375
100
AcDbArc
 50
225.0
 51
310.7108466712
  0
ARC
  5
403
100
AcDbEntity
  8
0
100
AcDbCircle
 62
7
  6
CONTINUOUS
 10
3.9087137588
 20
5.9502413831
 40
0.00375
100
AcDbArc
 50
139.2891533288
 51
225.0
  0
ARC
  5
404
100
AcDbEntity
  8
0
100
AcDbCircle
 62
7
  6
CONTINUOUS
 10
4.0045836166
 20
5.8543715253
 40
0.00375
100
AcDbArc
 50
225.0
 51
310.7108466712
  0
ARC
  5
405
100
AcDbEntity
  8
0
100
AcDbCircle
 62
7
  6
CONTINUOUS
 10
3.9900586281
 20
5.8688965138
 40
0.00375
100
AcDbArc
 50
139.2891533288
 51
225.0
  0
ARC
  5
406
100
AcDbEntity
  8
0
100
AcDbCircle
 62
7
  6
CONTINUOUS
 10
3.8755366291
 20
5.9745796781
 40
0.00375
100
AcDbArc
 50
225.0
 51
310.7108466712
  0
ARC
  5
407
100
AcDbEntity
  8
0
100
AcDbCircle
 62
7
  6
CONTINUOUS
 10
3.8610116405
 20
5.9891046666
 40
0.00375
100
AcDbArc
 50
139.2891533288
 51
225.0
  0
ARC
  5
408
100
AcDbEntity
  8
0
100
AcDbCircle
 62
7
  6
CONTINUOUS
 10
3.9621572098
 20
5.8879590974
 40
0.00375
100
AcDbArc
 50
225.0
 51
310.7108466712
  0
ARC
  5
409
100
AcDbEntity
  8
0
100
AcDbCircle
 62
7
  6
CONTINUOUS
 10
3.9476322212
 20
5.9024840859
 40
0.00375
100
AcDbArc
 50
139.2891533288
 51
225.0
  0
ARC
  5
40A
100
AcDbEntity
  8
0
100
AcDbCircle
 62
7
  6
CONTINUOUS
 10
4.0110428873
 20
5.8390734199
 40
0.00375
100
AcDbArc
 50
139.2891533288
 51
225.0
  0
ARC
  5
40B
100
AcDbEntity
  8
0
100
AcDbCircle
 62
7
  6
CONTINUOUS
 10
3.9223824533
 20
5.9241983199
 40
0.00375
100
AcDbArc
 50
225.0
 51
310.7108466712
  0
ARC
  5
40C
100
AcDbEntity
  8
0
100
AcDbCircle
 62
7
  6
CONTINUOUS
 10
3.9078574648
 20
5.9387233085
 40
0.00375
100
AcDbArc
 50
139.2891533288
 51
225.0
  0
ARC
  5
40D
100
AcDbEntity
  8
0
100
AcDbCircle
 62
7
  6
CONTINUOUS
 10
3.956471056
 20
5.8901097173
 40
0.00375
100
AcDbArc
 50
154.47268124
 51
225.0
  0
ARC
  5
40E
100
AcDbEntity
  8
0
100
AcDbCircle
 62
7
  6
CONTINUOUS
 10
3.9709960445
 20
5.8755847287
 40
0.00375
100
AcDbArc
 50
225.0
 51
310.7108466712
  0
ARC
  5
40F
100
AcDbEntity
  8
0
100
AcDbCircle
 62
7
  6
CONTINUOUS
 10
3.6359663359
 20
6.2388131244
 40
0.0039965488
100
AcDbArc
 50
215.1371859456
 51
215.5388595392
  0
ARC
  5
410
100
AcDbEntity
  8
0
100
AcDbCircle
 62
7
  6
CONTINUOUS
 10
3.6229357288
 20
6.2590003835
 40
0.00375
100
AcDbArc
 50
225.0
 51
310.7108466712
  0
ARC
  5
411
100
AcDbEntity
  8
0
100
AcDbCircle
 62
7
  6
CONTINUOUS
 10
3.6084107402
 20
6.2735253721
 40
0.00375
100
AcDbArc
 50
139.2891533288
 51
225.0
  0
ARC
  5
412
100
AcDbEntity
  8
0
100
AcDbCircle
 62
7
  6
CONTINUOUS
 10
3.6035680269
 20
6.2659937167
 40
0.00375
100
AcDbArc
 50
225.0
 51
310.7108466712
  0
ARC
  5
413
100
AcDbEntity
  8
0
100
AcDbCircle
 62
7
  6
CONTINUOUS
 10
3.6552593473
 20
6.2143023963
 40
0.00375
100
AcDbArc
 50
225.0
 51
310.7108466712
  0
ARC
  5
414
100
AcDbEntity
  8
0
100
AcDbCircle
 62
7
  6
CONTINUOUS
 10
3.6407343587
 20
6.2288273849
 40
0.00375
100
AcDbArc
 50
139.2891533288
 51
225.0
  0
ARC
  5
415
100
AcDbEntity
  8
0
100
AcDbCircle
 62
7
  6
CONTINUOUS
 10
3.6307009061
 20
6.2282542358
 40
0.00375
100
AcDbArc
 50
225.0
 51
230.4854211237
  0
ARC
  5
416
100
AcDbEntity
  8
0
100
AcDbCircle
 62
7
  6
CONTINUOUS
 10
3.6161759175
 20
6.2427792244
 40
0.00375
100
AcDbArc
 50
139.2891533288
 51
225.0
  0
ARC
  5
417
100
AcDbEntity
  8
0
100
AcDbCircle
 62
7
  6
CONTINUOUS
 10
3.6457328304
 20
6.2132223115
 40
0.00375
100
AcDbArc
 50
225.0
 51
310.7108466712
  0
ARC
  5
418
100
AcDbEntity
  8
0
100
AcDbCircle
 62
7
  6
CONTINUOUS
 10
3.6312078418
 20
6.2277473001
 40
0.00375
100
AcDbArc
 50
139.2891533288
 51
225.0
  0
ARC
  5
419
100
AcDbEntity
  8
0
100
AcDbCircle
 62
7
  6
CONTINUOUS
 10
3.3731932348
 20
6.5547048182
 40
0.0198498768
100
AcDbArc
 50
59.1217849628
 51
135.0
  0
ARC
  5
41A
100
AcDbEntity
  8
0
100
AcDbCircle
 62
7
  6
CONTINUOUS
 10
3.3556217184
 20
6.5475275973
 40
0.0125
100
AcDbArc
 50
135.0
 51
225.0
  0
ARC
  5
41B
100
AcDbEntity
  8
0
100
AcDbCircle
 62
7
  6
CONTINUOUS
 10
3.4756384448
 20
6.4062976675
 40
0.00375
100
AcDbArc
 50
139.2891533288
 51
225.0
  0
ARC
  5
41C
100
AcDbEntity
  8
0
100
AcDbCircle
 62
7
  6
CONTINUOUS
 10
3.4989324318
 20
6.3830036805
 40
0.00375
100
AcDbArc
 50
225.0
 51
310.7108466712
  0
ARC
  5
41D
100
AcDbEntity
  8
0
100
AcDbCircle
 62
7
  6
CONTINUOUS
 10
3.4844074432
 20
6.397528669
 40
0.00375
100
AcDbArc
 50
139.2891533288
 51
225.0
  0
ARC
  5
41E
100
AcDbEntity
  8
0
100
AcDbCircle
 62
7
  6
CONTINUOUS
 10
3.52485618
 20
6.3570799323
 40
0.00375
100
AcDbArc
 50
225.0
 51
310.7108466712
  0
ARC
  5
41F
100
AcDbEntity
  8
0
100
AcDbCircle
 62
7
  6
CONTINUOUS
 10
3.5103311914
 20
6.3716049209
 40
0.00375
100
AcDbArc
 50
139.2891533288
 51
225.0
  0
ARC
  5
420
100
AcDbEntity
  8
0
100
AcDbCircle
 62
7
  6
CONTINUOUS
 10
3.5668016856
 20
6.3151344267
 40
0.00375
100
AcDbArc
 50
225.0
 51
310.7108466712
  0
ARC
  5
421
100
AcDbEntity
  8
0
100
AcDbCircle
 62
7
  6
CONTINUOUS
 10
3.552276697
 20
6.3296594153
 40
0.00375
100
AcDbArc
 50
139.2891533288
 51
225.0
  0
ARC
  5
422
100
AcDbEntity
  8
0
100
AcDbCircle
 62
7
  6
CONTINUOUS
 10
3.5454652394
 20
6.3240965042
 40
0.00375
100
AcDbArc
 50
139.2891533288
 51
225.0
  0
ARC
  5
423
100
AcDbEntity
  8
0
100
AcDbCircle
 62
7
  6
CONTINUOUS
 10
3.5710735044
 20
6.2984882392
 40
0.00375
100
AcDbArc
 50
225.0
 51
310.7108466712
  0
ARC
  5
424
100
AcDbEntity
  8
0
100
AcDbCircle
 62
7
  6
CONTINUOUS
 10
3.5565485159
 20
6.3130132277
 40
0.00375
100
AcDbArc
 50
139.2891533288
 51
225.0
  0
ARC
  5
425
100
AcDbEntity
  8
0
100
AcDbCircle
 62
7
  6
CONTINUOUS
 10
3.5890430383
 20
6.2805187053
 40
0.00375
100
AcDbArc
 50
139.2891533288
 51
225.0
  0
ARC
  5
426
100
AcDbEntity
  8
0
100
AcDbCircle
 62
7
  6
CONTINUOUS
 10
3.9438183294
 20
6.2660180711
 40
0.25
100
AcDbArc
 50
221.5621907884
 51
223.5548996513
  0
ARC
  5
427
100
AcDbEntity
  8
0
100
AcDbCircle
 62
7
  6
CONTINUOUS
 10
3.9719151518
 20
6.2366717136
 40
0.25
100
AcDbArc
 50
224.7017934526
 51
225.0
  0
ARC
  5
428
100
AcDbEntity
  8
0
100
AcDbCircle
 62
7
  6
CONTINUOUS
 10
3.7231580492
 20
6.0132447477
 40
0.1014587725
100
AcDbArc
 50
46.4703453904
 51
47.9874575002
  0
ARC
  5
429
100
AcDbEntity
  8
0
100
AcDbCircle
 62
7
  6
CONTINUOUS
 10
3.6709061799
 20
6.2255349385
 40
0.0139973158
100
AcDbArc
 50
229.1707202622
 51
229.9152682926
  0
ARC
  5
42A
100
AcDbEntity
  8
0
100
AcDbCircle
 62
7
  6
CONTINUOUS
 10
3.6908049825
 20
6.1911311298
 40
0.00375
100
AcDbArc
 50
225.0
 51
310.7108466712
  0
ARC
  5
42B
100
AcDbEntity
  8
0
100
AcDbCircle
 62
7
  6
CONTINUOUS
 10
3.6762799939
 20
6.2056561184
 40
0.00375
100
AcDbArc
 50
139.2891533288
 51
225.0
  0
ARC
  5
42C
100
AcDbEntity
  8
0
100
AcDbCircle
 62
7
  6
CONTINUOUS
 10
3.7674432347
 20
6.1144928776
 40
0.00375
100
AcDbArc
 50
225.0
 51
310.7108466712
  0
ARC
  5
42D
100
AcDbEntity
  8
0
100
AcDbCircle
 62
7
  6
CONTINUOUS
 10
3.7529182461
 20
6.1290178661
 40
0.00375
100
AcDbArc
 50
139.2891533288
 51
225.0
  0
ARC
  5
42E
100
AcDbEntity
  8
0
100
AcDbCircle
 62
7
  6
CONTINUOUS
 10
3.8495010261
 20
6.0324350862
 40
0.00375
100
AcDbArc
 50
225.0
 51
310.7108466712
  0
ARC
  5
42F
100
AcDbEntity
  8
0
100
AcDbCircle
 62
7
  6
CONTINUOUS
 10
3.8349760375
 20
6.0469600748
 40
0.00375
100
AcDbArc
 50
139.2891533288
 51
225.0
  0
ARC
  5
430
100
AcDbEntity
  8
0
100
AcDbCircle
 62
7
  6
CONTINUOUS
 10
3.7226247876
 20
6.146936956
 40
0.00375
100
AcDbArc
 50
225.0
 51
310.7108466712
  0
ARC
  5
431
100
AcDbEntity
  8
0
100
AcDbCircle
 62
7
  6
CONTINUOUS
 10
3.7080997991
 20
6.1614619445
 40
0.00375
100
AcDbArc
 50
139.2891533288
 51
225.0
  0
ARC
  5
432
100
AcDbEntity
  8
0
100
AcDbCircle
 62
7
  6
CONTINUOUS
 10
3.8010735044
 20
6.0684882392
 40
0.00375
100
AcDbArc
 50
225.0
 51
310.7108466712
  0
ARC
  5
433
100
AcDbEntity
  8
0
100
AcDbCircle
 62
7
  6
CONTINUOUS
 10
3.7865485159
 20
6.0830132277
 40
0.00375
100
AcDbArc
 50
139.2891533288
 51
225.0
  0
ARC
  5
434
100
AcDbEntity
  8
0
100
AcDbCircle
 62
7
  6
CONTINUOUS
 10
3.8707343587
 20
5.9988273849
 40
0.00375
100
AcDbArc
 50
139.2891533288
 51
225.0
  0
ARC
  5
435
100
AcDbEntity
  8
0
100
AcDbCircle
 62
7
  6
CONTINUOUS
 10
3.6890155313
 20
6.1699396106
 40
0.00375
100
AcDbArc
 50
225.0
 51
310.7108466712
  0
ARC
  5
436
100
AcDbEntity
  8
0
100
AcDbCircle
 62
7
  6
CONTINUOUS
 10
3.6744905427
 20
6.1844645992
 40
0.00375
100
AcDbArc
 50
139.2891533288
 51
225.0
  0
ARC
  5
437
100
AcDbEntity
  8
0
100
AcDbCircle
 62
7
  6
CONTINUOUS
 10
3.7553284763
 20
6.1036266656
 40
0.00375
100
AcDbArc
 50
225.0
 51
310.7108466712
  0
ARC
  5
438
100
AcDbEntity
  8
0
100
AcDbCircle
 62
7
  6
CONTINUOUS
 10
3.7408034877
 20
6.1181516542
 40
0.00375
100
AcDbArc
 50
139.2891533288
 51
225.0
  0
ARC
  5
439
100
AcDbEntity
  8
0
100
AcDbCircle
 62
7
  6
CONTINUOUS
 10
3.8366733456
 20
6.0222817963
 40
0.00375
100
AcDbArc
 50
225.0
 51
310.7108466712
  0
ARC
  5
43A
100
AcDbEntity
  8
0
100
AcDbCircle
 62
7
  6
CONTINUOUS
 10
3.822148357
 20
6.0368067849
 40
0.00375
100
AcDbArc
 50
139.2891533288
 51
225.0
  0
ARC
  5
43B
100
AcDbEntity
  8
0
100
AcDbCircle
 62
7
  6
CONTINUOUS
 10
3.7022954677
 20
6.1478208395
 40
0.00375
100
AcDbArc
 50
225.0
 51
310.7108466712
  0
ARC
  5
43C
100
AcDbEntity
  8
0
100
AcDbCircle
 62
7
  6
CONTINUOUS
 10
3.6877704791
 20
6.162345828
 40
0.00375
100
AcDbArc
 50
139.2891533288
 51
225.0
  0
ARC
  5
43D
100
AcDbEntity
  8
0
100
AcDbCircle
 62
7
  6
CONTINUOUS
 10
3.7255053823
 20
6.1246109248
 40
0.00375
100
AcDbArc
 50
225.0
 51
310.7108466712
  0
ARC
  5
43E
100
AcDbEntity
  8
0
100
AcDbCircle
 62
7
  6
CONTINUOUS
 10
3.7109803938
 20
6.1391359134
 40
0.00375
100
AcDbArc
 50
139.2891533288
 51
225.0
  0
ARC
  5
43F
100
AcDbEntity
  8
0
100
AcDbCircle
 62
7
  6
CONTINUOUS
 10
3.7889160484
 20
6.0612002588
 40
0.00375
100
AcDbArc
 50
225.0
 51
310.7108466712
  0
ARC
  5
440
100
AcDbEntity
  8
0
100
AcDbCircle
 62
7
  6
CONTINUOUS
 10
3.7743910598
 20
6.0757252473
 40
0.00375
100
AcDbArc
 50
139.2891533288
 51
225.0
  0
ARC
  5
441
100
AcDbEntity
  8
0
100
AcDbCircle
 62
7
  6
CONTINUOUS
 10
3.7765416797
 20
6.0700390935
 40
0.00375
100
AcDbArc
 50
225.0
 51
295.52731876
  0
ARC
  5
442
100
AcDbEntity
  8
0
100
AcDbCircle
 62
7
  6
CONTINUOUS
 10
3.7620166911
 20
6.0845640821
 40
0.00375
100
AcDbArc
 50
139.2891533288
 51
225.0
  0
ARC
  5
443
100
AcDbEntity
  8
0
100
AcDbCircle
 62
7
  6
CONTINUOUS
 10
3.8251552709
 20
6.0214255023
 40
0.00375
100
AcDbArc
 50
225.0
 51
310.7108466712
  0
ARC
  5
444
100
AcDbEntity
  8
0
100
AcDbCircle
 62
7
  6
CONTINUOUS
 10
3.8106302823
 20
6.0359504909
 40
0.00375
100
AcDbArc
 50
139.2891533288
 51
225.0
  0
ARC
  5
445
100
AcDbEntity
  8
0
100
AcDbCircle
 62
7
  6
CONTINUOUS
 10
3.7373098093
 20
6.4950101773
 40
0.25
100
AcDbArc
 50
213.8266816808
 51
220.3758736767
  0
ARC
  5
446
100
AcDbEntity
  8
0
100
AcDbCircle
 62
7
  6
CONTINUOUS
 10
3.8048740949
 20
6.4173912053
 40
0.25
100
AcDbArc
 50
217.778451146
 51
221.4879241395
  0
ARC
  5
447
100
AcDbEntity
  8
0
100
AcDbCircle
 62
7
  6
CONTINUOUS
 10
3.8737115649
 20
6.3410618165
 40
0.25
100
AcDbArc
 50
215.1594682094
 51
217.1380516758
  0
ARC
  5
448
100
AcDbEntity
  8
0
100
AcDbCircle
 62
7
  6
CONTINUOUS
 10
3.892582778
 20
6.3206007722
 40
0.25
100
AcDbArc
 50
223.3897070968
 51
223.999485735
  0
ARC
  5
449
100
AcDbEntity
  8
0
100
AcDbCircle
 62
7
  6
CONTINUOUS
 10
3.7555870868
 20
6.4737396198
 40
0.25
100
AcDbArc
 50
224.436556785
 51
225.0
  0
ARC
  5
44A
100
AcDbEntity
  8
0
100
AcDbCircle
 62
7
  6
CONTINUOUS
 10
3.8780256756
 20
6.3062274019
 40
0.2295479258
100
AcDbArc
 50
222.7558130066
 51
223.2786344007
  0
ARC
  5
44B
100
AcDbEntity
  8
0
100
AcDbCircle
 62
7
  6
CONTINUOUS
 10
4.0247151371
 20
5.5504052622
 40
0.2155745549
100
AcDbArc
 50
46.7909974293
 51
47.5279453238
  0
ARC
  5
44C
100
AcDbEntity
  8
0
100
AcDbCircle
 62
7
  6
CONTINUOUS
 10
4.1599573346
 20
5.7219787777
 40
0.00375
100
AcDbArc
 50
225.0
 51
310.7108466712
  0
ARC
  5
44D
100
AcDbEntity
  8
0
100
AcDbCircle
 62
7
  6
CONTINUOUS
 10
4.2160913778
 20
5.6658447345
 40
0.00375
100
AcDbArc
 50
225.0
 51
310.7108466712
  0
ARC
  5
44E
100
AcDbEntity
  8
0
100
AcDbCircle
 62
7
  6
CONTINUOUS
 10
4.2015663892
 20
5.6803697231
 40
0.00375
100
AcDbArc
 50
139.2891533288
 51
225.0
  0
ARC
  5
44F
100
AcDbEntity
  8
0
100
AcDbCircle
 62
7
  6
CONTINUOUS
 10
4.2580368834
 20
5.6238992289
 40
0.00375
100
AcDbArc
 50
225.0
 51
310.7108466712
  0
ARC
  5
450
100
AcDbEntity
  8
0
100
AcDbCircle
 62
7
  6
CONTINUOUS
 10
4.2435118948
 20
5.6384242175
 40
0.00375
100
AcDbArc
 50
139.2891533288
 51
225.0
  0
ARC
  5
451
100
AcDbEntity
  8
0
100
AcDbCircle
 62
7
  6
CONTINUOUS
 10
4.2839606315
 20
5.5979754808
 40
0.00375
100
AcDbArc
 50
225.0
 51
310.7108466712
  0
ARC
  5
452
100
AcDbEntity
  8
0
100
AcDbCircle
 62
7
  6
CONTINUOUS
 10
4.2694356429
 20
5.6125004694
 40
0.00375
100
AcDbArc
 50
139.2891533288
 51
225.0
  0
ARC
  5
453
100
AcDbEntity
  8
0
100
AcDbCircle
 62
7
  6
CONTINUOUS
 10
4.29272963
 20
5.5892064823
 40
0.00375
100
AcDbArc
 50
225.0
 51
310.7108466712
  0
ARC
  5
454
100
AcDbEntity
  8
0
100
AcDbCircle
 62
7
  6
CONTINUOUS
 10
4.1669506677
 20
5.7026110759
 40
0.00375
100
AcDbArc
 50
225.0
 51
310.7108466712
  0
ARC
  5
455
100
AcDbEntity
  8
0
100
AcDbCircle
 62
7
  6
CONTINUOUS
 10
4.1524256792
 20
5.7171360645
 40
0.00375
100
AcDbArc
 50
139.2891533288
 51
225.0
  0
ARC
  5
456
100
AcDbEntity
  8
0
100
AcDbCircle
 62
7
  6
CONTINUOUS
 10
4.1994451902
 20
5.6701165534
 40
0.00375
100
AcDbArc
 50
225.0
 51
310.7108466712
  0
ARC
  5
457
100
AcDbEntity
  8
0
100
AcDbCircle
 62
7
  6
CONTINUOUS
 10
4.1849202016
 20
5.684641542
 40
0.00375
100
AcDbArc
 50
139.2891533288
 51
225.0
  0
ARC
  5
458
100
AcDbEntity
  8
0
100
AcDbCircle
 62
7
  6
CONTINUOUS
 10
4.2105284667
 20
5.659033277
 40
0.00375
100
AcDbArc
 50
225.0
 51
310.7108466712
  0
ARC
  5
459
100
AcDbEntity
  8
0
100
AcDbCircle
 62
7
  6
CONTINUOUS
 10
4.1292111868
 20
5.7297439551
 40
0.00375
100
AcDbArc
 50
225.0
 51
310.7108466712
  0
ARC
  5
45A
100
AcDbEntity
  8
0
100
AcDbCircle
 62
7
  6
CONTINUOUS
 10
4.3038231677
 20
5.9184421325
 40
0.25
100
AcDbArc
 50
228.5120758605
 51
232.221548854
  0
ARC
  5
45B
100
AcDbEntity
  8
0
100
AcDbCircle
 62
7
  6
CONTINUOUS
 10
4.2274937789
 20
5.9872796024
 40
0.25
100
AcDbArc
 50
232.8619483242
 51
234.8405317906
  0
ARC
  5
45C
100
AcDbEntity
  8
0
100
AcDbCircle
 62
7
  6
CONTINUOUS
 10
4.1917596942
 20
5.9906305675
 40
0.2282299624
100
AcDbArc
 50
226.7200360704
 51
227.206567624
  0
ARC
  5
45D
100
AcDbEntity
  8
0
100
AcDbCircle
 62
7
  6
CONTINUOUS
 10
4.1124106678
 20
5.7848526546
 40
0.0145805224
100
AcDbArc
 50
220.0996224999
 51
220.8143889562
  0
ARC
  5
45E
100
AcDbEntity
  8
0
100
AcDbCircle
 62
7
  6
CONTINUOUS
 10
4.0920880808
 20
5.7898480315
 40
0.00375
100
AcDbArc
 50
225.0
 51
310.7108466712
  0
ARC
  5
45F
100
AcDbEntity
  8
0
100
AcDbCircle
 62
7
  6
CONTINUOUS
 10
4.0775630922
 20
5.80437302
 40
0.00375
100
AcDbArc
 50
139.2891533288
 51
225.0
  0
ARC
  5
460
100
AcDbEntity
  8
0
100
AcDbCircle
 62
7
  6
CONTINUOUS
 10
4.145432346
 20
5.7365037663
 40
0.00375
100
AcDbArc
 50
139.2891533288
 51
225.0
  0
ARC
  5
461
100
AcDbEntity
  8
0
100
AcDbCircle
 62
7
  6
CONTINUOUS
 10
4.047893907
 20
5.8216678366
 40
0.00375
100
AcDbArc
 50
225.0
 51
310.7108466712
  0
ARC
  5
462
100
AcDbEntity
  8
0
100
AcDbCircle
 62
7
  6
CONTINUOUS
 10
4.0333689184
 20
5.8361928252
 40
0.00375
100
AcDbArc
 50
139.2891533288
 51
225.0
  0
ARC
  5
463
100
AcDbEntity
  8
0
100
AcDbCircle
 62
7
  6
CONTINUOUS
 10
4.1152593473
 20
5.7543023963
 40
0.00375
100
AcDbArc
 50
225.0
 51
310.7108466712
  0
ARC
  5
464
100
AcDbEntity
  8
0
100
AcDbCircle
 62
7
  6
CONTINUOUS
 10
4.1007343587
 20
5.7688273849
 40
0.00375
100
AcDbArc
 50
139.2891533288
 51
225.0
  0
ARC
  5
465
100
AcDbEntity
  8
0
100
AcDbCircle
 62
7
  6
CONTINUOUS
 10
4.0708965617
 20
5.7880585802
 40
0.00375
100
AcDbArc
 50
225.0
 51
310.7108466712
  0
ARC
  5
466
100
AcDbEntity
  8
0
100
AcDbCircle
 62
7
  6
CONTINUOUS
 10
4.0563715731
 20
5.8025835688
 40
0.00375
100
AcDbArc
 50
139.2891533288
 51
225.0
  0
ARC
  5
467
100
AcDbEntity
  8
0
100
AcDbCircle
 62
7
  6
CONTINUOUS
 10
4.1141792626
 20
5.7447758793
 40
0.00375
100
AcDbArc
 50
225.0
 51
310.7108466712
  0
ARC
  5
468
100
AcDbEntity
  8
0
100
AcDbCircle
 62
7
  6
CONTINUOUS
 10
4.099654274
 20
5.7593008679
 40
0.00375
100
AcDbArc
 50
139.2891533288
 51
225.0
  0
ARC
  5
469
100
AcDbEntity
  8
0
100
AcDbCircle
 62
7
  6
CONTINUOUS
 10
4.1146861983
 20
5.7442689436
 40
0.00375
100
AcDbArc
 50
219.5145788763
 51
225.0
  0
ARC
  5
46A
100
AcDbEntity
  8
0
100
AcDbCircle
 62
7
  6
CONTINUOUS
 10
4.0255678758
 20
5.8245484313
 40
0.00375
100
AcDbArc
 50
225.0
 51
310.7108466712
  0
ARC
  5
46B
100
AcDbEntity
  8
0
100
AcDbCircle
 62
7
  6
CONTINUOUS
 10
4.0487777905
 20
5.8013385167
 40
0.00375
100
AcDbArc
 50
225.0
 51
310.7108466712
  0
ARC
  5
46C
100
AcDbEntity
  8
0
100
AcDbCircle
 62
7
  6
CONTINUOUS
 10
4.0342528019
 20
5.8158635052
 40
0.00375
100
AcDbArc
 50
139.2891533288
 51
225.0
  0
ARC
  5
46D
100
AcDbEntity
  8
0
100
AcDbCircle
 62
7
  6
CONTINUOUS
 10
4.5746863055
 20
5.5483732192
 40
0.1290487206
100
AcDbArc
 50
148.6709101016
 51
191.6112540042
  0
ARC
  5
46E
100
AcDbEntity
  8
0
100
AcDbCircle
 62
7
  6
CONTINUOUS
 10
4.5281970724
 20
5.5388208336
 40
0.0815882438
100
AcDbArc
 50
191.6112540042
 51
210.8782150372
  0
ARC
  5
46F
100
AcDbEntity
  8
0
100
AcDbCircle
 62
7
  6
CONTINUOUS
 10
4.4411367807
 20
5.4867612724
 40
0.0198498768
100
AcDbArc
 50
315.0
 51
30.8782150372
  0
ARC
  5
470
100
AcDbEntity
  8
0
100
AcDbCircle
 62
7
  6
CONTINUOUS
 10
4.4339595597
 20
5.469189756
 40
0.0125
100
AcDbArc
 50
225.0
 51
315.0
  0
ARC
  5
471
100
AcDbEntity
  8
0
100
AcDbCircle
 62
7
  6
CONTINUOUS
 10
4.5406550787
 20
5.7073479842
 40
0.0075
100
AcDbArc
 50
316.7252548755
 51
26.6723366731
  0
ARC
  5
472
100
AcDbEntity
  8
0
100
AcDbCircle
 62
7
  6
CONTINUOUS
 10
4.3814421398
 20
5.8508778469
 40
0.25
100
AcDbArc
 50
229.6241263233
 51
236.1733183192
  0
ARC
  5
473
100
AcDbEntity
  8
0
100
AcDbCircle
 62
7
  6
CONTINUOUS
 10
4.3601715822
 20
5.8691551243
 40
0.25
100
AcDbArc
 50
225.0
 51
225.563443215
  0
ARC
  5
474
100
AcDbEntity
  8
0
100
AcDbCircle
 62
7
  6
CONTINUOUS
 10
4.6177270629
 20
5.7460645407
 40
0.07875
100
AcDbArc
 50
165.8460952941
 51
206.6723366731
  0
ARC
  5
475
100
AcDbEntity
  8
0
100
AcDbCircle
 62
7
  6
CONTINUOUS
 10
4.5340954068
 20
5.7671550267
 40
0.0075
100
AcDbArc
 50
345.8460952941
 51
45.0
  0
ARC
  5
476
100
AcDbEntity
  8
0
100
AcDbCircle
 62
7
  6
CONTINUOUS
 10
4.5297233372
 20
5.8000665382
 40
0.0075
100
AcDbArc
 50
315.0
 51
41.415816989
  0
ARC
  5
477
100
AcDbEntity
  8
0
100
AcDbCircle
 62
7
  6
CONTINUOUS
 10
4.5366668197
 20
5.7857968173
 40
0.0075
100
AcDbArc
 50
135.0
 51
225.0
  0
ARC
  5
478
100
AcDbEntity
  8
0
100
AcDbCircle
 62
7
  6
CONTINUOUS
 10
4.6875149295
 20
6.3218956971
 40
0.4773125048
100
AcDbArc
 50
90.0000002396
 51
134.9312559097
  0
ARC
  5
479
100
AcDbEntity
  8
0
100
AcDbCircle
 62
7
  6
CONTINUOUS
 10
4.1524500335
 20
6.0573863669
 40
0.25
100
AcDbArc
 50
226.4451003487
 51
228.4378092116
  0
ARC
  5
47A
100
AcDbEntity
  8
0
100
AcDbCircle
 62
7
  6
CONTINUOUS
 10
4.1231036761
 20
6.0854831894
 40
0.25
100
AcDbArc
 50
225.0
 51
225.2982065474
  0
ARC
  5
47B
100
AcDbEntity
  8
0
100
AcDbCircle
 62
7
  6
CONTINUOUS
 10
4.2070327346
 20
6.0061508156
 40
0.25
100
AcDbArc
 50
226.000514265
 51
226.6102929032
  0
ARC
  5
47C
100
AcDbEntity
  8
0
100
AcDbCircle
 62
7
  6
CONTINUOUS
 10
4.6875149295
 20
6.3218956971
 40
0.2116875048
100
AcDbArc
 50
90.0000005317
 51
134.8449958362
  0
ARC
  5
47D
100
AcDbEntity
  8
0
100
AcDbCircle
 62
7
  6
CONTINUOUS
 10
4.2326586754
 20
6.3462267129
 40
0.12225
100
AcDbArc
 50
346.9446467099
 51
356.3921281075
  0
ARC
  5
47E
100
AcDbEntity
  8
0
100
AcDbCircle
 62
7
  6
CONTINUOUS
 10
4.2326586754
 20
6.3462267129
 40
0.12225
100
AcDbArc
 50
93.6078718925
 51
103.0553532901
  0
ARC
  5
47F
100
AcDbEntity
  8
0
100
AcDbCircle
 62
7
  6
CONTINUOUS
 10
4.3789187898
 20
6.4042752564
 40
0.047
100
AcDbArc
 50
270.0
 51
315.0
  0
ARC
  5
480
100
AcDbEntity
  8
0
100
AcDbCircle
 62
7
  6
CONTINUOUS
 10
4.2907072188
 20
6.4924868273
 40
0.047
100
AcDbArc
 50
135.0
 51
180.0
  0
ARC
  5
481
100
AcDbEntity
  8
0
100
AcDbCircle
 62
7
  6
CONTINUOUS
 10
4.1261913332
 20
6.4529520653
 40
0.04675
100
AcDbArc
 50
79.903258328
 51
97.571994457
  0
ARC
  5
482
100
AcDbEntity
  8
0
100
AcDbCircle
 62
7
  6
CONTINUOUS
 10
4.3393840278
 20
6.2397593708
 40
0.04675
100
AcDbArc
 50
352.428005543
 51
10.096741672
  0
ARC
  5
483
100
AcDbEntity
  8
0
100
AcDbCircle
 62
7
  6
CONTINUOUS
 10
4.3393840278
 20
6.2397593708
 40
0.04675
100
AcDbArc
 50
259.903258328
 51
277.571994457
  0
ARC
  5
484
100
AcDbEntity
  8
0
100
AcDbCircle
 62
7
  6
CONTINUOUS
 10
4.1261913332
 20
6.4529520653
 40
0.04675
100
AcDbArc
 50
172.428005543
 51
190.096741672
  0
ARC
  5
485
100
AcDbEntity
  8
0
100
AcDbCircle
 62
7
  6
CONTINUOUS
 10
4.4945471631
 20
6.4325759423
 40
0.034
100
AcDbArc
 50
248.1651236837
 51
21.8348763163
  0
ARC
  5
486
100
AcDbEntity
  8
0
100
AcDbCircle
 62
7
  6
CONTINUOUS
 10
4.0517206703
 20
6.4118107695
 40
0.03125
100
AcDbArc
 50
45.0
 51
72.8386883916
  0
ARC
  5
487
100
AcDbEntity
  8
0
100
AcDbCircle
 62
7
  6
CONTINUOUS
 10
4.298242732
 20
6.1652887078
 40
0.03125
100
AcDbArc
 50
17.1613116084
 51
45.0
  0
ARC
  5
488
100
AcDbEntity
  8
0
100
AcDbCircle
 62
7
  6
CONTINUOUS
 10
4.374626749
 20
6.3372752564
 40
0.02
100
AcDbArc
 50
90.0
 51
176.3921281075
  0
ARC
  5
489
100
AcDbEntity
  8
0
100
AcDbCircle
 62
7
  6
CONTINUOUS
 10
4.2237072188
 20
6.4881947865
 40
0.02
100
AcDbArc
 50
273.6078718925
 51
360.0
  0
ARC
  5
48A
100
AcDbEntity
  8
0
100
AcDbCircle
 62
7
  6
CONTINUOUS
 10
4.1528846142
 20
6.4962623557
 40
0.015
100
AcDbArc
 50
45.0
 51
135.0
  0
ARC
  5
48B
100
AcDbEntity
  8
0
100
AcDbCircle
 62
7
  6
CONTINUOUS
 10
4.3826943181
 20
6.2664526518
 40
0.015
100
AcDbArc
 50
315.0
 51
45.0
  0
ARC
  5
48C
100
AcDbEntity
  8
0
100
AcDbCircle
 62
7
  6
CONTINUOUS
 10
4.4624683793
 20
6.3886531198
 40
0.005
100
AcDbArc
 50
225.0
 51
315.0
  0
ARC
  5
48D
100
AcDbEntity
  8
0
100
AcDbCircle
 62
7
  6
CONTINUOUS
 10
4.5384823582
 20
6.4646670988
 40
0.005
100
AcDbArc
 50
315.0
 51
45.0
  0
ARC
  5
48E
100
AcDbEntity
  8
0
100
AcDbCircle
 62
7
  6
CONTINUOUS
 10
5.040770783
 20
3.0388153713
 40
0.4475
100
AcDbArc
 50
359.0179637958
 51
10.96
  0
ARC
  5
48F
100
AcDbEntity
  8
0
100
AcDbCircle
 62
7
  6
CONTINUOUS
 10
5.2694879712
 20
3.0273508958
 40
0.21875
100
AcDbArc
 50
327.5324797721
 51
0.9939989935
  0
ARC
  5
490
100
AcDbEntity
  8
0
100
AcDbCircle
 62
7
  6
CONTINUOUS
 10
5.5145418838
 20
3.0273508958
 40
0.21875
100
AcDbArc
 50
179.0060010065
 51
212.4675202279
  0
ARC
  5
491
100
AcDbEntity
  8
0
100
AcDbCircle
 62
7
  6
CONTINUOUS
 10
5.3920149275
 20
3.0026457019
 40
0.12375
100
AcDbArc
 50
246.80823049
 51
293.19176951
  0
ARC
  5
492
100
AcDbEntity
  8
0
100
AcDbCircle
 62
7
  6
CONTINUOUS
 10
5.4400149275
 20
3.4763957019
 40
0.0955
100
AcDbArc
 50
145.0
 51
180.0
  0
ARC
  5
493
100
AcDbEntity
  8
0
100
AcDbCircle
 62
7
  6
CONTINUOUS
 10
5.5412650231
 20
3.526506086
 40
0.06375
100
AcDbArc
 50
4.0784157059
 51
82.6880583707
  0
ARC
  5
494
100
AcDbEntity
  8
0
100
AcDbCircle
 62
7
  6
CONTINUOUS
 10
5.5329655077
 20
3.5751457339
 40
0.01999999
100
AcDbArc
 50
117.4605060483
 51
145.000044284
  0
ARC
  5
495
100
AcDbEntity
  8
0
100
AcDbCircle
 62
7
  6
CONTINUOUS
 10
5.514520053
 20
3.6106388714
 40
0.0199999778
100
AcDbArc
 50
297.4604820861
 51
358.8101727046
  0
ARC
  5
496
100
AcDbEntity
  8
0
100
AcDbCircle
 62
7
  6
CONTINUOUS
 10
5.3681610318
 20
3.5751457349
 40
0.0199999874
100
AcDbArc
 50
324.9997994126
 51
89.9999676871
  0
ARC
  5
497
100
AcDbEntity
  8
0
100
AcDbCircle
 62
7
  6
CONTINUOUS
 10
5.3320302352
 20
3.5861850048
 40
0.0175
100
AcDbArc
 50
211.0998839864
 51
328.9001160136
  0
ARC
  5
498
100
AcDbEntity
  8
0
100
AcDbCircle
 62
7
  6
CONTINUOUS
 10
5.4457649275
 20
3.4613957019
 40
0.005
100
AcDbArc
 50
270.0
 51
360.0
  0
ARC
  5
499
100
AcDbEntity
  8
0
100
AcDbCircle
 62
7
  6
CONTINUOUS
 10
5.3382649275
 20
3.4613957019
 40
0.005
100
AcDbArc
 50
180.0
 51
270.0
  0
ARC
  5
49A
100
AcDbEntity
  8
0
100
AcDbCircle
 62
7
  6
CONTINUOUS
 10
5.4457649275
 20
3.4713957019
 40
0.005
100
AcDbArc
 50
0.0
 51
90.0
  0
ARC
  5
49B
100
AcDbEntity
  8
0
100
AcDbCircle
 62
7
  6
CONTINUOUS
 10
5.3382649275
 20
3.4713957019
 40
0.005
100
AcDbArc
 50
90.0
 51
180.0
  0
ARC
  5
49C
100
AcDbEntity
  8
0
100
AcDbCircle
 62
7
  6
CONTINUOUS
 10
5.4582649275
 20
2.9072371028
 40
0.005
100
AcDbArc
 50
147.5324797721
 51
180.0
  0
ARC
  5
49D
100
AcDbEntity
  8
0
100
AcDbCircle
 62
7
  6
CONTINUOUS
 10
5.3257649275
 20
2.9072371028
 40
0.005
100
AcDbArc
 50
0.0
 51
32.4675202279
  0
ARC
  5
49E
100
AcDbEntity
  8
0
100
AcDbCircle
 62
7
  6
CONTINUOUS
 10
5.4482649275
 20
2.8938957019
 40
0.005
100
AcDbArc
 50
270.0
 51
360.0
  0
ARC
  5
49F
100
AcDbEntity
  8
0
100
AcDbCircle
 62
7
  6
CONTINUOUS
 10
5.3357649275
 20
2.8938957019
 40
0.005
100
AcDbArc
 50
180.0
 51
270.0
  0
ARC
  5
4A0
100
AcDbEntity
  8
0
100
AcDbCircle
 62
7
  6
CONTINUOUS
 10
5.5500149275
 20
3.5946970067
 40
0.005
100
AcDbArc
 50
180.0
 51
262.6880583706
  0
ARC
  5
4A1
100
AcDbEntity
  8
0
100
AcDbCircle
 62
7
  6
CONTINUOUS
 10
5.6098409238
 20
3.5313957019
 40
0.005
100
AcDbArc
 50
184.0784157059
 51
270.0
  0
ARC
  5
4A2
100
AcDbEntity
  8
0
100
AcDbCircle
 62
7
  6
CONTINUOUS
 10
5.5382649275
 20
3.6101457019
 40
0.00375
100
AcDbArc
 50
90.0
 51
178.8101200947
  0
ARC
  5
4A3
100
AcDbEntity
  8
0
100
AcDbCircle
 62
7
  6
CONTINUOUS
 10
5.3595149275
 20
3.5796457019
 40
0.0025
100
AcDbArc
 50
270.0
 51
360.0
  0
ARC
  5
4A4
100
AcDbEntity
  8
0
100
AcDbCircle
 62
7
  6
CONTINUOUS
 10
5.304545543
 20
3.5796457019
 40
0.0025
100
AcDbArc
 50
180.0
 51
270.0
  0
ARC
  5
4A5
100
AcDbEntity
  8
0
100
AcDbCircle
 62
7
  6
CONTINUOUS
 10
5.3018345318
 20
3.5938957019
 40
0.0025
100
AcDbArc
 50
206.4971851672
 51
270.0
  0
ARC
  5
4A6
100
AcDbEntity
  8
0
100
AcDbCircle
 62
7
  6
CONTINUOUS
 10
5.4400149275
 20
3.4763957019
 40
0.0005
100
AcDbArc
 50
145.0
 51
180.0
  0
ARC
  5
4A7
100
AcDbEntity
  8
0
100
AcDbCircle
 62
7
  6
CONTINUOUS
 10
5.4472649275
 20
3.6663957019
 40
0.165
100
AcDbArc
 50
153.5028148323
 51
206.4971851677
  0
ARC
  5
4A8
100
AcDbEntity
  8
0
100
AcDbCircle
 62
7
  6
CONTINUOUS
 10
5.5412650231
 20
3.8062853178
 40
0.06375
100
AcDbArc
 50
277.3119416293
 51
355.9215842941
  0
ARC
  5
4A9
100
AcDbEntity
  8
0
100
AcDbCircle
 62
7
  6
CONTINUOUS
 10
5.515047208
 20
3.7176457019
 40
0.02
100
AcDbArc
 50
12.153197469
 51
90.0
  0
ARC
  5
4AA
100
AcDbEntity
  8
0
100
AcDbCircle
 62
7
  6
CONTINUOUS
 10
5.3320302352
 20
3.746606399
 40
0.0175
100
AcDbArc
 50
31.0998839864
 51
148.9001160136
  0
ARC
  5
4AB
100
AcDbEntity
  8
0
100
AcDbCircle
 62
7
  6
CONTINUOUS
 10
5.5500149275
 20
3.7380943971
 40
0.005
100
AcDbArc
 50
97.3119416294
 51
180.0
  0
ARC
  5
4AC
100
AcDbEntity
  8
0
100
AcDbCircle
 62
7
  6
CONTINUOUS
 10
5.6098409238
 20
3.8013957019
 40
0.005
100
AcDbArc
 50
90.0
 51
175.9215842941
  0
ARC
  5
4AD
100
AcDbEntity
  8
0
100
AcDbCircle
 62
7
  6
CONTINUOUS
 10
5.5382649275
 20
3.7226457019
 40
0.00375
100
AcDbArc
 50
192.153197469
 51
270.0
  0
ARC
  5
4AE
100
AcDbEntity
  8
0
100
AcDbCircle
 62
7
  6
CONTINUOUS
 10
5.3595149275
 20
3.7531457019
 40
0.0025
100
AcDbArc
 50
0.0
 51
90.0
  0
ARC
  5
4AF
100
AcDbEntity
  8
0
100
AcDbCircle
 62
7
  6
CONTINUOUS
 10
5.304545543
 20
3.7531457019
 40
0.0025
100
AcDbArc
 50
90.0
 51
180.0
  0
ARC
  5
4B0
100
AcDbEntity
  8
0
100
AcDbCircle
 62
7
  6
CONTINUOUS
 10
5.3018345318
 20
3.7388957019
 40
0.0025
100
AcDbArc
 50
90.0
 51
153.5028148328
  0
ARC
  5
4B1
100
AcDbEntity
  8
0
100
AcDbCircle
 62
7
  6
CONTINUOUS
 10
6.1305149275
 20
3.3813957019
 40
0.6875
100
AcDbArc
 50
180.0
 51
190.96
  0
ARC
  5
4B2
100
AcDbEntity
  8
0
100
AcDbCircle
 62
7
  6
CONTINUOUS
 10
5.7432590721
 20
3.0388153713
 40
0.4475
100
AcDbArc
 50
169.04
 51
180.9820362042
  0
ARC
  5
4B3
100
AcDbEntity
  8
0
100
AcDbCircle
 62
7
  6
CONTINUOUS
 10
6.0592708979
 20
3.4528986871
 40
0.08325
100
AcDbArc
 50
0.6861994637
 51
52.4439028905
  0
ARC
  5
4B4
100
AcDbEntity
  8
0
100
AcDbCircle
 62
7
  6
CONTINUOUS
 10
6.2519947106
 20
2.8288314145
 40
0.0455
100
AcDbArc
 50
34.0337369978
 51
71.0172428245
  0
ARC
  5
4B5
100
AcDbEntity
  8
0
100
AcDbCircle
 62
7
  6
CONTINUOUS
 10
6.2025149275
 20
3.4451457019
 40
0.0425
100
AcDbArc
 50
180.0
 51
270.0
  0
ARC
  5
4B6
100
AcDbEntity
  8
0
100
AcDbCircle
 62
7
  6
CONTINUOUS
 10
6.3425072738
 20
2.8601457011
 40
0.0375
100
AcDbArc
 50
191.5369578148
 51
234.3200181822
  0
ARC
  5
4B7
100
AcDbEntity
  8
0
100
AcDbCircle
 62
7
  6
CONTINUOUS
 10
6.0725149275
 20
3.5202392332
 40
0.028
100
AcDbArc
 50
225.8588345181
 51
314.1411654819
  0
ARC
  5
4B8
100
AcDbEntity
  8
0
100
AcDbCircle
 62
7
  6
CONTINUOUS
 10
6.0275149275
 20
3.5188957019
 40
0.0075
100
AcDbArc
 50
0.0
 51
90.0
  0
ARC
  5
4B9
100
AcDbEntity
  8
0
100
AcDbCircle
 62
7
  6
CONTINUOUS
 10
6.2928085877
 20
2.8563957019
 40
0.00375
100
AcDbArc
 50
214.0337369974
 51
270.0
  0
ARC
  5
4BA
100
AcDbEntity
  8
0
100
AcDbCircle
 62
7
  6
CONTINUOUS
 10
6.2680149275
 20
2.8754030277
 40
0.00375
100
AcDbArc
 50
180.0
 51
251.0172428074
  0
ARC
  5
4BB
100
AcDbEntity
  8
0
100
AcDbCircle
 62
7
  6
CONTINUOUS
 10
6.0592708979
 20
3.8798927167
 40
0.08325
100
AcDbArc
 50
307.5560971095
 51
359.3138005363
  0
ARC
  5
4BC
100
AcDbEntity
  8
0
100
AcDbCircle
 62
7
  6
CONTINUOUS
 10
6.2519947106
 20
4.5039599893
 40
0.0455
100
AcDbArc
 50
288.9827571755
 51
325.9662630022
  0
ARC
  5
4BD
100
AcDbEntity
  8
0
100
AcDbCircle
 62
7
  6
CONTINUOUS
 10
6.2025149275
 20
3.8876457019
 40
0.0425
100
AcDbArc
 50
90.0
 51
180.0
  0
ARC
  5
4BE
100
AcDbEntity
  8
0
100
AcDbCircle
 62
7
  6
CONTINUOUS
 10
6.3425072738
 20
4.4726457027
 40
0.0375
100
AcDbArc
 50
89.9883060095
 51
168.4630421852
  0
ARC
  5
4BF
100
AcDbEntity
  8
0
100
AcDbCircle
 62
7
  6
CONTINUOUS
 10
6.0725149275
 20
3.8125521706
 40
0.028
100
AcDbArc
 50
45.8588345181
 51
134.1411654819
  0
ARC
  5
4C0
100
AcDbEntity
  8
0
100
AcDbCircle
 62
7
  6
CONTINUOUS
 10
6.0275149275
 20
3.8138957019
 40
0.0075
100
AcDbArc
 50
270.0
 51
360.0
  0
ARC
  5
4C1
100
AcDbEntity
  8
0
100
AcDbCircle
 62
7
  6
CONTINUOUS
 10
6.2928085877
 20
4.4763957019
 40
0.00375
100
AcDbArc
 50
90.0
 51
145.9662630026
  0
ARC
  5
4C2
100
AcDbEntity
  8
0
100
AcDbCircle
 62
7
  6
CONTINUOUS
 10
6.2680149275
 20
4.4573883761
 40
0.00375
100
AcDbArc
 50
108.9827571926
 51
180.0
  0
ARC
  5
4C3
100
AcDbEntity
  8
0
100
AcDbCircle
 62
7
  6
CONTINUOUS
 10
5.2914678137
 20
6.4720084535
 40
1.0082561642
100
AcDbArc
 50
197.1613116084
 51
221.415816989
  0
ARC
  5
4C4
100
AcDbEntity
  8
0
100
AcDbCircle
 62
7
  6
CONTINUOUS
 10
6.2252290691
 20
6.3863961605
 40
0.05
100
AcDbArc
 50
18.9650193454
 51
90.2453889646
  0
ARC
  5
4C5
100
AcDbEntity
  8
0
100
AcDbCircle
 62
7
  6
CONTINUOUS
 10
6.3424993002
 20
6.4038956995
 40
0.05
100
AcDbArc
 50
181.4325409382
 51
270.0179076599
  0
ARC
  5
4C6
100
AcDbEntity
  8
0
100
AcDbCircle
 62
7
  6
CONTINUOUS
 10
4.3584404159
 20
7.4050358513
 40
1.0082561642
100
AcDbArc
 50
228.584183011
 51
252.8386883916
  0
ARC
  5
4C7
100
AcDbEntity
  8
0
100
AcDbCircle
 62
7
  6
CONTINUOUS
 10
6.4703718777
 20
6.6670963541
 40
0.3225
100
AcDbArc
 50
139.5344875733
 51
150.8326386112
  0
ARC
  5
4C8
100
AcDbEntity
  8
0
100
AcDbCircle
 62
7
  6
CONTINUOUS
 10
6.4703718777
 20
6.6656950497
 40
0.3225
100
AcDbArc
 50
209.1673613888
 51
220.4655124267
  0
ARC
  5
4C9
100
AcDbEntity
  8
0
100
AcDbCircle
 62
7
  6
CONTINUOUS
 10
3.4348051816
 20
6.688254343
 40
0.1290487206
100
AcDbArc
 50
258.3887459958
 51
301.3290898985
  0
ARC
  5
4CA
100
AcDbEntity
  8
0
100
AcDbCircle
 62
7
  6
CONTINUOUS
 10
3.425252796
 20
6.6417651099
 40
0.0815882438
100
AcDbArc
 50
239.1217849628
 51
258.3887459958
  0
ARC
  5
4CB
100
AcDbEntity
  8
0
100
AcDbCircle
 62
7
  6
CONTINUOUS
 10
3.6324965032
 20
6.7312951005
 40
0.07875
100
AcDbArc
 50
243.3276633269
 51
284.1539047059
  0
ARC
  5
4CC
100
AcDbEntity
  8
0
100
AcDbCircle
 62
7
  6
CONTINUOUS
 10
6.2252290691
 20
6.9463952433
 40
0.05
100
AcDbArc
 50
269.7546110354
 51
341.0349806546
  0
ARC
  5
4CD
100
AcDbEntity
  8
0
100
AcDbCircle
 62
7
  6
CONTINUOUS
 10
6.3424993002
 20
6.9288957043
 40
0.05
100
AcDbArc
 50
89.9820923401
 51
178.5674590618
  0
ARC
  5
4CE
100
AcDbEntity
  8
0
100
AcDbCircle
 62
7
  6
CONTINUOUS
 10
4.3190079047
 20
6.6081152007
 40
0.034
100
AcDbArc
 50
68.1651236837
 51
201.8348763163
  0
ARC
  5
4CF
100
AcDbEntity
  8
0
100
AcDbCircle
 62
7
  6
CONTINUOUS
 10
3.5937799466
 20
6.6542231163
 40
0.0075
100
AcDbArc
 50
63.3276633269
 51
133.2747451245
  0
ARC
  5
4D0
100
AcDbEntity
  8
0
100
AcDbCircle
 62
7
  6
CONTINUOUS
 10
3.6535869892
 20
6.6476634444
 40
0.0075
100
AcDbArc
 50
45.0
 51
104.1539047059
  0
ARC
  5
4D1
100
AcDbEntity
  8
0
100
AcDbCircle
 62
7
  6
CONTINUOUS
 10
3.6864985006
 20
6.6432913748
 40
0.0075
100
AcDbArc
 50
48.584183011
 51
135.0
  0
ARC
  5
4D2
100
AcDbEntity
  8
0
100
AcDbCircle
 62
7
  6
CONTINUOUS
 10
3.6722287797
 20
6.6502348573
 40
0.0075
100
AcDbArc
 50
225.0
 51
315.0
  0
ARC
  5
4D3
100
AcDbEntity
  8
0
100
AcDbCircle
 62
7
  6
CONTINUOUS
 10
4.2750850822
 20
6.5760364168
 40
0.005
100
AcDbArc
 50
135.0
 51
225.0
  0
ARC
  5
4D4
100
AcDbEntity
  8
0
100
AcDbCircle
 62
7
  6
CONTINUOUS
 10
4.3510990612
 20
6.6520503958
 40
0.005
100
AcDbArc
 50
44.9999051462
 51
135.0
  0
ARC
  5
4D5
100
AcDbEntity
  8
0
100
AcDbCircle
 62
7
  6
CONTINUOUS
 10
10.8080601514
 20
3.6663957019
 40
4.60625
100
AcDbArc
 50
186.0652430574
 51
189.4457976082
  0
ARC
  5
4D6
100
AcDbEntity
  8
0
100
AcDbCircle
 62
7
  6
CONTINUOUS
 10
10.8080601514
 20
3.6663957019
 40
4.60625
100
AcDbArc
 50
170.5542023918
 51
173.9347569426
  0
ARC
  5
4D7
100
AcDbEntity
  8
0
100
AcDbCircle
 62
7
  6
CONTINUOUS
 10
7.1300149275
 20
3.2755825831
 40
0.9075
100
AcDbArc
 50
180.0
 51
186.0652430574
  0
ARC
  5
4D8
100
AcDbEntity
  8
0
100
AcDbCircle
 62
7
  6
CONTINUOUS
 10
7.1300149275
 20
4.0572088207
 40
0.9075
100
AcDbArc
 50
173.9347569426
 51
180.0
  0
ARC
  5
4D9
100
AcDbEntity
  8
0
100
AcDbCircle
 62
7
  6
CONTINUOUS
 10
8.1832038634
 20
10.2967719009
 40
6.0997321429
100
AcDbArc
 50
226.438479228
 51
226.4451003487
  0
ARC
  5
4DA
100
AcDbEntity
  8
0
100
AcDbCircle
 62
7
  6
CONTINUOUS
 10
8.1832038634
 20
10.2967719009
 40
6.0997321429
100
AcDbArc
 50
223.5548996513
 51
223.561520772
  0
LINE
  5
4DB
100
AcDbEntity
  8
0
100
AcDbLine
 62
7
  6
CONTINUOUS
 10
3.5783007089
 20
6.2984180125
 11
3.5783950137
 21
6.2982376501
  0
LINE
  5
4DC
100
AcDbEntity
  8
0
100
AcDbLine
 62
7
  6
CONTINUOUS
 10
4.1723107647
 20
5.7075291606
 11
4.1756082368
 21
5.7042316885
  0
LINE
  5
4DD
100
AcDbEntity
  8
0
100
AcDbLine
 62
7
  6
CONTINUOUS
 10
4.1182607188
 20
5.7615792065
 11
4.1229240486
 21
5.7569158767
  0
LINE
  5
4DE
100
AcDbEntity
  8
0
100
AcDbLine
 62
7
  6
CONTINUOUS
 10
4.0481873081
 20
5.8316526172
 11
4.0538986974
 21
5.8259412279
  0
LINE
  5
4DF
100
AcDbEntity
  8
0
100
AcDbLine
 62
7
  6
CONTINUOUS
 10
3.9668659196
 20
5.9129740057
 11
3.9732361467
 21
5.9066037786
  0
LINE
  5
4E0
100
AcDbEntity
  8
0
100
AcDbLine
 62
7
  6
CONTINUOUS
 10
3.7930357411
 20
6.0868041842
 11
3.7994059681
 21
6.0804339572
  0
LINE
  5
4E1
100
AcDbEntity
  8
0
100
AcDbLine
 62
7
  6
CONTINUOUS
 10
3.7123731904
 20
6.1674667349
 11
3.7180845797
 21
6.1617553456
  0
LINE
  5
4E2
100
AcDbEntity
  8
0
100
AcDbLine
 62
7
  6
CONTINUOUS
 10
3.6433478391
 20
6.2364920862
 11
3.648011169
 21
6.2318287563
  0
LINE
  5
4E3
100
AcDbEntity
  8
0
100
AcDbLine
 62
7
  6
CONTINUOUS
 10
3.5906636509
 20
6.2891762744
 11
3.5939611231
 21
6.2858788022
  0
LINE
  5
4E4
100
AcDbEntity
  8
0
100
AcDbLine
 62
7
  6
CONTINUOUS
 10
4.1216656547
 20
5.747689877
 11
4.123004382
 21
5.7463511498
  0
LINE
  5
4E5
100
AcDbEntity
  8
0
100
AcDbLine
 62
7
  6
CONTINUOUS
 10
4.075906105
 20
5.7934494267
 11
4.0784220893
 21
5.7909334424
  0
LINE
  5
4E6
100
AcDbEntity
  8
0
100
AcDbLine
 62
7
  6
CONTINUOUS
 10
3.6773654049
 20
6.1919901269
 11
3.6798813892
 21
6.1894741426
  0
LINE
  5
4E7
100
AcDbEntity
  8
0
100
AcDbLine
 62
7
  6
CONTINUOUS
 10
3.6327831122
 20
6.2365724196
 11
3.6341218395
 21
6.2352336923
  0
LINE
  5
4E8
100
AcDbEntity
  8
0
100
AcDbLine
 62
7
  6
CONTINUOUS
 10
3.7093173653
 20
6.1505682897
 11
3.7094792761
 21
6.1503929979
  0
SPLINE
  5
4E9
100
AcDbEntity
  8
0
100
AcDbSpline
 62
7
  6
CONTINUOUS
 70
0
 71
3
 72
9
 73
5
 74
0
 42
0.0000001
 43
0.0000001
 44
0.0000000001
 40
0.0
 40
0.0
 40
0.0
 40
0.0
 40
0.3258213198
 40
1.0
 40
1.0
 40
1.0
 40
1.0
 10
3.734171214
 20
6.1257144411
 30
0.0
 10
3.7341714304
 20
6.125713165
 30
0.0
 10
3.7341719225
 20
6.1257093159
 30
0.0
 10
3.7341713086
 20
6.1257047528
 30
0.0
 10
3.7341694149
 20
6.1257028591
 30
0.0
  0
LINE
  5
4EA
100
AcDbEntity
  8
0
100
AcDbLine
 62
7
  6
CONTINUOUS
 10
4.1846696125
 20
5.6919630513
 11
4.1848499749
 21
5.6918687465
  0
LINE
  5
4EB
100
AcDbEntity
  8
0
100
AcDbLine
 62
7
  6
CONTINUOUS
 10
4.1602746965
 20
5.718242412
 11
4.1702776579
 21
5.7094145112
  0
SPLINE
  5
4EC
100
AcDbEntity
  8
0
100
AcDbSpline
 62
7
  6
CONTINUOUS
 70
0
 71
3
 72
35
 73
31
 74
0
 42
0.0000001
 43
0.0000001
 44
0.0000000001
 40
0.0
 40
0.0
 40
0.0
 40
0.0
 40
0.00061351
 40
0.0012761967
 40
0.0020206182
 40
0.0028699298
 40
0.0049382476
 40
0.0075569452
 40
0.0107593043
 40
0.0145617179
 40
0.0189723214
 40
0.0239945877
 40
0.0296291471
 40
0.0358747209
 40
0.0501864935
 40
0.0668965852
 40
0.0859581041
 40
0.107313831
 40
0.13089755
 40
0.1566349091
 40
0.1844439924
 40
0.2459143269
 40
0.314519331
 40
0.3893748173
 40
0.4695140825
 40
0.5539001498
 40
0.6414386463
 40
0.7309913719
 40
0.8213906201
 40
1.0
 40
1.0
 40
1.0
 40
1.0
 10
4.1006990123
 20
5.7763641367
 30
0.0
 10
4.1007018787
 20
5.7763670032
 30
0.0
 10
4.1007086996
 20
5.7763721538
 30
0.0
 10
4.1007211015
 20
5.7763773748
 30
0.0
 10
4.1007357888
 20
5.776380353
 30
0.0
 10
4.1007600304
 20
5.7763814763
 30
0.0
 10
4.1007965195
 20
5.7763765382
 30
0.0
 10
4.1008468522
 20
5.7763627275
 30
0.0
 10
4.1009065111
 20
5.7763405277
 30
0.0
 10
4.1009754815
 20
5.776309918
 30
0.0
 10
4.1010537569
 20
5.7762708638
 30
0.0
 10
4.1011412769
 20
5.7762233735
 30
0.0
 10
4.1012379763
 20
5.7761674703
 30
0.0
 10
4.1013858837
 20
5.7760775867
 30
0.0
 10
4.1015927331
 20
5.7759438944
 30
0.0
 10
4.1018661107
 20
5.7757573598
 30
0.0
 10
4.1021738173
 20
5.7755386841
 30
0.0
 10
4.1025148337
 20
5.7752885686
 30
0.0
 10
4.1028880296
 20
5.775007805
 30
0.0
 10
4.1032921786
 20
5.7746973033
 30
0.0
 10
4.103890829
 20
5.7742291038
 30
0.0
 10
4.1047052301
 20
5.77357705
 30
0.0
 10
4.1057525233
 20
5.7727186564
 30
0.0
 10
4.1068862611
 20
5.7717712418
 30
0.0
 10
4.108091685
 20
5.7707470842
 30
0.0
 10
4.1093530953
 20
5.7696594612
 30
0.0
 10
4.1106540489
 20
5.7685225096
 30
0.0
 10
4.111977565
 20
5.7673510475
 30
0.0
 10
4.1137420309
 20
5.7657699103
 30
0.0
 10
4.1150551118
 20
5.7645717565
 30
0.0
 10
4.1159216393
 20
5.7637705299
 30
0.0
  0
SPLINE
  5
4ED
100
AcDbEntity
  8
0
100
AcDbSpline
 62
7
  6
CONTINUOUS
 70
0
 71
3
 72
31
 73
27
 74
0
 42
0.0000001
 43
0.0000001
 44
0.0000000001
 40
0.0
 40
0.0
 40
0.0
 40
0.0
 40
0.0016289354
 40
0.0034816774
 40
0.0056992419
 40
0.0083646089
 40
0.0115248242
 40
0.0152070391
 40
0.0194272741
 40
0.0241950826
 40
0.0353911654
 40
0.04881292
 40
0.0644521298
 40
0.0822862797
 40
0.1022826598
 40
0.1244004802
 40
0.1485920741
 40
0.1748036206
 40
0.2330429361
 40
0.2985824606
 40
0.3708104463
 40
0.4490478645
 40
0.5325555801
 40
0.6205414653
 40
0.8065587581
 40
1.0
 40
1.0
 40
1.0
 40
1.0
 10
4.0335066075
 20
5.8439026126
 30
0.0
 10
4.0335126711
 20
5.8439086763
 30
0.0
 10
4.0335283269
 20
5.8439190817
 30
0.0
 10
4.0335576848
 20
5.8439268083
 30
0.0
 10
4.0335933263
 20
5.843927935
 30
0.0
 10
4.0336354587
 20
5.84392271
 30
0.0
 10
4.033684239
 20
5.8439111945
 30
0.0
 10
4.0337397287
 20
5.8438933717
 30
0.0
 10
4.0338019403
 20
5.8438692335
 30
0.0
 10
4.0338991426
 20
5.8438262432
 30
0.0
 10
4.0340369425
 20
5.843755704
 30
0.0
 10
4.0342208161
 20
5.8436502415
 30
0.0
 10
4.0344305786
 20
5.8435199902
 30
0.0
 10
4.0346657281
 20
5.8433652309
 30
0.0
 10
4.034925698
 20
5.843186281
 30
0.0
 10
4.0352098603
 20
5.8429835474
 30
0.0
 10
4.035517533
 20
5.8427575006
 30
0.0
 10
4.0359744099
 20
5.8424134374
 30
0.0
 10
4.0365977154
 20
5.8419286364
 30
0.0
 10
4.0374023806
 20
5.8412826659
 30
0.0
 10
4.0382801384
 20
5.8405597241
 30
0.0
 10
4.0392225936
 20
5.8397666671
 30
0.0
 10
4.040220727
 20
5.8389110259
 30
0.0
 10
4.041639564
 20
5.8376744581
 30
0.0
 10
4.0434763421
 20
5.8360367416
 30
0.0
 10
4.0449498515
 20
5.8346878891
 30
0.0
 10
4.0456966255
 20
5.8339955437
 30
0.0
  0
SPLINE
  5
4EE
100
AcDbEntity
  8
0
100
AcDbSpline
 62
7
  6
CONTINUOUS
 70
0
 71
3
 72
30
 73
26
 74
0
 42
0.0000001
 43
0.0000001
 44
0.0000000001
 40
0.0
 40
0.0
 40
0.0
 40
0.0
 40
0.0020105833
 40
0.0041785069
 40
0.006621951
 40
0.0094241218
 40
0.0126399136
 40
0.0163051635
 40
0.0250666974
 40
0.0358229441
 40
0.0486206814
 40
0.0634767089
 40
0.0803905958
 40
0.0993506401
 40
0.1203369882
 40
0.1433234462
 40
0.1682785276
 40
0.2239447716
 40
0.2869990131
 40
0.3570450235
 40
0.4336343126
 40
0.5162710359
 40
0.60441591
 40
0.7948792648
 40
1.0
 40
1.0
 40
1.0
 40
1.0
 10
3.9552594037
 20
5.9225528423
 30
0.0
 10
3.9552649714
 20
5.9225584101
 30
0.0
 10
3.9552782871
 20
5.9225683391
 30
0.0
 10
3.9553026029
 20
5.9225779917
 30
0.0
 10
3.9553313851
 20
5.9225828914
 30
0.0
 10
3.955364623
 20
5.9225831978
 30
0.0
 10
3.9554023809
 20
5.9225789997
 30
0.0
 10
3.9554624474
 20
5.9225666384
 30
0.0
 10
3.9555490338
 20
5.9225385626
 30
0.0
 10
3.9556656149
 20
5.92248911
 30
0.0
 10
3.9558002819
 20
5.9224219153
 30
0.0
 10
3.9559528401
 20
5.9223370418
 30
0.0
 10
3.9561230686
 20
5.9222345485
 30
0.0
 10
3.9563106891
 20
5.9221145736
 30
0.0
 10
3.9565153931
 20
5.9219772887
 30
0.0
 10
3.9567368434
 20
5.9218229079
 30
0.0
 10
3.9570661282
 20
5.9215858039
 30
0.0
 10
3.957516109
 20
5.9212479031
 30
0.0
 10
3.9580985028
 20
5.9207925269
 30
0.0
 10
3.9587374266
 20
5.9202765927
 30
0.0
 10
3.9594286389
 20
5.9197034752
 30
0.0
 10
3.9601675463
 20
5.9190769303
 30
0.0
 10
3.9612377296
 20
5.9181516148
 30
0.0
 10
3.9626545279
 20
5.916893931
 30
0.0
 10
3.9637985242
 20
5.9158491972
 30
0.0
 10
3.9643883352
 20
5.9153038339
 30
0.0
  0
SPLINE
  5
4EF
100
AcDbEntity
  8
0
100
AcDbSpline
 62
7
  6
CONTINUOUS
 70
0
 71
3
 72
28
 73
24
 74
0
 42
0.0000001
 43
0.0000001
 44
0.0000000001
 40
0.0
 40
0.0
 40
0.0
 40
0.0
 40
0.0024395154
 40
0.0049886153
 40
0.0077437021
 40
0.0107814353
 40
0.0179091641
 40
0.0266769817
 40
0.0372347838
 40
0.0496619378
 40
0.0640005875
 40
0.080271543
 40
0.0984820099
 40
0.1186303725
 40
0.1646999207
 40
0.2183602503
 40
0.2794295945
 40
0.3476803097
 40
0.4228455873
 40
0.5046234614
 40
0.5926797409
 40
0.7861417
 40
1.0
 40
1.0
 40
1.0
 40
1.0
 10
3.8712898215
 20
6.0069549456
 30
0.0
 10
3.8712944014
 20
6.0069595256
 30
0.0
 10
3.8713048339
 20
6.0069678817
 30
0.0
 10
3.871323322
 20
6.006977162
 30
0.0
 10
3.8713446954
 20
6.0069833583
 30
0.0
 10
3.8713788172
 20
6.0069878021
 30
0.0
 10
3.871429382
 20
6.0069846969
 30
0.0
 10
3.8714981196
 20
6.0069696063
 30
0.0
 10
3.8715782257
 20
6.0069429484
 30
0.0
 10
3.8716697059
 20
6.0069046926
 30
0.0
 10
3.8717725585
 20
6.0068548117
 30
0.0
 10
3.8718866952
 20
6.006793316
 30
0.0
 10
3.8720120148
 20
6.0067202453
 30
0.0
 10
3.8722025121
 20
6.0066020558
 30
0.0
 10
3.8724670341
 20
6.0064248874
 30
0.0
 10
3.8728141018
 20
6.0061761893
 30
0.0
 10
3.8732020553
 20
6.0058836965
 30
0.0
 10
3.8736292518
 20
6.0055485992
 30
0.0
 10
3.8740938726
 20
6.0051722545
 30
0.0
 10
3.874593946
 20
6.0047562299
 30
0.0
 10
3.8753284881
 20
6.0041310351
 30
0.0
 10
3.8763172355
 20
6.0032636001
 30
0.0
 10
3.8771191618
 20
6.0025379726
 30
0.0
 10
3.8775377941
 20
6.0021543751
 30
0.0
  0
SPLINE
  5
4F0
100
AcDbEntity
  8
0
100
AcDbSpline
 62
7
  6
CONTINUOUS
 70
0
 71
3
 72
25
 73
21
 74
0
 42
0.0000001
 43
0.0000001
 44
0.0000000001
 40
0.0
 40
0.0
 40
0.0
 40
0.0
 40
0.0060170948
 40
0.0126267993
 40
0.0203144106
 40
0.0293923264
 40
0.0400487396
 40
0.0523971499
 40
0.0665070823
 40
0.0824215349
 40
0.1197532577
 40
0.1644972341
 40
0.2166530124
 40
0.2761635333
 40
0.3429324483
 40
0.4168329732
 40
0.4977129134
 40
0.5853974935
 40
0.7803788479
 40
1.0
 40
1.0
 40
1.0
 40
1.0
 10
3.7873202501
 20
6.0913570599
 30
0.0
 10
3.7873269181
 20
6.0913637278
 30
0.0
 10
3.7873434881
 20
6.0913753157
 30
0.0
 10
3.7873743076
 20
6.0913846963
 30
0.0
 10
3.7874111057
 20
6.0913869765
 30
0.0
 10
3.7874539813
 20
6.0913824682
 30
0.0
 10
3.7875030861
 20
6.0913712711
 30
0.0
 10
3.7875584918
 20
6.0913533861
 30
0.0
 10
3.7876202227
 20
6.0913288083
 30
0.0
 10
3.7877161568
 20
6.0912846814
 30
0.0
 10
3.787851397
 20
6.0912116332
 30
0.0
 10
3.7880308726
 20
6.0911017865
 30
0.0
 10
3.7882347631
 20
6.0909656257
 30
0.0
 10
3.7884625952
 20
6.0908034269
 30
0.0
 10
3.7887138319
 20
6.0906155057
 30
0.0
 10
3.788987874
 20
6.0904022771
 30
0.0
 10
3.7892840701
 20
6.0901642259
 30
0.0
 10
3.7897233679
 20
6.0898014031
 30
0.0
 10
3.7903214404
 20
6.0892894961
 30
0.0
 10
3.7908076947
 20
6.0888584768
 30
0.0
 10
3.7910637229
 20
6.0886284462
 30
0.0
  0
SPLINE
  5
4F1
100
AcDbEntity
  8
0
100
AcDbSpline
 62
7
  6
CONTINUOUS
 70
0
 71
3
 72
23
 73
19
 74
0
 42
0.0000001
 43
0.0000001
 44
0.0000000001
 40
0.0
 40
0.0
 40
0.0
 40
0.0
 40
0.0076875458
 40
0.01576796
 40
0.024644058
 40
0.0346220131
 40
0.0586488627
 40
0.0889318296
 40
0.1259582568
 40
0.1699711
 40
0.2210916023
 40
0.2793719289
 40
0.3448228864
 40
0.4174260491
 40
0.4971420753
 40
0.5839155568
 40
0.7783360189
 40
1.0
 40
1.0
 40
1.0
 40
1.0
 10
3.709073076
 20
6.1700073194
 30
0.0
 10
3.7090770325
 20
6.1700112758
 30
0.0
 10
3.7090862256
 20
6.1700183808
 30
0.0
 10
3.7091027864
 20
6.1700256439
 30
0.0
 10
3.7091220865
 20
6.1700296824
 30
0.0
 10
3.7091533801
 20
6.1700309429
 30
0.0
 10
3.709199953
 20
6.170023463
 30
0.0
 10
3.7092633693
 20
6.1700031665
 30
0.0
 10
3.7093378035
 20
6.1699708914
 30
0.0
 10
3.7094232428
 20
6.1699265971
 30
0.0
 10
3.7095196808
 20
6.169870241
 30
0.0
 10
3.7096270276
 20
6.1698018407
 30
0.0
 10
3.7097451816
 20
6.1697214364
 30
0.0
 10
3.7098740202
 20
6.1696290937
 30
0.0
 10
3.7100134108
 20
6.169524898
 30
0.0
 10
3.7102211345
 20
6.1693640915
 30
0.0
 10
3.7105055731
 20
6.1691336995
 30
0.0
 10
3.7107368259
 20
6.1689381338
 30
0.0
 10
3.7108591868
 20
6.1688329823
 30
0.0
  0
LINE
  5
4F2
100
AcDbEntity
  8
0
100
AcDbLine
 62
7
  6
CONTINUOUS
 10
3.6418807117
 20
6.237545836
 11
3.6423899923
 21
6.2373021768
  0
SPLINE
  5
4F3
100
AcDbEntity
  8
0
100
AcDbSpline
 62
7
  6
CONTINUOUS
 70
0
 71
3
 72
36
 73
32
 74
0
 42
0.0000001
 43
0.0000001
 44
0.0000000001
 40
0.0
 40
0.0
 40
0.0
 40
0.0
 40
0.0004262335
 40
0.0009198614
 40
0.00152106
 40
0.0022524268
 40
0.0031264295
 40
0.0041502014
 40
0.006662129
 40
0.0098078449
 40
0.0135946865
 40
0.0180249244
 40
0.0230981192
 40
0.0288119514
 40
0.0351628928
 40
0.0497566205
 40
0.0668330483
 40
0.0863342763
 40
0.1081924462
 40
0.132330573
 40
0.1586631194
 40
0.1870964542
 40
0.2498530064
 40
0.3197059199
 40
0.3956586255
 40
0.4766269383
 40
0.5614541997
 40
0.6489272575
 40
0.7377933355
 40
0.8267776293
 40
1.0
 40
1.0
 40
1.0
 40
1.0
 10
4.0566663232
 20
5.8104504173
 30
0.0
 10
4.0566684388
 20
5.8104525329
 30
0.0
 10
4.056674034
 20
5.8104561164
 30
0.0
 10
4.0566845717
 20
5.8104585209
 30
0.0
 10
4.0566974597
 20
5.8104585048
 30
0.0
 10
4.0567128069
 20
5.8104561452
 30
0.0
 10
4.0567306808
 20
5.8104514598
 30
0.0
 10
4.0567599668
 20
5.8104413741
 30
0.0
 10
4.0568028877
 20
5.8104222961
 30
0.0
 10
4.0568616289
 20
5.8103915229
 30
0.0
 10
4.0569305828
 20
5.8103513935
 30
0.0
 10
4.0570096908
 20
5.8103019301
 30
0.0
 10
4.057098882
 20
5.8102431412
 30
0.0
 10
4.0571980751
 20
5.8101750719
 30
0.0
 10
4.0573507597
 20
5.8100668814
 30
0.0
 10
4.0575655687
 20
5.8099084665
 30
0.0
 10
4.057850998
 20
5.8096903965
 30
0.0
 10
4.0581736975
 20
5.8094371756
 30
0.0
 10
4.0585324942
 20
5.8091497048
 30
0.0
 10
4.0589260833
 20
5.8088289994
 30
0.0
 10
4.0593530437
 20
5.808476207
 30
0.0
 10
4.0599858885
 20
5.8079470364
 30
0.0
 10
4.0608474489
 20
5.8072151991
 30
0.0
 10
4.0619557796
 20
5.8062587288
 30
0.0
 10
4.0631540726
 20
5.8052108939
 30
0.0
 10
4.0644251571
 20
5.80408667
 30
0.0
 10
4.0657508162
 20
5.8029021267
 30
0.0
 10
4.0671120439
 20
5.8016742202
 30
0.0
 10
4.0684893115
 20
5.8004205582
 30
0.0
 10
4.0703043056
 20
5.7987536529
 30
0.0
 10
4.0716516655
 20
5.7974997583
 30
0.0
 10
4.0725375052
 20
5.7966668636
 30
0.0
  0
SPLINE
  5
4F4
100
AcDbEntity
  8
0
100
AcDbSpline
 62
7
  6
CONTINUOUS
 70
0
 71
3
 72
33
 73
29
 74
0
 42
0.0000001
 43
0.0000001
 44
0.0000000001
 40
0.0
 40
0.0
 40
0.0
 40
0.0
 40
0.0012665877
 40
0.0019920251
 40
0.0028077696
 40
0.004764868
 40
0.0072160686
 40
0.0101976089
 40
0.0137285305
 40
0.017819032
 40
0.0224746352
 40
0.033488425
 40
0.0467714583
 40
0.0623065969
 40
0.0800656499
 40
0.1000120381
 40
0.1221021407
 40
0.1462860948
 40
0.1725083024
 40
0.2308181279
 40
0.2964848305
 40
0.3688875066
 40
0.4473386798
 40
0.5310912821
 40
0.6193458503
 40
0.7112582172
 40
0.8059474875
 40
1.0
 40
1.0
 40
1.0
 40
1.0
 10
3.9905235137
 20
5.8769334975
 30
0.0
 10
3.9905282093
 20
5.8769381932
 30
0.0
 10
3.9905376684
 20
5.876943606
 30
0.0
 10
3.9905520179
 20
5.8769469881
 30
0.0
 10
3.9905703696
 20
5.8769484699
 30
0.0
 10
3.9905977897
 20
5.876945527
 30
0.0
 10
3.9906353986
 20
5.8769359651
 30
0.0
 10
3.9906796883
 20
5.8769200811
 30
0.0
 10
3.9907306725
 20
5.8768978572
 30
0.0
 10
3.9907883648
 20
5.8768692661
 30
0.0
 10
3.99087941
 20
5.8768197931
 30
0.0
 10
3.9910094037
 20
5.8767412776
 30
0.0
 10
3.991184003
 20
5.8766266503
 30
0.0
 10
3.9913844162
 20
5.876487073
 30
0.0
 10
3.9916101579
 20
5.8763228568
 30
0.0
 10
3.9918606765
 20
5.8761343535
 30
0.0
 10
3.9921353639
 20
5.8759219992
 30
0.0
 10
3.9924335577
 20
5.875686292
 30
0.0
 10
3.992877482
 20
5.8753287558
 30
0.0
 10
3.9934848289
 20
5.8748274473
 30
0.0
 10
3.9942710831
 20
5.8741626643
 30
0.0
 10
3.9951308674
 20
5.8734213764
 30
0.0
 10
3.996055931
 20
5.872610655
 30
0.0
 10
3.9970373899
 20
5.8717382366
 30
0.0
 10
3.998065818
 20
5.8708124702
 30
0.0
 10
3.9991313326
 20
5.8698422323
 30
0.0
 10
4.0005997785
 20
5.8684906629
 30
0.0
 10
4.0017058025
 20
5.8674569339
 30
0.0
 10
4.0024457358
 20
5.866758633
 30
0.0
  0
SPLINE
  5
4F5
100
AcDbEntity
  8
0
100
AcDbSpline
 62
7
  6
CONTINUOUS
 70
0
 71
3
 72
31
 73
27
 74
0
 42
0.0000001
 43
0.0000001
 44
0.0000000001
 40
0.0
 40
0.0
 40
0.0
 40
0.0
 40
0.001662209
 40
0.0035004691
 40
0.0056435958
 40
0.0081738368
 40
0.0111410324
 40
0.0145755697
 40
0.0184963286
 40
0.0229154833
 40
0.0332759807
 40
0.045692911
 40
0.0601758475
 40
0.0767211323
 40
0.0953164311
 40
0.1159429121
 40
0.1385766736
 40
0.163189545
 40
0.2182200784
 40
0.2807376854
 40
0.3503946498
 40
0.426797949
 40
0.5095125561
 40
0.5980649302
 40
0.7906128127
 40
1.0
 40
1.0
 40
1.0
 40
1.0
 10
3.9093873555
 20
5.9584870779
 30
0.0
 10
3.9093914239
 20
5.9584911461
 30
0.0
 10
3.9094015646
 20
5.9584982365
 30
0.0
 10
3.90942042
 20
5.958504123
 30
0.0
 10
3.909443029
 20
5.9585058504
 30
0.0
 10
3.9094694585
 20
5.9585035933
 30
0.0
 10
3.9094998006
 20
5.9584974062
 30
0.0
 10
3.9095341013
 20
5.9584872886
 30
0.0
 10
3.9095723812
 20
5.9584732369
 30
0.0
 10
3.9096319495
 20
5.9584478564
 30
0.0
 10
3.9097161452
 20
5.9584055704
 30
0.0
 10
3.9098282112
 20
5.9583416692
 30
0.0
 10
3.9099558955
 20
5.9582621738
 30
0.0
 10
3.9100990182
 20
5.958167175
 30
0.0
 10
3.9102573741
 20
5.9580567723
 30
0.0
 10
3.9104307324
 20
5.9579311095
 30
0.0
 10
3.9106188424
 20
5.9577903572
 30
0.0
 10
3.9108995686
 20
5.9575746593
 30
0.0
 10
3.9112847192
 20
5.9572683545
 30
0.0
 10
3.9117852976
 20
5.9568568628
 30
0.0
 10
3.9123370492
 20
5.956391224
 30
0.0
 10
3.9129367688
 20
5.9558741073
 30
0.0
 10
3.9135809719
 20
5.9553084809
 30
0.0
 10
3.9145207776
 20
5.9544702716
 30
0.0
 10
3.9157759317
 20
5.953326994
 30
0.0
 10
3.9167940229
 20
5.9523787872
 30
0.0
 10
3.9173220421
 20
5.9518823267
 30
0.0
  0
SPLINE
  5
4F6
100
AcDbEntity
  8
0
100
AcDbSpline
 62
7
  6
CONTINUOUS
 70
0
 71
3
 72
27
 73
23
 74
0
 42
0.0000001
 43
0.0000001
 44
0.0000000001
 40
0.0
 40
0.0
 40
0.0
 40
0.0
 40
0.0021546143
 40
0.0044224676
 40
0.006905652
 40
0.0096824759
 40
0.0163166511
 40
0.0246124544
 40
0.0347043929
 40
0.0466623786
 40
0.0605239797
 40
0.0763084478
 40
0.1136694501
 40
0.1587408785
 40
0.2114462167
 40
0.2716652443
 40
0.3392439932
 40
0.4139997644
 40
0.4957241512
 40
0.5841851085
 40
0.780277374
 40
1.0
 40
1.0
 40
1.0
 40
1.0
 10
3.8230440705
 20
6.0452745965
 30
0.0
 10
3.8230469485
 20
6.0452774747
 30
0.0
 10
3.8230536057
 20
6.0452826764
 30
0.0
 10
3.8230655426
 20
6.0452881719
 30
0.0
 10
3.8230794476
 20
6.0452914957
 30
0.0
 10
3.8231019265
 20
6.0452931884
 30
0.0
 10
3.8231353989
 20
6.0452891946
 30
0.0
 10
3.8231810527
 20
6.0452766396
 30
0.0
 10
3.823234608
 20
6.0452559818
 30
0.0
 10
3.8232960749
 20
6.0452271898
 30
0.0
 10
3.8233654692
 20
6.0451902331
 30
0.0
 10
3.8234747905
 20
6.0451263707
 30
0.0
 10
3.8236304392
 20
6.0450252101
 30
0.0
 10
3.8238389017
 20
6.0448777835
 30
0.0
 10
3.8240775898
 20
6.0446985262
 30
0.0
 10
3.824345799
 20
6.044487929
 30
0.0
 10
3.8246427281
 20
6.0442465526
 30
0.0
 10
3.8249674942
 20
6.043975084
 30
0.0
 10
3.8253191353
 20
6.0436743066
 30
0.0
 10
3.8258406034
 20
6.0432194849
 30
0.0
 10
3.8265505277
 20
6.0425841983
 30
0.0
 10
3.8271292181
 20
6.0420529848
 30
0.0
 10
3.8274335979
 20
6.0417707709
 30
0.0
  0
SPLINE
  5
4F7
100
AcDbEntity
  8
0
100
AcDbSpline
 62
7
  6
CONTINUOUS
 70
0
 71
3
 72
24
 73
20
 74
0
 42
0.0000001
 43
0.0000001
 44
0.0000000001
 40
0.0
 40
0.0
 40
0.0
 40
0.0
 40
0.0060070428
 40
0.0125609619
 40
0.0201344239
 40
0.0290383237
 40
0.0394639985
 40
0.0515296855
 40
0.0808427353
 40
0.1173310161
 40
0.1611403491
 40
0.2123304178
 40
0.2709125608
 40
0.3368691087
 40
0.4101606743
 40
0.4907320381
 40
0.5785151724
 40
0.7753798245
 40
1.0
 40
1.0
 40
1.0
 40
1.0
 10
3.7419079332
 20
6.1268281977
 30
0.0
 10
3.7419109789
 20
6.1268312433
 30
0.0
 10
3.7419184841
 20
6.1268365531
 30
0.0
 10
3.7419324088
 20
6.126840961
 30
0.0
 10
3.741948986
 20
6.126842175
 30
0.0
 10
3.7419682514
 20
6.1268403377
 30
0.0
 10
3.7419902774
 20
6.1268355
 30
0.0
 10
3.7420257273
 20
6.1268242858
 30
0.0
 10
3.7420770071
 20
6.1268018842
 30
0.0
 10
3.7421463125
 20
6.1267647405
 30
0.0
 10
3.742226843
 20
6.1267156394
 30
0.0
 10
3.7423185246
 20
6.1266546039
 30
0.0
 10
3.7424212723
 20
6.1265816447
 30
0.0
 10
3.7425349762
 20
6.12649682
 30
0.0
 10
3.7426595156
 20
6.1264002032
 30
0.0
 10
3.7427947589
 20
6.1262918885
 30
0.0
 10
3.7429970154
 20
6.1261255421
 30
0.0
 10
3.7432750845
 20
6.1258888263
 30
0.0
 10
3.7435019996
 20
6.1256892048
 30
0.0
 10
3.7436222761
 20
6.1255820927
 30
0.0
  0
LINE
  5
4F8
100
AcDbEntity
  8
0
100
AcDbLine
 62
7
  6
CONTINUOUS
 10
3.6757651555
 20
6.1933113102
 11
3.6759969592
 21
6.1932074096
  0
LINE
  5
4F9
100
AcDbEntity
  8
0
100
AcDbLine
 62
7
  6
CONTINUOUS
 10
3.6325935271
 20
6.2367050835
 11
3.6327831122
 21
6.2365724196
  0
LINE
  5
4FA
100
AcDbEntity
  8
0
100
AcDbLine
 62
7
  6
CONTINUOUS
 10
4.0367100272
 20
5.8231536543
 11
4.0369007175
 21
5.8229772987
  0
LINE
  5
4FB
100
AcDbEntity
  8
0
100
AcDbLine
 62
7
  6
CONTINUOUS
 10
4.0369007175
 20
5.8229772987
 11
4.0370002522
 21
5.8228854028
  0
SPLINE
  5
4FC
100
AcDbEntity
  8
0
100
AcDbSpline
 62
7
  6
CONTINUOUS
 70
0
 71
3
 72
10
 73
6
 74
0
 42
0.0000001
 43
0.0000001
 44
0.0000000001
 40
0.0
 40
0.0
 40
0.0
 40
0.0
 40
0.1932984879
 40
0.5401984829
 40
1.0
 40
1.0
 40
1.0
 40
1.0
 10
4.012134822
 20
5.8477374521
 30
0.0
 10
4.0121353733
 20
5.8477380034
 30
0.0
 10
4.0121372409
 20
5.8477392321
 30
0.0
 10
4.0121413238
 20
5.8477399023
 30
0.0
 10
4.012144575
 20
5.8477395616
 30
0.0
 10
4.0121464035
 20
5.8477392515
 30
0.0
  0
SPLINE
  5
4FD
100
AcDbEntity
  8
0
100
AcDbSpline
 62
7
  6
CONTINUOUS
 70
0
 71
3
 72
31
 73
27
 74
0
 42
0.0000001
 43
0.0000001
 44
0.0000000001
 40
0.0
 40
0.0
 40
0.0
 40
0.0
 40
0.0021028341
 40
0.002907882
 40
0.0038433782
 40
0.0061230488
 40
0.0089653227
 40
0.0123803688
 40
0.0163727886
 40
0.0209444213
 40
0.0260952035
 40
0.0318240224
 40
0.0450064742
 40
0.0604678797
 40
0.0781755791
 40
0.1201648443
 40
0.1705863532
 40
0.2289640639
 40
0.2947426664
 40
0.3672942603
 40
0.4459249054
 40
0.5298814451
 40
0.6183587776
 40
0.7105076136
 40
0.8054425637
 40
1.0
 40
1.0
 40
1.0
 40
1.0
 10
3.9488866215
 20
5.9113105843
 30
0.0
 10
3.9488943918
 20
5.9113183549
 30
0.0
 10
3.9489129267
 20
5.9113180855
 30
0.0
 10
3.9489320419
 20
5.9113138119
 30
0.0
 10
3.9489522771
 20
5.9113075927
 30
0.0
 10
3.9489814466
 20
5.9112953654
 30
0.0
 10
3.9490212989
 20
5.9112751939
 30
0.0
 10
3.9490678027
 20
5.9112486014
 30
0.0
 10
3.9491210048
 20
5.9112155851
 30
0.0
 10
3.9491808525
 20
5.9111761396
 30
0.0
 10
3.9492473186
 20
5.911130281
 30
0.0
 10
3.9493495868
 20
5.9110571083
 30
0.0
 10
3.9494934027
 20
5.9109494527
 30
0.0
 10
3.9496845086
 20
5.9108006003
 30
0.0
 10
3.9499908206
 20
5.9105547381
 30
0.0
 10
3.9504332518
 20
5.9101866922
 30
0.0
 10
3.9510317049
 20
5.9096740289
 30
0.0
 10
3.95171816
 20
5.9090730837
 30
0.0
 10
3.9524860018
 20
5.9083895934
 30
0.0
 10
3.9533278191
 20
5.9076300655
 30
0.0
 10
3.9542355105
 20
5.906801772
 30
0.0
 10
3.9552003423
 20
5.9059126516
 30
0.0
 10
3.9562130319
 20
5.904971238
 30
0.0
 10
3.9572638355
 20
5.9039865777
 30
0.0
 10
3.9587140787
 20
5.9026174663
 30
0.0
 10
3.9598086312
 20
5.9015730927
 30
0.0
 10
3.9605418723
 20
5.9008687485
 30
0.0
  0
SPLINE
  5
4FE
100
AcDbEntity
  8
0
100
AcDbSpline
 62
7
  6
CONTINUOUS
 70
0
 71
3
 72
30
 73
26
 74
0
 42
0.0000001
 43
0.0000001
 44
0.0000000001
 40
0.0
 40
0.0
 40
0.0
 40
0.0
 40
0.0013333629
 40
0.0028638388
 40
0.0047268132
 40
0.0069986938
 40
0.0097214366
 40
0.0129188988
 40
0.0166052452
 40
0.0207893409
 40
0.0306700801
 40
0.042585887
 40
0.0565429287
 40
0.0725380166
 40
0.0905616858
 40
0.1106002379
 40
0.1326361268
 40
0.1566488209
 40
0.2105084524
 40
0.271963276
 40
0.3407599899
 40
0.4166113682
 40
0.5881712183
 40
0.7837423637
 40
1.0
 40
1.0
 40
1.0
 40
1.0
 10
3.8624881013
 20
5.9981532254
 30
0.0
 10
3.8624905726
 20
5.9981556967
 30
0.0
 10
3.8624970925
 20
5.9981598611
 30
0.0
 10
3.8625093822
 20
5.9981624544
 30
0.0
 10
3.8625243128
 20
5.9981620247
 30
0.0
 10
3.8625420244
 20
5.9981586852
 30
0.0
 10
3.8625626023
 20
5.9981524525
 30
0.0
 10
3.8625860837
 20
5.9981433108
 30
0.0
 10
3.8626124822
 20
5.9981312514
 30
0.0
 10
3.8626539173
 20
5.9981100593
 30
0.0
 10
3.8627128283
 20
5.998075813
 30
0.0
 10
3.862791688
 20
5.9980251484
 30
0.0
 10
3.862882064
 20
5.9979628674
 30
0.0
 10
3.8629838607
 20
5.9978890222
 30
0.0
 10
3.8630969679
 20
5.9978036678
 30
0.0
 10
3.8632212624
 20
5.9977068852
 30
0.0
 10
3.8633566112
 20
5.9975987713
 30
0.0
 10
3.863559512
 20
5.9974332075
 30
0.0
 10
3.8638393144
 20
5.9971984916
 30
0.0
 10
3.8642049771
 20
5.9968835537
 30
0.0
 10
3.8646106617
 20
5.9965268
 30
0.0
 10
3.8652284463
 20
5.9959742508
 30
0.0
 10
3.8660855402
 20
5.995190879
 30
0.0
 10
3.8672037269
 20
5.9941478036
 30
0.0
 10
3.8679870083
 20
5.993405011
 30
0.0
 10
3.8683970199
 20
5.9930136009
 30
0.0
  0
LINE
  5
4FF
100
AcDbEntity
  8
0
100
AcDbLine
 62
7
  6
CONTINUOUS
 10
3.7760895925
 20
6.084995878
 11
3.7777323916
 21
6.0836782292
  0
LINE
  5
500
100
AcDbEntity
  8
0
100
AcDbLine
 62
7
  6
CONTINUOUS
 10
3.8116144692
 20
6.0445067756
 11
3.813185881
 21
6.0431177396
  0
SPLINE
  5
501
100
AcDbEntity
  8
0
100
AcDbSpline
 62
7
  6
CONTINUOUS
 70
0
 71
3
 72
16
 73
12
 74
0
 42
0.0000001
 43
0.0000001
 44
0.0000000001
 40
0.0
 40
0.0
 40
0.0
 40
0.0
 40
0.0745612766
 40
0.1633560048
 40
0.2815230607
 40
0.4259099487
 40
0.5944476019
 40
0.6874262745
 40
0.7860662689
 40
0.8902881187
 40
1.0
 40
1.0
 40
1.0
 40
1.0
 10
6.3206351196
 20
2.8296849252
 30
0.0
 10
6.321115294
 20
2.8293759896
 30
0.0
 10
6.3221839994
 20
2.8287251798
 30
0.0
 10
6.3240834738
 20
2.8277035907
 30
0.0
 10
6.3265352643
 20
2.8265899207
 30
0.0
 10
6.3296483489
 20
2.8254793555
 30
0.0
 10
6.3326695835
 20
2.8247243463
 30
0.0
 10
6.3353909473
 20
2.8242710413
 30
0.0
 10
6.3376445289
 20
2.8240283639
 30
0.0
 10
6.3400366668
 20
2.8239163855
 30
0.0
 10
6.3416758625
 20
2.8239431696
 30
0.0
 10
6.3425149275
 20
2.8239838
 30
0.0
  0
LINE
  5
502
100
AcDbEntity
  8
0
100
AcDbLine
 62
7
  6
CONTINUOUS
 10
3.5673964282
 20
6.3114320497
 11
3.5781010161
 21
6.2986965925
  0
LINE
  5
503
100
AcDbEntity
  8
0
100
AcDbLine
 62
7
  6
CONTINUOUS
 10
3.5781010161
 20
6.2986965925
 11
3.5783007089
 21
6.2984180125
  0
LINE
  5
504
100
AcDbEntity
  8
0
100
AcDbLine
 62
7
  6
CONTINUOUS
 10
3.5903222019
 20
6.2893699672
 11
3.5906636509
 21
6.2891762744
  0
LINE
  5
505
100
AcDbEntity
  8
0
100
AcDbLine
 62
7
  6
CONTINUOUS
 10
3.6341218395
 20
6.2352336923
 11
3.6377729453
 21
6.2313243389
  0
LINE
  5
506
100
AcDbEntity
  8
0
100
AcDbLine
 62
7
  6
CONTINUOUS
 10
3.6377729453
 20
6.2313243389
 11
3.63785255
 21
6.2312376849
  0
LINE
  5
507
100
AcDbEntity
  8
0
100
AcDbLine
 62
7
  6
CONTINUOUS
 10
3.6759969592
 20
6.1932074096
 11
3.6773654049
 21
6.1919901269
  0
LINE
  5
508
100
AcDbEntity
  8
0
100
AcDbLine
 62
7
  6
CONTINUOUS
 10
3.5939611231
 20
6.2858788022
 11
3.6046743751
 21
6.2738427332
  0
LINE
  5
509
100
AcDbEntity
  8
0
100
AcDbLine
 62
7
  6
CONTINUOUS
 10
3.6423899923
 20
6.2373021768
 11
3.6433478391
 21
6.2364920862
  0
SPLINE
  5
50A
100
AcDbEntity
  8
0
100
AcDbSpline
 62
7
  6
CONTINUOUS
 70
0
 71
3
 72
38
 73
34
 74
0
 42
0.0000001
 43
0.0000001
 44
0.0000000001
 40
0.0
 40
0.0
 40
0.0
 40
0.0
 40
0.0796770542
 40
0.1632322626
 40
0.2492855061
 40
0.3364189422
 40
0.4232011685
 40
0.5082111902
 40
0.5900615183
 40
0.6674201855
 40
0.7390314906
 40
0.8037355919
 40
0.8331659813
 40
0.860487507
 40
0.8855903465
 40
0.908374182
 40
0.9287488772
 40
0.946635384
 40
0.9546243597
 40
0.9619674397
 40
0.9686586023
 40
0.9746931071
 40
0.9800676227
 40
0.9847807923
 40
0.9888340676
 40
0.9922332609
 40
0.9949921903
 40
0.9961407075
 40
0.9971430311
 40
0.9980093141
 40
0.9987555081
 40
0.9994066407
 40
1.0
 40
1.0
 40
1.0
 40
1.0
 10
3.648011169
 20
6.2318287563
 30
0.0
 10
3.6484324808
 20
6.2313854105
 30
0.0
 10
3.6492915508
 20
6.230473275
 30
0.0
 10
3.6505927021
 20
6.2290701919
 30
0.0
 10
3.6519223864
 20
6.2276155793
 30
0.0
 10
3.6532586349
 20
6.2261334719
 30
0.0
 10
3.654579446
 20
6.2246482898
 30
0.0
 10
3.6558631471
 20
6.223184437
 30
0.0
 10
3.6570887426
 20
6.2217659043
 30
0.0
 10
3.6582362542
 20
6.220415898
 30
0.0
 10
3.6592870048
 20
6.2191564697
 30
0.0
 10
3.6600914158
 20
6.218170727
 30
0.0
 10
3.660673148
 20
6.2174421757
 30
0.0
 10
3.6610612687
 20
6.2169480521
 30
0.0
 10
3.6614136271
 20
6.2164907438
 30
0.0
 10
3.6617287951
 20
6.2160721329
 30
0.0
 10
3.6620054927
 20
6.2156939475
 30
0.0
 10
3.6622101635
 20
6.2154038314
 30
0.0
 10
3.6623533974
 20
6.2151928677
 30
0.0
 10
3.6624464318
 20
6.215051712
 30
0.0
 10
3.6625291038
 20
6.2149217167
 30
0.0
 10
3.6626013338
 20
6.2148030175
 30
0.0
 10
3.6626630601
 20
6.2146957373
 30
0.0
 10
3.6627142343
 20
6.2145999875
 30
0.0
 10
3.6627548491
 20
6.2145158534
 30
0.0
 10
3.6627848858
 20
6.2144434089
 30
0.0
 10
3.6628021513
 20
6.2143899152
 30
0.0
 10
3.6628099751
 20
6.2143530129
 30
0.0
 10
3.6628128009
 20
6.2143299886
 30
0.0
 10
3.6628129591
 20
6.2143098609
 30
0.0
 10
3.662810403
 20
6.2142925795
 30
0.0
 10
3.6628050341
 20
6.2142781253
 30
0.0
 10
3.6627993198
 20
6.2142702704
 30
0.0
 10
3.6627960991
 20
6.2142670498
 30
0.0
  0
LINE
  5
50B
100
AcDbEntity
  8
0
100
AcDbLine
 62
7
  6
CONTINUOUS
 10
3.7108591868
 20
6.1688329823
 11
3.7123731904
 21
6.1674667349
  0
SPLINE
  5
50C
100
AcDbEntity
  8
0
100
AcDbSpline
 62
7
  6
CONTINUOUS
 70
0
 71
3
 72
40
 73
36
 74
0
 42
0.0000001
 43
0.0000001
 44
0.0000000001
 40
0.0
 40
0.0
 40
0.0
 40
0.0
 40
0.0698495398
 40
0.1460988581
 40
0.2272164808
 40
0.3115747175
 40
0.3974835282
 40
0.4832251721
 40
0.5670887546
 40
0.6474039782
 40
0.7225737028
 40
0.7577575702
 40
0.7911048396
 40
0.822449851
 40
0.8516369391
 40
0.8785213091
 40
0.9029697464
 40
0.9248614172
 40
0.9440887682
 40
0.9526736361
 40
0.9605586354
 40
0.9677345395
 40
0.9741933037
 40
0.9799281298
 40
0.9849336944
 40
0.9892066548
 40
0.9927464389
 40
0.9942426021
 40
0.9955577203
 40
0.9966939583
 40
0.9976549741
 40
0.9984472269
 40
0.9990825932
 40
0.9995845172
 40
1.0
 40
1.0
 40
1.0
 40
1.0
 10
3.6798813892
 20
6.1894741426
 30
0.0
 10
3.6802990856
 20
6.1890451447
 30
0.0
 10
3.6811685977
 20
6.1881437976
 30
0.0
 10
3.6825108282
 20
6.1867323865
 30
0.0
 10
3.683929441
 20
6.18522204
 30
0.0
 10
3.6853959081
 20
6.1836430908
 30
0.0
 10
3.6868808025
 20
6.1820272027
 30
0.0
 10
3.6883543961
 20
6.1804067292
 30
0.0
 10
3.689787256
 20
6.1788140635
 30
0.0
 10
3.6911508137
 20
6.1772809941
 30
0.0
 10
3.6922293316
 20
6.1760529024
 30
0.0
 10
3.6930369067
 20
6.1751227398
 30
0.0
 10
3.6935955271
 20
6.1744739437
 30
0.0
 10
3.6941177912
 20
6.173861689
 30
0.0
 10
3.694601098
 20
6.1732890338
 30
0.0
 10
3.6950430417
 20
6.1727588437
 30
0.0
 10
3.6954414277
 20
6.1722737784
 30
0.0
 10
3.6957942723
 20
6.1718362738
 30
0.0
 10
3.6960580234
 20
6.1715016399
 30
0.0
 10
3.6962446347
 20
6.1712591238
 30
0.0
 10
3.6963668099
 20
6.1710973855
 30
0.0
 10
3.6964764333
 20
6.1709490183
 30
0.0
 10
3.6965733725
 20
6.1708142109
 30
0.0
 10
3.6966575133
 20
6.1706931368
 30
0.0
 10
3.6967287715
 20
6.1705859533
 30
0.0
 10
3.6967870694
 20
6.1704927973
 30
0.0
 10
3.6968268256
 20
6.1704235671
 30
0.0
 10
3.6968517402
 20
6.1703751496
 30
0.0
 10
3.6968660735
 20
6.1703444854
 30
0.0
 10
3.6968771424
 20
6.1703173921
 30
0.0
 10
3.696884956
 20
6.170293862
 30
0.0
 10
3.6968895459
 20
6.1702738605
 30
0.0
 10
3.6968909052
 20
6.1702572968
 30
0.0
 10
3.6968889983
 20
6.1702439426
 30
0.0
 10
3.6968848979
 20
6.1702368793
 30
0.0
 10
3.6968823796
 20
6.1702343609
 30
0.0
  0
LINE
  5
50D
100
AcDbEntity
  8
0
100
AcDbLine
 62
7
  6
CONTINUOUS
 10
3.7436222761
 20
6.1255820927
 11
3.7461343751
 21
6.1232211567
  0
SPLINE
  5
50E
100
AcDbEntity
  8
0
100
AcDbSpline
 62
7
  6
CONTINUOUS
 70
0
 71
3
 72
32
 73
28
 74
0
 42
0.0000001
 43
0.0000001
 44
0.0000000001
 40
0.0
 40
0.0
 40
0.0
 40
0.0
 40
0.1810187446
 40
0.2720433505
 40
0.3618907516
 40
0.4494396883
 40
0.5336013021
 40
0.613332714
 40
0.6876498322
 40
0.755639404
 40
0.816470504
 40
0.8439675899
 40
0.8694066272
 40
0.8927121374
 40
0.9138162315
 40
0.9326593629
 40
0.9491914133
 40
0.9633735827
 40
0.9751819941
 40
0.980195302
 40
0.9846178287
 40
0.9884565693
 40
0.9917247456
 40
0.9944461606
 40
0.996664842
 40
0.9984642804
 40
1.0
 40
1.0
 40
1.0
 40
1.0
 10
3.7180845797
 20
6.1617553456
 30
0.0
 10
3.7188851258
 20
6.1609168791
 30
0.0
 10
3.7200785139
 20
6.1596474767
 30
0.0
 10
3.7216475955
 20
6.1579418139
 30
0.0
 10
3.7228020273
 20
6.1566681124
 30
0.0
 10
3.7239174002
 20
6.1554183951
 30
0.0
 10
3.7249797927
 20
6.1542082948
 30
0.0
 10
3.7259759925
 20
6.1530529205
 30
0.0
 10
3.7268936627
 20
6.1519666726
 30
0.0
 10
3.7277214597
 20
6.1509630644
 30
0.0
 10
3.728347426
 20
6.1501817663
 30
0.0
 10
3.7287948596
 20
6.1496067463
 30
0.0
 10
3.7290905555
 20
6.149218193
 30
0.0
 10
3.7293569506
 20
6.1488588313
 30
0.0
 10
3.7295932352
 20
6.1485297814
 30
0.0
 10
3.7297986994
 20
6.1482320745
 30
0.0
 10
3.7299727665
 20
6.1479666461
 30
0.0
 10
3.7301149304
 20
6.1477343255
 30
0.0
 10
3.7302112982
 20
6.1475605969
 30
0.0
 10
3.7302711309
 20
6.1474383752
 30
0.0
 10
3.7303052831
 20
6.1473604905
 30
0.0
 10
3.7303312408
 20
6.147291317
 30
0.0
 10
3.7303490166
 20
6.1472308601
 30
0.0
 10
3.7303586547
 20
6.1471790526
 30
0.0
 10
3.7303601139
 20
6.1471356864
 30
0.0
 10
3.7303531579
 20
6.1471003326
 30
0.0
 10
3.7303415295
 20
6.1470815993
 30
0.0
 10
3.730334575
 20
6.1470746451
 30
0.0
  0
SPLINE
  5
50F
100
AcDbEntity
  8
0
100
AcDbSpline
 62
7
  6
CONTINUOUS
 70
0
 71
3
 72
35
 73
31
 74
0
 42
0.0000001
 43
0.0000001
 44
0.0000000001
 40
0.0
 40
0.0
 40
0.0
 40
0.0
 40
0.1733043208
 40
0.2622764886
 40
0.351098499
 40
0.4384984313
 40
0.523227134
 40
0.6040762787
 40
0.6798955842
 40
0.74960908
 40
0.8122303951
 40
0.8406014966
 40
0.8668776221
 40
0.8909670519
 40
0.9127864014
 40
0.932261213
 40
0.949326711
 40
0.9639290366
 40
0.9702934431
 40
0.9760280693
 40
0.9811307579
 40
0.9856010716
 40
0.9894412784
 40
0.9926578794
 40
0.9952651012
 40
0.9972933114
 40
0.9981109664
 40
0.9988162089
 40
0.9994337535
 40
1.0
 40
1.0
 40
1.0
 40
1.0
 10
3.7495241515
 20
6.1198313802
 30
0.0
 10
3.7503734586
 20
6.1189633553
 30
0.0
 10
3.7516497728
 20
6.1176408461
 30
0.0
 10
3.7533424903
 20
6.1158554256
 30
0.0
 10
3.7546129575
 20
6.1144992185
 30
0.0
 10
3.7558549758
 20
6.1131571539
 30
0.0
 10
3.7570507563
 20
6.1118484674
 30
0.0
 10
3.7581832153
 20
6.1105918984
 30
0.0
 10
3.7592362171
 20
6.1094054191
 30
0.0
 10
3.7601947796
 20
6.1083059764
 30
0.0
 10
3.7609258474
 20
6.1074493709
 30
0.0
 10
3.7614527346
 20
6.106818763
 30
0.0
 10
3.7618031463
 20
6.1063925782
 30
0.0
 10
3.7621207754
 20
6.1059989013
 30
0.0
 10
3.7624045007
 20
6.1056391408
 30
0.0
 10
3.7626533403
 20
6.1053145927
 30
0.0
 10
3.7628664264
 20
6.1050264234
 30
0.0
 10
3.7630199737
 20
6.1048085474
 30
0.0
 10
3.7631238475
 20
6.1046529107
 30
0.0
 10
3.7631887409
 20
6.1045513188
 30
0.0
 10
3.7632442281
 20
6.1044595033
 30
0.0
 10
3.7632902774
 20
6.1043775401
 30
0.0
 10
3.763326873
 20
6.1043055016
 30
0.0
 10
3.7633540555
 20
6.104243405
 30
0.0
 10
3.7633718412
 20
6.1041912803
 30
0.0
 10
3.7633795161
 20
6.1041535955
 30
0.0
 10
3.7633799835
 20
6.104128641
 30
0.0
 10
3.7633778666
 20
6.1041137061
 30
0.0
 10
3.7633732369
 20
6.1041011722
 30
0.0
 10
3.7633682658
 20
6.1040943568
 30
0.0
 10
3.7633654601
 20
6.1040915511
 30
0.0
  0
LINE
  5
510
100
AcDbEntity
  8
0
100
AcDbLine
 62
7
  6
CONTINUOUS
 10
3.8274335979
 20
6.0417707709
 11
3.8307954701
 21
6.0385600616
  0
SPLINE
  5
511
100
AcDbEntity
  8
0
100
AcDbSpline
 62
7
  6
CONTINUOUS
 70
0
 71
3
 72
31
 73
27
 74
0
 42
0.0000001
 43
0.0000001
 44
0.0000000001
 40
0.0
 40
0.0
 40
0.0
 40
0.0
 40
0.1954195799
 40
0.3821614103
 40
0.4701423886
 40
0.5534573081
 40
0.6313572858
 40
0.70314623
 40
0.7681876352
 40
0.825911463
 40
0.8518716784
 40
0.8758229375
 40
0.8977165294
 40
0.9175099869
 40
0.9351679997
 40
0.9506638999
 40
0.9639822653
 40
0.9751240323
 40
0.9798872383
 40
0.9841206868
 40
0.9878369933
 40
0.9910561388
 40
0.9938105486
 40
0.9961532807
 40
0.9981714303
 40
1.0
 40
1.0
 40
1.0
 40
1.0
 10
3.7994059681
 20
6.0804339572
 30
0.0
 10
3.8000878339
 20
6.0797205654
 30
0.0
 10
3.8014117088
 20
6.0783162705
 30
0.0
 10
3.8030152105
 20
6.0765652861
 30
0.0
 10
3.8042193569
 20
6.0752165238
 30
0.0
 10
3.8050487911
 20
6.074270114
 30
0.0
 10
3.8058151558
 20
6.0733772355
 30
0.0
 10
3.806511553
 20
6.0725460032
 30
0.0
 10
3.8071317315
 20
6.0717839588
 30
0.0
 10
3.8075955705
 20
6.0711931846
 30
0.0
 10
3.8079235897
 20
6.0707597554
 30
0.0
 10
3.8081384955
 20
6.0704676776
 30
0.0
 10
3.8083306726
 20
6.0701975872
 30
0.0
 10
3.808499706
 20
6.0699500932
 30
0.0
 10
3.8086452403
 20
6.0697257568
 30
0.0
 10
3.8087670071
 20
6.0695250802
 30
0.0
 10
3.8088647704
 20
6.0693485086
 30
0.0
 10
3.8089292325
 20
6.06921561
 30
0.0
 10
3.8089677121
 20
6.0691214366
 30
0.0
 10
3.808988904
 20
6.0690607982
 30
0.0
 10
3.8090039924
 20
6.0690063985
 30
0.0
 10
3.8090129777
 20
6.0689582169
 30
0.0
 10
3.8090158564
 20
6.0689161941
 30
0.0
 10
3.8090125367
 20
6.0688802028
 30
0.0
 10
3.8090027595
 20
6.0688501636
 30
0.0
 10
3.8089913343
 20
6.0688339706
 30
0.0
 10
3.8089848048
 20
6.0688274413
 30
0.0
  0
SPLINE
  5
512
100
AcDbEntity
  8
0
100
AcDbSpline
 62
7
  6
CONTINUOUS
 70
0
 71
3
 72
32
 73
28
 74
0
 42
0.0000001
 43
0.0000001
 44
0.0000000001
 40
0.0
 40
0.0
 40
0.0
 40
0.0
 40
0.1941771846
 40
0.2888835153
 40
0.3807854979
 40
0.469004534
 40
0.5526992125
 40
0.6310735291
 40
0.7033847578
 40
0.7689508159
 40
0.8271574646
 40
0.8533297275
 40
0.8774664009
 40
0.8995132903
 40
0.9194221713
 40
0.937151392
 40
0.9526668576
 40
0.9659437395
 40
0.976969837
 40
0.9816409905
 40
0.9857552396
 40
0.9893201481
 40
0.9923491772
 40
0.9948660224
 40
0.9969139128
 40
0.9985747493
 40
1.0
 40
1.0
 40
1.0
 40
1.0
 10
3.8346501817
 20
6.0347053501
 30
0.0
 10
3.835360144
 20
6.0339806751
 30
0.0
 10
3.8364104737
 20
6.0328967413
 30
0.0
 10
3.837782425
 20
6.0314560202
 30
0.0
 10
3.8387662709
 20
6.0304101873
 30
0.0
 10
3.8397041378
 20
6.0294001275
 30
0.0
 10
3.8405870512
 20
6.0284355305
 30
0.0
 10
3.8414065841
 20
6.0275256415
 30
0.0
 10
3.8421549452
 20
6.0266791758
 30
0.0
 10
3.8428250295
 20
6.0259042273
 30
0.0
 10
3.8433293996
 20
6.0253047409
 30
0.0
 10
3.8436884147
 20
6.0248659374
 30
0.0
 10
3.8439247355
 20
6.0245708703
 30
0.0
 10
3.844137267
 20
6.0242987061
 30
0.0
 10
3.8443255186
 20
6.0240500943
 30
0.0
 10
3.8444890634
 20
6.0238256316
 30
0.0
 10
3.8446275637
 20
6.023625858
 30
0.0
 10
3.8447407207
 20
6.0234512486
 30
0.0
 10
3.844817587
 20
6.0233207368
 30
0.0
 10
3.8448654583
 20
6.0232289388
 30
0.0
 10
3.8448928516
 20
6.0231704901
 30
0.0
 10
3.8449137894
 20
6.02311857
 30
0.0
 10
3.8449282867
 20
6.0230731705
 30
0.0
 10
3.8449363832
 20
6.0230342264
 30
0.0
 10
3.8449380498
 20
6.0230015615
 30
0.0
 10
3.844933083
 20
6.0229748205
 30
0.0
 10
3.8449243056
 20
6.0229606585
 30
0.0
 10
3.8449190402
 20
6.0229553931
 30
0.0
  0
SPLINE
  5
513
100
AcDbEntity
  8
0
100
AcDbSpline
 62
7
  6
CONTINUOUS
 70
0
 71
3
 72
30
 73
26
 74
0
 42
0.0000001
 43
0.0000001
 44
0.0000000001
 40
0.0
 40
0.0
 40
0.0
 40
0.0
 40
0.2068106194
 40
0.3979228887
 40
0.4860921841
 40
0.5686006936
 40
0.644943868
 40
0.7146594521
 40
0.7773315617
 40
0.8325951079
 40
0.8573507414
 40
0.8801439557
 40
0.9009469278
 40
0.9197373297
 40
0.9364994008
 40
0.9512258532
 40
0.9639214354
 40
0.9746096943
 40
0.983346855
 40
0.9870207253
 40
0.9902620093
 40
0.9931092783
 40
0.9956201642
 40
0.9978788174
 40
1.0
 40
1.0
 40
1.0
 40
1.0
 10
3.886433416
 20
5.9934065093
 30
0.0
 10
3.8869623117
 20
5.9928519866
 30
0.0
 10
3.8879732054
 20
5.9917785661
 30
0.0
 10
3.8891887588
 20
5.9904493318
 30
0.0
 10
3.8900798139
 20
5.9894477461
 30
0.0
 10
3.8906812402
 20
5.9887577501
 30
0.0
 10
3.8912302643
 20
5.9881128565
 30
0.0
 10
3.8917235119
 20
5.9875170919
 30
0.0
 10
3.8921579617
 20
5.9869741699
 30
0.0
 10
3.8924796885
 20
5.9865545255
 30
0.0
 10
3.8927049664
 20
5.9862472992
 30
0.0
 10
3.8928513898
 20
5.9860406318
 30
0.0
 10
3.892981375
 20
5.9858494545
 30
0.0
 10
3.893094736
 20
5.9856740599
 30
0.0
 10
3.8931913263
 20
5.9855147148
 30
0.0
 10
3.8932710305
 20
5.9853716594
 30
0.0
 10
3.8933338057
 20
5.9852450765
 30
0.0
 10
3.8933796064
 20
5.9851351275
 30
0.0
 10
3.8934051006
 20
5.9850531648
 30
0.0
 10
3.8934158069
 20
5.9849960957
 30
0.0
 10
3.8934190456
 20
5.9849599971
 30
0.0
 10
3.8934179627
 20
5.9849280489
 30
0.0
 10
3.8934124708
 20
5.9849002043
 30
0.0
 10
3.8934024311
 20
5.9848764986
 30
0.0
 10
3.8933924658
 20
5.9848634166
 30
0.0
 10
3.8933869081
 20
5.9848578591
 30
0.0
  0
SPLINE
  5
514
100
AcDbEntity
  8
0
100
AcDbSpline
 62
7
  6
CONTINUOUS
 70
0
 71
3
 72
27
 73
23
 74
0
 42
0.0000001
 43
0.0000001
 44
0.0000000001
 40
0.0
 40
0.0
 40
0.0
 40
0.0
 40
0.2154389221
 40
0.409617754
 40
0.4977817356
 40
0.5795369986
 40
0.6545752691
 40
0.7226190532
 40
0.7834244215
 40
0.8367849553
 40
0.882538336
 40
0.902528064
 40
0.9205824683
 40
0.9367017894
 40
0.9508955831
 40
0.9631866428
 40
0.9736198739
 40
0.982278118
 40
0.9893165331
 40
0.9950322534
 40
0.997565591
 40
1.0
 40
1.0
 40
1.0
 40
1.0
 10
3.9732361467
 20
5.9066037786
 30
0.0
 10
3.9736011473
 20
5.9062187308
 30
0.0
 10
3.9742906731
 20
5.9054823879
 30
0.0
 10
3.9751150093
 20
5.9045749791
 30
0.0
 10
3.97570801
 20
5.903902401
 30
0.0
 10
3.9761018857
 20
5.9034454678
 30
0.0
 10
3.9764579036
 20
5.9030213752
 30
0.0
 10
3.9767746942
 20
5.9026317877
 30
0.0
 10
3.9770510767
 20
5.9022782392
 30
0.0
 10
3.9772860167
 20
5.9019621119
 30
0.0
 10
3.9774534379
 20
5.9017211725
 30
0.0
 10
3.9775651687
 20
5.9015476462
 30
0.0
 10
3.9776342527
 20
5.9014335196
 30
0.0
 10
3.9776924352
 20
5.9013295507
 30
0.0
 10
3.9777396864
 20
5.901235827
 30
0.0
 10
3.9777759983
 20
5.9011524065
 30
0.0
 10
3.9778014072
 20
5.9010793159
 30
0.0
 10
3.977815929
 20
5.9010164353
 30
0.0
 10
3.9778196345
 20
5.9009635603
 30
0.0
 10
3.9778128702
 20
5.9009258167
 30
0.0
 10
3.9778009879
 20
5.9009021554
 30
0.0
 10
3.9777932615
 20
5.9008925269
 30
0.0
 10
3.9777890223
 20
5.9008882877
 30
0.0
  0
SPLINE
  5
515
100
AcDbEntity
  8
0
100
AcDbSpline
 62
7
  6
CONTINUOUS
 70
0
 71
3
 72
31
 73
27
 74
0
 42
0.0000001
 43
0.0000001
 44
0.0000000001
 40
0.0
 40
0.0
 40
0.0
 40
0.0
 40
0.209731693
 40
0.4024976421
 40
0.4911138246
 40
0.5738635077
 40
0.6502744886
 40
0.7199135156
 40
0.7823894938
 40
0.8373573137
 40
0.8619317616
 40
0.8845230117
 40
0.9051032497
 40
0.9236490257
 40
0.9401421813
 40
0.9545709454
 40
0.9669323291
 40
0.9772370501
 40
0.981628716
 40
0.9855226256
 40
0.9889312838
 40
0.9918743916
 40
0.9943832984
 40
0.9965094978
 40
0.9983378807
 40
1.0
 40
1.0
 40
1.0
 40
1.0
 10
3.9249920241
 20
5.9443635077
 30
0.0
 10
3.9254963938
 20
5.9438479931
 30
0.0
 10
3.9264596594
 20
5.9428540768
 30
0.0
 10
3.927621473
 20
5.9416283452
 30
0.0
 10
3.9284732822
 20
5.9407105614
 30
0.0
 10
3.9290480115
 20
5.9400815379
 30
0.0
 10
3.9295734701
 20
5.9394959315
 30
0.0
 10
3.930046653
 20
5.9389571334
 30
0.0
 10
3.9304648601
 20
5.9384682596
 30
0.0
 10
3.9307762599
 20
5.938092014
 30
0.0
 10
3.9309956073
 20
5.9378177145
 30
0.0
 10
3.93113875
 20
5.9376339103
 30
0.0
 10
3.9312665824
 20
5.9374644874
 30
0.0
 10
3.931378933
 20
5.9373096887
 30
0.0
 10
3.9314756581
 20
5.9371697375
 30
0.0
 10
3.9315566586
 20
5.9370448324
 30
0.0
 10
3.9316218435
 20
5.9369351467
 30
0.0
 10
3.9316650717
 20
5.9368526605
 30
0.0
 10
3.9316910935
 20
5.9367942454
 30
0.0
 10
3.9317055404
 20
5.9367566927
 30
0.0
 10
3.9317159984
 20
5.936723014
 30
0.0
 10
3.9317224731
 20
5.9366931882
 30
0.0
 10
3.9317249641
 20
5.9366671665
 30
0.0
 10
3.9317234122
 20
5.9366448545
 30
0.0
 10
3.9317176359
 20
5.9366261899
 30
0.0
 10
3.9317106006
 20
5.9366161494
 30
0.0
 10
3.931706559
 20
5.936612108
 30
0.0
  0
SPLINE
  5
516
100
AcDbEntity
  8
0
100
AcDbSpline
 62
7
  6
CONTINUOUS
 70
0
 71
3
 72
25
 73
21
 74
0
 42
0.0000001
 43
0.0000001
 44
0.0000000001
 40
0.0
 40
0.0
 40
0.0
 40
0.0
 40
0.2213587693
 40
0.4173326245
 40
0.5052867857
 40
0.5863104862
 40
0.6602457716
 40
0.7269553977
 40
0.7863254093
 40
0.8382696934
 40
0.8827380838
 40
0.9197324583
 40
0.9354537126
 40
0.9493525034
 40
0.9614694937
 40
0.9718713051
 40
0.9806675048
 40
0.9880444331
 40
0.9943193334
 40
1.0
 40
1.0
 40
1.0
 40
1.0
 10
4.0538986974
 20
5.8259412279
 30
0.0
 10
4.0541115636
 20
5.8257136825
 30
0.0
 10
4.0545102282
 20
5.8252821874
 30
0.0
 10
4.0549844226
 20
5.8247520064
 30
0.0
 10
4.055320538
 20
5.8243634933
 30
0.0
 10
4.0555409937
 20
5.8241021051
 30
0.0
 10
4.0557386055
 20
5.823860612
 30
0.0
 10
4.0559129691
 20
5.8236395315
 30
0.0
 10
4.0560637386
 20
5.8234393392
 30
0.0
 10
4.0561906527
 20
5.8232604622
 30
0.0
 10
4.0562934813
 20
5.8231032747
 30
0.0
 10
4.05636241
 20
5.8229849775
 30
0.0
 10
4.0564045245
 20
5.8229011646
 30
0.0
 10
4.0564282228
 20
5.8228473715
 30
0.0
 10
4.0564458098
 20
5.8227991706
 30
0.0
 10
4.0564572972
 20
5.8227565378
 30
0.0
 10
4.0564626909
 20
5.8227194002
 30
0.0
 10
4.0564619163
 20
5.8226876006
 30
0.0
 10
4.0564546681
 20
5.822661
 30
0.0
 10
4.056444936
 20
5.8226467678
 30
0.0
 10
4.0564392818
 20
5.8226411135
 30
0.0
  0
SPLINE
  5
517
100
AcDbEntity
  8
0
100
AcDbSpline
 62
7
  6
CONTINUOUS
 70
0
 71
3
 72
28
 73
24
 74
0
 42
0.0000001
 43
0.0000001
 44
0.0000000001
 40
0.0
 40
0.0
 40
0.0
 40
0.0
 40
0.2206341848
 40
0.4174347122
 40
0.5061711065
 40
0.5881169781
 40
0.6630387485
 40
0.7307260681
 40
0.7909935802
 40
0.843683485
 40
0.8886696522
 40
0.9082458898
 40
0.9258681495
 40
0.9415348435
 40
0.955250984
 40
0.9670307088
 40
0.9769040768
 40
0.9849296101
 40
0.991225476
 40
0.9938018258
 40
0.9960629135
 40
0.9980912835
 40
1.0
 40
1.0
 40
1.0
 40
1.0
 10
4.0096531191
 20
5.8597024127
 30
0.0
 10
4.0099403398
 20
5.8594073738
 30
0.0
 10
4.0104813077
 20
5.8588467763
 30
0.0
 10
4.0111296303
 20
5.8581597
 30
0.0
 10
4.0115946594
 20
5.8576556215
 30
0.0
 10
4.0119025716
 20
5.8573160825
 30
0.0
 10
4.0121809619
 20
5.857002827
 30
0.0
 10
4.0124290248
 20
5.8567167785
 30
0.0
 10
4.012646064
 20
5.8564587863
 30
0.0
 10
4.0128314665
 20
5.8562296108
 30
0.0
 10
4.0129647795
 20
5.8560560368
 30
0.0
 10
4.0130547386
 20
5.8559318001
 30
0.0
 10
4.0131108051
 20
5.8558506077
 30
0.0
 10
4.0131586392
 20
5.8557770579
 30
0.0
 10
4.0131982246
 20
5.8557111974
 30
0.0
 10
4.013229558
 20
5.8556530697
 30
0.0
 10
4.013252681
 20
5.8556026679
 30
0.0
 10
4.013267622
 20
5.8555599952
 30
0.0
 10
4.0132737565
 20
5.8555288167
 30
0.0
 10
4.0132737156
 20
5.855507968
 30
0.0
 10
4.0132715433
 20
5.8554952613
 30
0.0
 10
4.0132671689
 20
5.8554844395
 30
0.0
 10
4.013262679
 20
5.8554784896
 30
0.0
 10
4.0132601602
 20
5.8554759707
 30
0.0
  0
LINE
  5
518
100
AcDbEntity
  8
0
100
AcDbLine
 62
7
  6
CONTINUOUS
 10
4.1229240486
 20
5.7569158767
 11
4.1239777985
 21
5.7554487492
  0
LINE
  5
519
100
AcDbEntity
  8
0
100
AcDbLine
 62
7
  6
CONTINUOUS
 10
4.0784220893
 20
5.7909334424
 11
4.0797432724
 21
5.7893331932
  0
LINE
  5
51A
100
AcDbEntity
  8
0
100
AcDbLine
 62
7
  6
CONTINUOUS
 10
4.1191432486
 20
5.7500611202
 11
4.1216656547
 21
5.747689877
  0
LINE
  5
51B
100
AcDbEntity
  8
0
100
AcDbLine
 62
7
  6
CONTINUOUS
 10
4.1756082368
 20
5.7042316885
 11
4.1758019296
 21
5.7038902395
  0
SPLINE
  5
51C
100
AcDbEntity
  8
0
100
AcDbSpline
 62
7
  6
CONTINUOUS
 70
0
 71
3
 72
22
 73
18
 74
0
 42
0.0000001
 43
0.0000001
 44
0.0000000001
 40
0.0
 40
0.0
 40
0.0
 40
0.0
 40
0.007960911
 40
0.0179223385
 40
0.029864395
 40
0.0437616631
 40
0.0772946168
 40
0.1182224337
 40
0.1661783192
 40
0.2207328852
 40
0.2813988709
 40
0.3476360735
 40
0.4188563663
 40
0.49442906
 40
0.6559288523
 40
0.8264511949
 40
1.0
 40
1.0
 40
1.0
 40
1.0
 10
4.1848499749
 20
5.6918687465
 30
0.0
 10
4.1848873721
 20
5.6918436067
 30
0.0
 10
4.1849704805
 20
5.6917854027
 30
0.0
 10
4.185106961
 20
5.6916856517
 30
0.0
 10
4.1852688832
 20
5.6915637967
 30
0.0
 10
4.1855353441
 20
5.6913589962
 30
0.0
 10
4.1859282352
 20
5.6910494956
 30
0.0
 10
4.1864685125
 20
5.6906156183
 30
0.0
 10
4.1870980861
 20
5.6901029311
 30
0.0
 10
4.1878112881
 20
5.6895160277
 30
0.0
 10
4.1886017113
 20
5.6888601272
 30
0.0
 10
4.1894622986
 20
5.6881410681
 30
0.0
 10
4.1903853951
 20
5.6873652337
 30
0.0
 10
4.1917184169
 20
5.686239065
 30
0.0
 10
4.19347563
 20
5.6847440363
 30
0.0
 10
4.1956480053
 20
5.6828811792
 30
0.0
 10
4.1971218085
 20
5.6816080155
 30
0.0
 10
4.1978640076
 20
5.6809644698
 30
0.0
  0
LINE
  5
51D
100
AcDbEntity
  8
0
100
AcDbLine
 62
7
  6
CONTINUOUS
 10
4.123004382
 20
5.7463511498
 11
4.1231370461
 21
5.7461615646
  0
LINE
  5
51E
100
AcDbEntity
  8
0
100
AcDbLine
 62
7
  6
CONTINUOUS
 10
3.9242583454
 20
5.9321078788
 11
3.9309387383
 21
5.9251825065
  0
LINE
  5
51F
100
AcDbEntity
  8
0
100
AcDbLine
 62
7
  6
CONTINUOUS
 10
3.813185881
 20
6.0431177396
 11
3.8185397962
 21
6.0378264283
  0
SPLINE
  5
520
100
AcDbEntity
  8
0
100
AcDbSpline
 62
7
  6
CONTINUOUS
 70
0
 71
3
 72
63
 73
59
 74
0
 42
0.0000001
 43
0.0000001
 44
0.0000000001
 40
0.0
 40
0.0
 40
0.0
 40
0.0
 40
0.0001262709
 40
0.0002882211
 40
0.0005059595
 40
0.0007878834
 40
0.0011377845
 40
0.0015575821
 40
0.002048333
 40
0.0026106653
 40
0.0039514198
 40
0.0055814646
 40
0.0075010719
 40
0.009709895
 40
0.0149915028
 40
0.0214163747
 40
0.0289706531
 40
0.0376372886
 40
0.0473963104
 40
0.0582249855
 40
0.0700979389
 40
0.0829872408
 40
0.0968624934
 40
0.11169093
 40
0.1440649089
 40
0.17980293
 40
0.2185666839
 40
0.259989161
 40
0.3036782435
 40
0.3492205585
 40
0.3961854229
 40
0.4441289874
 40
0.4925984672
 40
0.58928494
 40
0.6365902688
 40
0.6826065452
 40
0.7269002426
 40
0.7690540876
 40
0.8086709955
 40
0.8453777546
 40
0.8788284976
 40
0.908707972
 40
0.9222191053
 40
0.9347346131
 40
0.9462250216
 40
0.9566633167
 40
0.9660250274
 40
0.9742883253
 40
0.9814341591
 40
0.9874464418
 40
0.9923124099
 40
0.9943127074
 40
0.9960236775
 40
0.9974453399
 40
0.9985787576
 40
0.9994270178
 40
0.9997468333
 40
1.0
 40
1.0
 40
1.0
 40
1.0
 10
3.7128415014
 20
6.1485691194
 30
0.0
 10
3.7128424326
 20
6.1485700505
 30
0.0
 10
3.7128453121
 20
6.1485714227
 30
0.0
 10
3.7128506772
 20
6.1485712819
 30
0.0
 10
3.7128573879
 20
6.148569577
 30
0.0
 10
3.712865613
 20
6.1485662305
 30
0.0
 10
3.7128753902
 20
6.1485612461
 30
0.0
 10
3.7128867351
 20
6.1485545949
 30
0.0
 10
3.7128996498
 20
6.148546273
 30
0.0
 10
3.7129201951
 20
6.1485320847
 30
0.0
 10
3.7129497001
 20
6.1485099943
 30
0.0
 10
3.7129895664
 20
6.1484781781
 30
0.0
 10
3.7130356642
 20
6.1484396808
 30
0.0
 10
3.7131099375
 20
6.1483755337
 30
0.0
 10
3.7132178778
 20
6.1482785148
 30
0.0
 10
3.713365123
 20
6.1481418808
 30
0.0
 10
3.7135363907
 20
6.1479792583
 30
0.0
 10
3.7137312718
 20
6.1477910233
 30
0.0
 10
3.7139492947
 20
6.1475776046
 30
0.0
 10
3.7141899393
 20
6.1473395016
 30
0.0
 10
3.7144526322
 20
6.147077273
 30
0.0
 10
3.7147367485
 20
6.1467915372
 30
0.0
 10
3.7150416136
 20
6.1464829697
 30
0.0
 10
3.7154880315
 20
6.1460286051
 30
0.0
 10
3.716091925
 20
6.1454093267
 30
0.0
 10
3.7168669769
 20
6.1446083103
 30
0.0
 10
3.7177047949
 20
6.1437367262
 30
0.0
 10
3.7185974342
 20
6.1428028286
 30
0.0
 10
3.7195364337
 20
6.1418154577
 30
0.0
 10
3.7205129006
 20
6.1407839583
 30
0.0
 10
3.7215175941
 20
6.1397180871
 30
0.0
 10
3.7225410152
 20
6.1386279216
 30
0.0
 10
3.7239164478
 20
6.1371569864
 30
0.0
 10
3.725283091
 20
6.1356869494
 30
0.0
 10
3.7266279359
 20
6.134231599
 30
0.0
 10
3.7275997374
 20
6.1331755023
 30
0.0
 10
3.7285328839
 20
6.1321568491
 30
0.0
 10
3.7294185825
 20
6.1311852437
 30
0.0
 10
3.7302484887
 20
6.1302698498
 30
0.0
 10
3.7310147861
 20
6.1294193068
 30
0.0
 10
3.7317102531
 20
6.1286416454
 30
0.0
 10
3.732241784
 20
6.128041914
 30
0.0
 10
3.7326265426
 20
6.127603853
 30
0.0
 10
3.7328837493
 20
6.1273090119
 30
0.0
 10
3.7331188181
 20
6.1270373885
 30
0.0
 10
3.7333311946
 20
6.1267896282
 30
0.0
 10
3.7335203809
 20
6.1265663228
 30
0.0
 10
3.7336859344
 20
6.1263680067
 30
0.0
 10
3.7338274823
 20
6.1261951631
 30
0.0
 10
3.7339446966
 20
6.1260482072
 30
0.0
 10
3.7340265325
 20
6.1259416901
 30
0.0
 10
3.734079336
 20
6.1258694803
 30
0.0
 10
3.7341100439
 20
6.1258256292
 30
0.0
 10
3.734134543
 20
6.1257884762
 30
0.0
 10
3.7341528133
 20
6.1257580437
 30
0.0
 10
3.7341638408
 20
6.1257366654
 30
0.0
 10
3.7341691976
 20
6.1257228338
 30
0.0
 10
3.7341707725
 20
6.1257170441
 30
0.0
 10
3.734171214
 20
6.1257144411
 30
0.0
  0
SPLINE
  5
521
100
AcDbEntity
  8
0
100
AcDbSpline
 62
7
  6
CONTINUOUS
 70
0
 71
3
 72
44
 73
40
 74
0
 42
0.0000001
 43
0.0000001
 44
0.0000000001
 40
0.0
 40
0.0
 40
0.0
 40
0.0
 40
0.0234252326
 40
0.0497899209
 40
0.0789197234
 40
0.1106208141
 40
0.1808752013
 40
0.2586786352
 40
0.3419516778
 40
0.4284676647
 40
0.515913881
 40
0.6019546784
 40
0.6842946994
 40
0.7233859075
 40
0.7607405837
 40
0.7961100335
 40
0.8292590338
 40
0.8599673253
 40
0.8880312073
 40
0.9132648612
 40
0.9355018844
 40
0.9454503383
 40
0.9545967497
 40
0.9629264581
 40
0.9704263483
 40
0.977084977
 40
0.982892798
 40
0.9854753315
 40
0.987842625
 40
0.9899942663
 40
0.9919300656
 40
0.9951550374
 40
0.9964468852
 40
0.9975282665
 40
0.9984046493
 40
0.9990869843
 40
0.9993626456
 40
0.9996010394
 40
1.0
 40
1.0
 40
1.0
 40
1.0
 10
3.7777323916
 20
6.0836782292
 30
0.0
 10
3.7779000298
 20
6.0835235488
 30
0.0
 10
3.7782543863
 20
6.0831926576
 30
0.0
 10
3.7788115203
 20
6.0826633693
 30
0.0
 10
3.7794229862
 20
6.0820743024
 30
0.0
 10
3.7803370454
 20
6.0811833825
 30
0.0
 10
3.7815811413
 20
6.0799520916
 30
0.0
 10
3.7831699225
 20
6.0783553005
 30
0.0
 10
3.784859116
 20
6.076635122
 30
0.0
 10
3.7866034703
 20
6.0748375796
 30
0.0
 10
3.7883562876
 20
6.0730107521
 30
0.0
 10
3.790070703
 20
6.0712034875
 30
0.0
 10
3.7914522354
 20
6.0697294862
 30
0.0
 10
3.7925037146
 20
6.0685959293
 30
0.0
 10
3.7932411907
 20
6.0677949503
 30
0.0
 10
3.7939363714
 20
6.0670336911
 30
0.0
 10
3.7945846258
 20
6.066317234
 30
0.0
 10
3.7951816402
 20
6.0656503635
 30
0.0
 10
3.7957234505
 20
6.0650375379
 30
0.0
 10
3.7962064578
 20
6.0644828529
 30
0.0
 10
3.7965696501
 20
6.0640577593
 30
0.0
 10
3.7968281005
 20
6.0637492476
 30
0.0
 10
3.7969980658
 20
6.0635432769
 30
0.0
 10
3.7971511984
 20
6.0633543392
 30
0.0
 10
3.7972872501
 20
6.0631827529
 30
0.0
 10
3.7974060002
 20
6.0630288078
 30
0.0
 10
3.7974935168
 20
6.0629112624
 30
0.0
 10
3.7975545561
 20
6.0628261308
 30
0.0
 10
3.7975940683
 20
6.0627693803
 30
0.0
 10
3.7976291366
 20
6.0627172147
 30
0.0
 10
3.7976676357
 20
6.0626573212
 30
0.0
 10
3.797699875
 20
6.0626033235
 30
0.0
 10
3.7977246929
 20
6.0625547692
 30
0.0
 10
3.7977374335
 20
6.0625257713
 30
0.0
 10
3.7977457439
 20
6.0625014143
 30
0.0
 10
3.7977493088
 20
6.0624837982
 30
0.0
 10
3.7977494673
 20
6.0624721002
 30
0.0
 10
3.7977482129
 20
6.0624632946
 30
0.0
 10
3.7977452937
 20
6.062457406
 30
0.0
 10
3.7977425467
 20
6.0624546591
 30
0.0
  0
SPLINE
  5
522
100
AcDbEntity
  8
0
100
AcDbSpline
 62
7
  6
CONTINUOUS
 70
0
 71
3
 72
38
 73
34
 74
0
 42
0.0000001
 43
0.0000001
 44
0.0000000001
 40
0.0
 40
0.0
 40
0.0
 40
0.0
 40
0.078065656
 40
0.160486691
 40
0.2458538474
 40
0.3327063757
 40
0.4195574112
 40
0.5049201098
 40
0.5873337591
 40
0.6653893527
 40
0.7377542323
 40
0.8031953712
 40
0.8606009275
 40
0.8859812276
 40
0.9090008458
 40
0.9295637206
 40
0.9475851511
 40
0.9556197752
 40
0.9629929477
 40
0.9696978123
 40
0.9757284936
 40
0.981080415
 40
0.9857504111
 40
0.9897374225
 40
0.9930435167
 40
0.9944435237
 40
0.9956769886
 40
0.9967468819
 40
0.9976579467
 40
0.9984181641
 40
0.9990415779
 40
0.9995537586
 40
1.0
 40
1.0
 40
1.0
 40
1.0
 10
3.8683970199
 20
5.9930136009
 30
0.0
 10
3.8688391486
 20
5.9925915307
 30
0.0
 10
3.8697449568
 20
5.9917205746
 30
0.0
 10
3.8711244241
 20
5.9903779033
 30
0.0
 10
3.872545393
 20
5.9889792752
 30
0.0
 10
3.8739834985
 20
5.987548652
 30
0.0
 10
3.8754140821
 20
5.9861105562
 30
0.0
 10
3.8768126211
 20
5.9846896464
 30
0.0
 10
3.8781551585
 20
5.9833102868
 30
0.0
 10
3.8794187187
 20
5.9819961222
 30
0.0
 10
3.8805817238
 20
5.9807696808
 30
0.0
 10
3.8816243314
 20
5.9796519637
 30
0.0
 10
3.8824073369
 20
5.9787952419
 30
0.0
 10
3.8829596196
 20
5.9781777326
 30
0.0
 10
3.8833161966
 20
5.9777722325
 30
0.0
 10
3.8836309759
 20
5.9774067378
 30
0.0
 10
3.8838655717
 20
5.9771270645
 30
0.0
 10
3.8840310495
 20
5.9769242575
 30
0.0
 10
3.8841391066
 20
5.9767889715
 30
0.0
 10
3.8842358377
 20
5.9766647347
 30
0.0
 10
3.8843211463
 20
5.9765516797
 30
0.0
 10
3.8843949512
 20
5.9764499299
 30
0.0
 10
3.8844571975
 20
5.9763595952
 30
0.0
 10
3.8845078331
 20
5.9762807713
 30
0.0
 10
3.8845420591
 20
5.9762218866
 30
0.0
 10
3.8845632379
 20
5.9761804698
 30
0.0
 10
3.8845752895
 20
5.9761540828
 30
0.0
 10
3.8845844247
 20
5.9761306113
 30
0.0
 10
3.8845906525
 20
5.976110042
 30
0.0
 10
3.8845939884
 20
5.9760923374
 30
0.0
 10
3.884594416
 20
5.9760774124
 30
0.0
 10
3.884591822
 20
5.9760651271
 30
0.0
 10
3.8845876585
 20
5.9760586095
 30
0.0
 10
3.8845851878
 20
5.9760561389
 30
0.0
  0
SPLINE
  5
523
100
AcDbEntity
  8
0
100
AcDbSpline
 62
7
  6
CONTINUOUS
 70
0
 71
3
 72
33
 73
29
 74
0
 42
0.0000001
 43
0.0000001
 44
0.0000000001
 40
0.0
 40
0.0
 40
0.0
 40
0.0
 40
0.1947194553
 40
0.2897328825
 40
0.3819553927
 40
0.4704983374
 40
0.5545087476
 40
0.63317783
 40
0.7057490852
 40
0.7715258536
 40
0.829878512
 40
0.8802512573
 40
0.9221688727
 40
0.9398328022
 40
0.9552456286
 40
0.9683751861
 40
0.974076107
 40
0.9791981986
 40
0.9837403557
 40
0.9877027795
 40
0.9910873523
 40
0.9938991149
 40
0.9961486084
 40
0.9978590178
 40
0.9985286992
 40
0.9990908002
 40
0.999568762
 40
1.0
 40
1.0
 40
1.0
 40
1.0
 10
3.9605418723
 20
5.9008687485
 30
0.0
 10
3.9612747867
 20
5.900164718
 30
0.0
 10
3.9623618169
 20
5.8991134907
 30
0.0
 10
3.9637874515
 20
5.8977200708
 30
0.0
 10
3.9648130394
 20
5.8967101745
 30
0.0
 10
3.9657938419
 20
5.8957366597
 30
0.0
 10
3.9667204001
 20
5.8948089249
 30
0.0
 10
3.9675837854
 20
5.8939359299
 30
0.0
 10
3.9683756887
 20
5.8931261079
 30
0.0
 10
3.9690884998
 20
5.8923872809
 30
0.0
 10
3.9697154105
 20
5.8917266032
 30
0.0
 10
3.970250426
 20
5.8911504533
 30
0.0
 10
3.9706347949
 20
5.8907242674
 30
0.0
 10
3.9708917748
 20
5.8904290181
 30
0.0
 10
3.9710474121
 20
5.8902447912
 30
0.0
 10
3.9711601009
 20
5.8901060472
 30
0.0
 10
3.9712367867
 20
5.8900073113
 30
0.0
 10
3.9712848773
 20
5.8899431307
 30
0.0
 10
3.9713262921
 20
5.889885305
 30
0.0
 10
3.9713610198
 20
5.8898338671
 30
0.0
 10
3.9713890532
 20
5.8897888494
 30
0.0
 10
3.9714104322
 20
5.8897502575
 30
0.0
 10
3.9714251628
 20
5.8897181068
 30
0.0
 10
3.9714326119
 20
5.8896949656
 30
0.0
 10
3.9714346062
 20
5.8896796917
 30
0.0
 10
3.971434275
 20
5.8896707168
 30
0.0
 10
3.9714321781
 20
5.8896632297
 30
0.0
 10
3.9714294319
 20
5.8896592215
 30
0.0
 10
3.9714278404
 20
5.88965763
 30
0.0
  0
SPLINE
  5
524
100
AcDbEntity
  8
0
100
AcDbSpline
 62
7
  6
CONTINUOUS
 70
0
 71
3
 72
36
 73
32
 74
0
 42
0.0000001
 43
0.0000001
 44
0.0000000001
 40
0.0
 40
0.0
 40
0.0
 40
0.0
 40
0.000466859
 40
0.0010925094
 40
0.0018828769
 40
0.0028407275
 40
0.0052634863
 40
0.0083656189
 40
0.0121469669
 40
0.0166052777
 40
0.0217368833
 40
0.0275370467
 40
0.0340001764
 40
0.0411198035
 40
0.0572989768
 40
0.0760083266
 40
0.0971705976
 40
0.1206980953
 40
0.1464931744
 40
0.174448737
 40
0.2044487111
 40
0.2363685461
 40
0.2700757117
 40
0.3422855134
 40
0.4198805845
 40
0.5015741376
 40
0.5860113282
 40
0.6717912398
 40
0.7574897565
 40
0.8416829807
 40
1.0
 40
1.0
 40
1.0
 40
1.0
 10
4.0121464035
 20
5.8477392515
 30
0.0
 10
4.0121500035
 20
5.8477386409
 30
0.0
 10
4.0121582243
 20
5.8477361206
 30
0.0
 10
4.0121717336
 20
5.8477302464
 30
0.0
 10
4.0121882089
 20
5.8477216535
 30
0.0
 10
4.0122163947
 20
5.8477052172
 30
0.0
 10
4.0122588358
 20
5.8476774248
 30
0.0
 10
4.0123182698
 20
5.8476353983
 30
0.0
 10
4.0123894367
 20
5.8475824295
 30
0.0
 10
4.01247226
 20
5.8475185701
 30
0.0
 10
4.0125666449
 20
5.8474438628
 30
0.0
 10
4.0126724891
 20
5.8473583804
 30
0.0
 10
4.0127896794
 20
5.8472622072
 30
0.0
 10
4.012968668
 20
5.8471133825
 30
0.0
 10
4.0132195695
 20
5.8469012447
 30
0.0
 10
4.0135521778
 20
5.8466156576
 30
0.0
 10
4.013926477
 20
5.8462904145
 30
0.0
 10
4.0143409011
 20
5.8459268659
 30
0.0
 10
4.0147937158
 20
5.845526518
 30
0.0
 10
4.0152830322
 20
5.8450910339
 30
0.0
 10
4.0158068112
 20
5.8446222221
 30
0.0
 10
4.0163628732
 20
5.8441220308
 30
0.0
 10
4.0171627859
 20
5.8433992854
 30
0.0
 10
4.0182248404
 20
5.8424338093
 30
0.0
 10
4.0195605318
 20
5.8412114025
 30
0.0
 10
4.0209629419
 20
5.8399202576
 30
0.0
 10
4.0224087922
 20
5.838581794
 30
0.0
 10
4.0238740748
 20
5.8372182217
 30
0.0
 10
4.0253344562
 20
5.8358521927
 30
0.0
 10
4.0272045401
 20
5.8340936765
 30
0.0
 10
4.0285811575
 20
5.8327888292
 30
0.0
 10
4.0294768101
 20
5.8319338107
 30
0.0
  0
LINE
  5
525
100
AcDbEntity
  8
0
100
AcDbLine
 62
7
  6
CONTINUOUS
 10
4.0294768101
 20
5.8319338107
 11
4.0350010817
 21
5.826409539
  0
SPLINE
  5
526
100
AcDbEntity
  8
0
100
AcDbSpline
 62
7
  6
CONTINUOUS
 70
0
 71
3
 72
23
 73
19
 74
0
 42
0.0000001
 43
0.0000001
 44
0.0000000001
 40
0.0
 40
0.0
 40
0.0
 40
0.0
 40
0.0562321905
 40
0.1145104948
 40
0.1748284865
 40
0.2370899265
 40
0.3010951264
 40
0.3665354683
 40
0.433000527
 40
0.5
 40
0.566999473
 40
0.6334645317
 40
0.6989048736
 40
0.7629100735
 40
0.8251715135
 40
0.8854895052
 40
0.9437678095
 40
1.0
 40
1.0
 40
1.0
 40
1.0
 10
4.3449046652
 20
6.1940567256
 30
0.0
 10
4.3460132301
 20
6.1942626919
 30
0.0
 10
4.3482552276
 20
6.1947703299
 30
0.0
 10
4.3516082424
 20
6.1958042224
 30
0.0
 10
4.354985788
 20
6.1971342458
 30
0.0
 10
4.3583566513
 20
6.1987654873
 30
0.0
 10
4.3616846151
 20
6.2006964581
 30
0.0
 10
4.364929042
 20
6.2029176436
 30
0.0
 10
4.3680468105
 20
6.2054107226
 30
0.0
 10
4.3709947864
 20
6.2081486122
 30
0.0
 10
4.373732676
 20
6.211096588
 30
0.0
 10
4.376225755
 20
6.2142143566
 30
0.0
 10
4.3784469404
 20
6.2174587834
 30
0.0
 10
4.3803779112
 20
6.2207867473
 30
0.0
 10
4.3820091527
 20
6.2241576106
 30
0.0
 10
4.3833391761
 20
6.2275351562
 30
0.0
 10
4.3843730686
 20
6.2308881709
 30
0.0
 10
4.3848807067
 20
6.2331301684
 30
0.0
 10
4.385086673
 20
6.2342387334
 30
0.0
  0
SPLINE
  5
527
100
AcDbEntity
  8
0
100
AcDbSpline
 62
7
  6
CONTINUOUS
 70
0
 71
3
 72
23
 73
19
 74
0
 42
0.0000001
 43
0.0000001
 44
0.0000000001
 40
0.0
 40
0.0
 40
0.0
 40
0.0
 40
0.0550130014
 40
0.1124969579
 40
0.172425222
 40
0.2346669576
 40
0.2989729407
 40
0.3649704178
 40
0.432171856
 40
0.5
 40
0.567828144
 40
0.6350295822
 40
0.7010270593
 40
0.7653330424
 40
0.827574778
 40
0.8875030421
 40
0.9449869986
 40
1.0
 40
1.0
 40
1.0
 40
1.0
 10
4.3429917321
 20
6.1959696587
 30
0.0
 10
4.344048899
 20
6.1962328628
 30
0.0
 10
4.3461914901
 20
6.1968513722
 30
0.0
 10
4.3493991147
 20
6.1980298477
 30
0.0
 10
4.3526477959
 20
6.1994872323
 30
0.0
 10
4.3559086808
 20
6.2012263243
 30
0.0
 10
4.3591477976
 20
6.2032434591
 30
0.0
 10
4.3623265429
 20
6.2055271963
 30
0.0
 10
4.3654034367
 20
6.2080577048
 30
0.0
 10
4.3683364398
 20
6.2108069588
 30
0.0
 10
4.3710856937
 20
6.2137399619
 30
0.0
 10
4.3736162023
 20
6.2168168556
 30
0.0
 10
4.3758999394
 20
6.2199956009
 30
0.0
 10
4.3779170742
 20
6.2232347178
 30
0.0
 10
4.3796561662
 20
6.2264956027
 30
0.0
 10
4.3811135508
 20
6.2297442838
 30
0.0
 10
4.3822920264
 20
6.2329519085
 30
0.0
 10
4.3829105357
 20
6.2350944995
 30
0.0
 10
4.3831737399
 20
6.2361516665
 30
0.0
  0
SPLINE
  5
528
100
AcDbEntity
  8
0
100
AcDbSpline
 62
7
  6
CONTINUOUS
 70
0
 71
3
 72
23
 73
19
 74
0
 42
0.0000001
 43
0.0000001
 44
0.0000000001
 40
0.0
 40
0.0
 40
0.0
 40
0.0
 40
0.0538140633
 40
0.1105260937
 40
0.1700823453
 40
0.2323127545
 40
0.2969163956
 40
0.3634566408
 40
0.431371247
 40
0.5
 40
0.568628753
 40
0.6365433592
 40
0.7030836044
 40
0.7676872455
 40
0.8299176547
 40
0.8894739063
 40
0.9461859367
 40
1.0
 40
1.0
 40
1.0
 40
1.0
 10
4.3398239863
 20
6.1991374044
 30
0.0
 10
4.3408257306
 20
6.1994622864
 30
0.0
 10
4.3428609497
 20
6.2001998626
 30
0.0
 10
4.3459132854
 20
6.2015322668
 30
0.0
 10
4.349024478
 20
6.2031252262
 30
0.0
 10
4.3521681747
 20
6.2049791492
 30
0.0
 10
4.3553127582
 20
6.2070880821
 30
0.0
 10
4.3584217487
 20
6.2094385476
 30
0.0
 10
4.3614553669
 20
6.2120091044
 30
0.0
 10
4.3643726939
 20
6.2147707046
 30
0.0
 10
4.3671342942
 20
6.2176880316
 30
0.0
 10
4.369704851
 20
6.2207216498
 30
0.0
 10
4.3720553164
 20
6.2238306403
 30
0.0
 10
4.3741642494
 20
6.2269752239
 30
0.0
 10
4.3760181723
 20
6.2301189206
 30
0.0
 10
4.3776111317
 20
6.2332301131
 30
0.0
 10
4.378943536
 20
6.2362824488
 30
0.0
 10
4.3796811122
 20
6.238317668
 30
0.0
 10
4.3800059941
 20
6.2393194122
 30
0.0
  0
SPLINE
  5
529
100
AcDbEntity
  8
0
100
AcDbSpline
 62
7
  6
CONTINUOUS
 70
0
 71
3
 72
23
 73
19
 74
0
 42
0.0000001
 43
0.0000001
 44
0.0000000001
 40
0.0
 40
0.0
 40
0.0
 40
0.0
 40
0.0526965789
 40
0.1086976394
 40
0.1679172579
 40
0.2301441349
 40
0.2950266493
 40
0.3620680878
 40
0.4306376403
 40
0.5
 40
0.5693623597
 40
0.6379319122
 40
0.7049733507
 40
0.7698558651
 40
0.8320827421
 40
0.8913023606
 40
0.9473034211
 40
1.0
 40
1.0
 40
1.0
 40
1.0
 10
4.3354319351
 20
6.2035294556
 30
0.0
 10
4.3363744733
 20
6.2039198853
 30
0.0
 10
4.338294949
 20
6.2047834649
 30
0.0
 10
4.3411837552
 20
6.206277574
 30
0.0
 10
4.3441503142
 20
6.2080129881
 30
0.0
 10
4.3471708721
 20
6.2099876321
 30
0.0
 10
4.350216248
 20
6.2121931531
 30
0.0
 10
4.353252158
 20
6.2146139307
 30
0.0
 10
4.3562405743
 20
6.217226819
 30
0.0
 10
4.3591417221
 20
6.2200016765
 30
0.0
 10
4.3619165796
 20
6.2229028243
 30
0.0
 10
4.3645294679
 20
6.2258912405
 30
0.0
 10
4.3669502454
 20
6.2289271506
 30
0.0
 10
4.3691557665
 20
6.2319725265
 30
0.0
 10
4.3711304105
 20
6.2349930843
 30
0.0
 10
4.3728658245
 20
6.2379596434
 30
0.0
 10
4.3743599337
 20
6.2408484495
 30
0.0
 10
4.3752235133
 20
6.2427689252
 30
0.0
 10
4.3756139429
 20
6.2437114634
 30
0.0
  0
SPLINE
  5
52A
100
AcDbEntity
  8
0
100
AcDbSpline
 62
7
  6
CONTINUOUS
 70
0
 71
3
 72
23
 73
19
 74
0
 42
0.0000001
 43
0.0000001
 44
0.0000000001
 40
0.0
 40
0.0
 40
0.0
 40
0.0
 40
0.0517278135
 40
0.1071193758
 40
0.1660550998
 40
0.2282842794
 40
0.2934095106
 40
0.3608816773
 40
0.4300114064
 40
0.5
 40
0.5699885936
 40
0.6391183227
 40
0.7065904894
 40
0.7717157206
 40
0.8339449002
 40
0.8928806242
 40
0.9482721865
 40
1.0
 40
1.0
 40
1.0
 40
1.0
 10
4.3298578763
 20
6.2091035145
 30
0.0
 10
4.3307376661
 20
6.209562635
 30
0.0
 10
4.3325367157
 20
6.2105576643
 30
0.0
 10
4.3352555437
 20
6.2122196978
 30
0.0
 10
4.3380718911
 20
6.2141031226
 30
0.0
 10
4.3409646714
 20
6.2162032878
 30
0.0
 10
4.3439072074
 20
6.2185093342
 30
0.0
 10
4.3468674733
 20
6.2210034007
 30
0.0
 10
4.3498092397
 20
6.2236605539
 30
0.0
 10
4.3526939005
 20
6.226449498
 30
0.0
 10
4.3554828447
 20
6.2293341588
 30
0.0
 10
4.3581399978
 20
6.2322759253
 30
0.0
 10
4.3606340644
 20
6.2352361912
 30
0.0
 10
4.3629401108
 20
6.2381787271
 30
0.0
 10
4.3650402759
 20
6.2410715074
 30
0.0
 10
4.3669237008
 20
6.2438878549
 30
0.0
 10
4.3685857342
 20
6.2466066828
 30
0.0
 10
4.3695807635
 20
6.2484057325
 30
0.0
 10
4.370039884
 20
6.2492855223
 30
0.0
  0
SPLINE
  5
52B
100
AcDbEntity
  8
0
100
AcDbSpline
 62
7
  6
CONTINUOUS
 70
0
 71
3
 72
23
 73
19
 74
0
 42
0.0000001
 43
0.0000001
 44
0.0000000001
 40
0.0
 40
0.0
 40
0.0
 40
0.0
 40
0.0509749109
 40
0.1058972985
 40
0.1646175024
 40
0.2268518454
 40
0.2921662348
 40
0.3599706886
 40
0.429530906
 40
0.5
 40
0.570469094
 40
0.6400293114
 40
0.7078337652
 40
0.7731481546
 40
0.8353824976
 40
0.8941027015
 40
0.9490250891
 40
1.0
 40
1.0
 40
1.0
 40
1.0
 10
4.323155491
 20
6.2158058998
 30
0.0
 10
4.3239692918
 20
6.2163359417
 30
0.0
 10
4.3256410899
 20
6.2174661668
 30
0.0
 10
4.3281853475
 20
6.2193008506
 30
0.0
 10
4.3308475053
 20
6.2213365534
 30
0.0
 10
4.3336091952
 20
6.2235659593
 30
0.0
 10
4.3364463063
 20
6.2259756093
 30
0.0
 10
4.3393291268
 20
6.2285453216
 30
0.0
 10
4.3422232702
 20
6.2312483084
 30
0.0
 10
4.345091324
 20
6.2340520746
 30
0.0
 10
4.3478950901
 20
6.2369201284
 30
0.0
 10
4.350598077
 20
6.2398142717
 30
0.0
 10
4.3531677892
 20
6.2426970923
 30
0.0
 10
4.3555774393
 20
6.2455342033
 30
0.0
 10
4.3578068451
 20
6.2482958932
 30
0.0
 10
4.359842548
 20
6.250958051
 30
0.0
 10
4.3616772318
 20
6.2535023086
 30
0.0
 10
4.3628074568
 20
6.2551741068
 30
0.0
 10
4.3633374988
 20
6.2559879075
 30
0.0
  0
SPLINE
  5
52C
100
AcDbEntity
  8
0
100
AcDbSpline
 62
7
  6
CONTINUOUS
 70
0
 71
3
 72
23
 73
19
 74
0
 42
0.0000001
 43
0.0000001
 44
0.0000000001
 40
0.0
 40
0.0
 40
0.0
 40
0.0
 40
0.0504962342
 40
0.105122428
 40
0.163707945
 40
0.2259470815
 40
0.2913819401
 40
0.359396515
 40
0.4292282152
 40
0.5
 40
0.5707717848
 40
0.640603485
 40
0.7086180599
 40
0.7740529185
 40
0.836292055
 40
0.894877572
 40
0.9495037658
 40
1.0
 40
1.0
 40
1.0
 40
1.0
 10
4.315389327
 20
6.2235720638
 30
0.0
 10
4.3161343508
 20
6.2241741726
 30
0.0
 10
4.3176741635
 20
6.2254414976
 30
0.0
 10
4.3200410859
 20
6.2274521415
 30
0.0
 10
4.3225466463
 20
6.2296431345
 30
0.0
 10
4.325175235
 20
6.2320044243
 30
0.0
 10
4.327905367
 20
6.2345198873
 30
0.0
 10
4.3307096918
 20
6.2371669656
 30
0.0
 10
4.3335557037
 20
6.2399169747
 30
0.0
 10
4.3364072072
 20
6.2427361914
 30
0.0
 10
4.3392264239
 20
6.2455876949
 30
0.0
 10
4.3419764329
 20
6.2484337067
 30
0.0
 10
4.3446235113
 20
6.2512380315
 30
0.0
 10
4.3471389743
 20
6.2539681635
 30
0.0
 10
4.349500264
 20
6.2565967522
 30
0.0
 10
4.351691257
 20
6.2591023127
 30
0.0
 10
4.353701901
 20
6.2614692351
 30
0.0
 10
4.3549692259
 20
6.2630090478
 30
0.0
 10
4.3555713348
 20
6.2637540716
 30
0.0
  0
SPLINE
  5
52D
100
AcDbEntity
  8
0
100
AcDbSpline
 62
7
  6
CONTINUOUS
 70
0
 71
3
 72
23
 73
19
 74
0
 42
0.0000001
 43
0.0000001
 44
0.0000000001
 40
0.0
 40
0.0
 40
0.0
 40
0.0
 40
0.0504962342
 40
0.105122428
 40
0.163707945
 40
0.2259470815
 40
0.2913819401
 40
0.359396515
 40
0.4292282152
 40
0.5
 40
0.5707717848
 40
0.640603485
 40
0.7086180599
 40
0.7740529185
 40
0.836292055
 40
0.894877572
 40
0.9495037658
 40
1.0
 40
1.0
 40
1.0
 40
1.0
 10
4.150186034
 20
6.4691393723
 30
0.0
 10
4.1494410102
 20
6.4685372635
 30
0.0
 10
4.1479011975
 20
6.4672699385
 30
0.0
 10
4.1455342751
 20
6.4652592946
 30
0.0
 10
4.1430287147
 20
6.4630683016
 30
0.0
 10
4.140400126
 20
6.4607070118
 30
0.0
 10
4.137669994
 20
6.4581915488
 30
0.0
 10
4.1348656691
 20
6.4555444705
 30
0.0
 10
4.1320196573
 20
6.4527944614
 30
0.0
 10
4.1291681538
 20
6.4499752447
 30
0.0
 10
4.1263489371
 20
6.4471237412
 30
0.0
 10
4.123598928
 20
6.4442777294
 30
0.0
 10
4.1209518497
 20
6.4414734046
 30
0.0
 10
4.1184363867
 20
6.4387432726
 30
0.0
 10
4.116075097
 20
6.4361146839
 30
0.0
 10
4.113884104
 20
6.4336091234
 30
0.0
 10
4.11187346
 20
6.431242201
 30
0.0
 10
4.1106061351
 20
6.4297023883
 30
0.0
 10
4.1100040262
 20
6.4289573645
 30
0.0
  0
SPLINE
  5
52E
100
AcDbEntity
  8
0
100
AcDbSpline
 62
7
  6
CONTINUOUS
 70
0
 71
3
 72
23
 73
19
 74
0
 42
0.0000001
 43
0.0000001
 44
0.0000000001
 40
0.0
 40
0.0
 40
0.0
 40
0.0
 40
0.0509749109
 40
0.1058972985
 40
0.1646175024
 40
0.2268518454
 40
0.2921662348
 40
0.3599706886
 40
0.429530906
 40
0.5
 40
0.570469094
 40
0.6400293114
 40
0.7078337652
 40
0.7731481546
 40
0.8353824976
 40
0.8941027015
 40
0.9490250891
 40
1.0
 40
1.0
 40
1.0
 40
1.0
 10
4.14241987
 20
6.4769055363
 30
0.0
 10
4.1416060692
 20
6.4763754944
 30
0.0
 10
4.1399342711
 20
6.4752452693
 30
0.0
 10
4.1373900134
 20
6.4734105855
 30
0.0
 10
4.1347278556
 20
6.4713748827
 30
0.0
 10
4.1319661658
 20
6.4691454768
 30
0.0
 10
4.1291290547
 20
6.4667358268
 30
0.0
 10
4.1262462341
 20
6.4641661145
 30
0.0
 10
4.1233520908
 20
6.4614631277
 30
0.0
 10
4.120484037
 20
6.4586593615
 30
0.0
 10
4.1176802708
 20
6.4557913077
 30
0.0
 10
4.114977284
 20
6.4528971644
 30
0.0
 10
4.1124075718
 20
6.4500143438
 30
0.0
 10
4.1099979217
 20
6.4471772327
 30
0.0
 10
4.1077685159
 20
6.4444155429
 30
0.0
 10
4.105732813
 20
6.4417533851
 30
0.0
 10
4.1038981292
 20
6.4392091275
 30
0.0
 10
4.1027679042
 20
6.4375373293
 30
0.0
 10
4.1022378622
 20
6.4367235286
 30
0.0
  0
SPLINE
  5
52F
100
AcDbEntity
  8
0
100
AcDbSpline
 62
7
  6
CONTINUOUS
 70
0
 71
3
 72
23
 73
19
 74
0
 42
0.0000001
 43
0.0000001
 44
0.0000000001
 40
0.0
 40
0.0
 40
0.0
 40
0.0
 40
0.0517278135
 40
0.1071193758
 40
0.1660550998
 40
0.2282842794
 40
0.2934095106
 40
0.3608816773
 40
0.4300114064
 40
0.5
 40
0.5699885936
 40
0.6391183227
 40
0.7065904894
 40
0.7717157206
 40
0.8339449002
 40
0.8928806242
 40
0.9482721865
 40
1.0
 40
1.0
 40
1.0
 40
1.0
 10
4.1357174847
 20
6.4836079216
 30
0.0
 10
4.1348376949
 20
6.4831488011
 30
0.0
 10
4.1330386453
 20
6.4821537718
 30
0.0
 10
4.1303198173
 20
6.4804917383
 30
0.0
 10
4.1275034699
 20
6.4786083135
 30
0.0
 10
4.1246106896
 20
6.4765081483
 30
0.0
 10
4.1216681536
 20
6.4742021019
 30
0.0
 10
4.1187078877
 20
6.4717080354
 30
0.0
 10
4.1157661213
 20
6.4690508822
 30
0.0
 10
4.1128814604
 20
6.4662619381
 30
0.0
 10
4.1100925163
 20
6.4633772773
 30
0.0
 10
4.1074353632
 20
6.4604355108
 30
0.0
 10
4.1049412966
 20
6.4574752449
 30
0.0
 10
4.1026352502
 20
6.454532709
 30
0.0
 10
4.1005350851
 20
6.4516399287
 30
0.0
 10
4.0986516602
 20
6.4488235812
 30
0.0
 10
4.0969896268
 20
6.4461047533
 30
0.0
 10
4.0959945975
 20
6.4443057036
 30
0.0
 10
4.0955354769
 20
6.4434259138
 30
0.0
  0
SPLINE
  5
530
100
AcDbEntity
  8
0
100
AcDbSpline
 62
7
  6
CONTINUOUS
 70
0
 71
3
 72
23
 73
19
 74
0
 42
0.0000001
 43
0.0000001
 44
0.0000000001
 40
0.0
 40
0.0
 40
0.0
 40
0.0
 40
0.0526965789
 40
0.1086976394
 40
0.1679172579
 40
0.2301441349
 40
0.2950266493
 40
0.3620680878
 40
0.4306376403
 40
0.5
 40
0.5693623597
 40
0.6379319122
 40
0.7049733507
 40
0.7698558651
 40
0.8320827421
 40
0.8913023606
 40
0.9473034211
 40
1.0
 40
1.0
 40
1.0
 40
1.0
 10
4.1301434259
 20
6.4891819805
 30
0.0
 10
4.1292008877
 20
6.4887915508
 30
0.0
 10
4.127280412
 20
6.4879279712
 30
0.0
 10
4.1243916058
 20
6.4864338621
 30
0.0
 10
4.1214250468
 20
6.484698448
 30
0.0
 10
4.1184044889
 20
6.482723804
 30
0.0
 10
4.115359113
 20
6.480518283
 30
0.0
 10
4.112323203
 20
6.4780975054
 30
0.0
 10
4.1093347867
 20
6.4754846171
 30
0.0
 10
4.1064336389
 20
6.4727097596
 30
0.0
 10
4.1036587814
 20
6.4698086118
 30
0.0
 10
4.1010458931
 20
6.4668201956
 30
0.0
 10
4.0986251156
 20
6.4637842855
 30
0.0
 10
4.0964195945
 20
6.4607389096
 30
0.0
 10
4.0944449505
 20
6.4577183518
 30
0.0
 10
4.0927095365
 20
6.4547517927
 30
0.0
 10
4.0912154273
 20
6.4518629866
 30
0.0
 10
4.0903518477
 20
6.4499425109
 30
0.0
 10
4.0899614181
 20
6.4489999727
 30
0.0
  0
SPLINE
  5
531
100
AcDbEntity
  8
0
100
AcDbSpline
 62
7
  6
CONTINUOUS
 70
0
 71
3
 72
23
 73
19
 74
0
 42
0.0000001
 43
0.0000001
 44
0.0000000001
 40
0.0
 40
0.0
 40
0.0
 40
0.0
 40
0.0538140633
 40
0.1105260937
 40
0.1700823453
 40
0.2323127545
 40
0.2969163956
 40
0.3634566408
 40
0.431371247
 40
0.5
 40
0.568628753
 40
0.6365433592
 40
0.7030836044
 40
0.7676872455
 40
0.8299176547
 40
0.8894739063
 40
0.9461859367
 40
1.0
 40
1.0
 40
1.0
 40
1.0
 10
4.1257513747
 20
6.4935740317
 30
0.0
 10
4.1247496304
 20
6.4932491497
 30
0.0
 10
4.1227144113
 20
6.4925115735
 30
0.0
 10
4.1196620756
 20
6.4911791693
 30
0.0
 10
4.116550883
 20
6.4895862099
 30
0.0
 10
4.1134071863
 20
6.4877322869
 30
0.0
 10
4.1102626028
 20
6.485623354
 30
0.0
 10
4.1071536122
 20
6.4832728885
 30
0.0
 10
4.1041199941
 20
6.4807023317
 30
0.0
 10
4.101202667
 20
6.4779407315
 30
0.0
 10
4.0984410668
 20
6.4750234045
 30
0.0
 10
4.09587051
 20
6.4719897863
 30
0.0
 10
4.0935200445
 20
6.4688807958
 30
0.0
 10
4.0914111116
 20
6.4657362122
 30
0.0
 10
4.0895571887
 20
6.4625925155
 30
0.0
 10
4.0879642293
 20
6.459481323
 30
0.0
 10
4.086631825
 20
6.4564289873
 30
0.0
 10
4.0858942488
 20
6.4543937681
 30
0.0
 10
4.0855693669
 20
6.4533920239
 30
0.0
  0
SPLINE
  5
532
100
AcDbEntity
  8
0
100
AcDbSpline
 62
7
  6
CONTINUOUS
 70
0
 71
3
 72
23
 73
19
 74
0
 42
0.0000001
 43
0.0000001
 44
0.0000000001
 40
0.0
 40
0.0
 40
0.0
 40
0.0
 40
0.0550130014
 40
0.1124969579
 40
0.172425222
 40
0.2346669576
 40
0.2989729407
 40
0.3649704178
 40
0.432171856
 40
0.5
 40
0.567828144
 40
0.6350295822
 40
0.7010270593
 40
0.7653330424
 40
0.827574778
 40
0.8875030421
 40
0.9449869986
 40
1.0
 40
1.0
 40
1.0
 40
1.0
 10
4.1225836289
 20
6.4967417774
 30
0.0
 10
4.1215264619
 20
6.4964785733
 30
0.0
 10
4.1193838709
 20
6.4958600639
 30
0.0
 10
4.1161762463
 20
6.4946815884
 30
0.0
 10
4.1129275651
 20
6.4932242038
 30
0.0
 10
4.1096666802
 20
6.4914851118
 30
0.0
 10
4.1064275634
 20
6.489467977
 30
0.0
 10
4.1032488181
 20
6.4871842398
 30
0.0
 10
4.1001719243
 20
6.4846537313
 30
0.0
 10
4.0972389212
 20
6.4819044773
 30
0.0
 10
4.0944896673
 20
6.4789714742
 30
0.0
 10
4.0919591587
 20
6.4758945805
 30
0.0
 10
4.0896754216
 20
6.4727158352
 30
0.0
 10
4.0876582867
 20
6.4694767183
 30
0.0
 10
4.0859191948
 20
6.4662158334
 30
0.0
 10
4.0844618102
 20
6.4629671523
 30
0.0
 10
4.0832833346
 20
6.4597595276
 30
0.0
 10
4.0826648253
 20
6.4576169366
 30
0.0
 10
4.0824016211
 20
6.4565597696
 30
0.0
  0
SPLINE
  5
533
100
AcDbEntity
  8
0
100
AcDbSpline
 62
7
  6
CONTINUOUS
 70
0
 71
3
 72
23
 73
19
 74
0
 42
0.0000001
 43
0.0000001
 44
0.0000000001
 40
0.0
 40
0.0
 40
0.0
 40
0.0
 40
0.0562321905
 40
0.1145104948
 40
0.1748284865
 40
0.2370899265
 40
0.3010951264
 40
0.3665354683
 40
0.433000527
 40
0.5
 40
0.566999473
 40
0.6334645317
 40
0.6989048736
 40
0.7629100735
 40
0.8251715135
 40
0.8854895052
 40
0.9437678095
 40
1.0
 40
1.0
 40
1.0
 40
1.0
 10
4.1206706958
 20
6.4986547105
 30
0.0
 10
4.1195621308
 20
6.4984487442
 30
0.0
 10
4.1173201333
 20
6.4979411062
 30
0.0
 10
4.1139671186
 20
6.4969072137
 30
0.0
 10
4.110589573
 20
6.4955771903
 30
0.0
 10
4.1072187097
 20
6.4939459487
 30
0.0
 10
4.1038907459
 20
6.492014978
 30
0.0
 10
4.100646319
 20
6.4897937925
 30
0.0
 10
4.0975285504
 20
6.4873007135
 30
0.0
 10
4.0945805746
 20
6.4845628239
 30
0.0
 10
4.091842685
 20
6.4816148481
 30
0.0
 10
4.089349606
 20
6.4784970795
 30
0.0
 10
4.0871284206
 20
6.4752526527
 30
0.0
 10
4.0851974498
 20
6.4719246888
 30
0.0
 10
4.0835662083
 20
6.4685538255
 30
0.0
 10
4.0822361849
 20
6.4651762799
 30
0.0
 10
4.0812022924
 20
6.4618232652
 30
0.0
 10
4.0806946543
 20
6.4595812677
 30
0.0
 10
4.080488688
 20
6.4584727027
 30
0.0
  0
SPLINE
  5
534
100
AcDbEntity
  8
0
100
AcDbSpline
 62
7
  6
CONTINUOUS
 70
0
 71
3
 72
27
 73
23
 74
0
 42
0.0000001
 43
0.0000001
 44
0.0000000001
 40
0.0
 40
0.0
 40
0.0
 40
0.0
 40
0.0574169052
 40
0.0867446951
 40
0.1164868207
 40
0.1771923653
 40
0.239477947
 40
0.2711752469
 40
0.30320246
 40
0.3680918949
 40
0.4338254123
 40
0.5
 40
0.5661745877
 40
0.6319081051
 40
0.69679754
 40
0.7288247531
 40
0.760522053
 40
0.8228076347
 40
0.8835131793
 40
0.9132553049
 40
0.9425830948
 40
1.0
 40
1.0
 40
1.0
 40
1.0
 10
4.3455443631
 20
6.1934170276
 30
0.0
 10
4.3467000332
 20
6.193570652
 30
0.0
 10
4.3484376939
 20
6.1938730852
 30
0.0
 10
4.3507399282
 20
6.1944173247
 30
0.0
 10
4.3530828043
 20
6.1950719898
 30
0.0
 10
4.356016361
 20
6.196088997
 30
0.0
 10
4.3588935943
 20
6.1973579652
 30
0.0
 10
4.3611677104
 20
6.1985318679
 30
0.0
 10
4.3634376664
 20
6.1998243191
 30
0.0
 10
4.3662043812
 20
6.2016351512
 30
0.0
 10
4.3693600676
 20
6.2040936889
 30
0.0
 10
4.3723221339
 20
6.2068212646
 30
0.0
 10
4.3750497096
 20
6.209783331
 30
0.0
 10
4.3775082473
 20
6.2129390173
 30
0.0
 10
4.3793190795
 20
6.2157057321
 30
0.0
 10
4.3806115307
 20
6.2179756881
 30
0.0
 10
4.3817854333
 20
6.2202498042
 30
0.0
 10
4.3830544015
 20
6.2231270375
 30
0.0
 10
4.3840714087
 20
6.2260605942
 30
0.0
 10
4.3847260738
 20
6.2284034703
 30
0.0
 10
4.3852703133
 20
6.2307057046
 30
0.0
 10
4.3855727465
 20
6.2324433654
 30
0.0
 10
4.3857263709
 20
6.2335990354
 30
0.0
  0
SPLINE
  5
535
100
AcDbEntity
  8
0
100
AcDbSpline
 62
7
  6
CONTINUOUS
 70
0
 71
3
 72
27
 73
23
 74
0
 42
0.0000001
 43
0.0000001
 44
0.0000000001
 40
0.0
 40
0.0
 40
0.0
 40
0.0
 40
0.0574169052
 40
0.0867446951
 40
0.1164868207
 40
0.1771923653
 40
0.239477947
 40
0.2711752469
 40
0.30320246
 40
0.3680918949
 40
0.4338254123
 40
0.5
 40
0.5661745877
 40
0.6319081051
 40
0.69679754
 40
0.7288247531
 40
0.760522053
 40
0.8228076347
 40
0.8835131793
 40
0.9132553049
 40
0.9425830948
 40
1.0
 40
1.0
 40
1.0
 40
1.0
 10
4.1200309979
 20
6.4992944085
 30
0.0
 10
4.1188753278
 20
6.4991407841
 30
0.0
 10
4.1171376671
 20
6.4988383509
 30
0.0
 10
4.1148354328
 20
6.4982941114
 30
0.0
 10
4.1124925567
 20
6.4976394463
 30
0.0
 10
4.109559
 20
6.4966224391
 30
0.0
 10
4.1066817667
 20
6.4953534709
 30
0.0
 10
4.1044076506
 20
6.4941795682
 30
0.0
 10
4.1021376946
 20
6.492887117
 30
0.0
 10
4.0993709798
 20
6.4910762849
 30
0.0
 10
4.0962152934
 20
6.4886177472
 30
0.0
 10
4.093253227
 20
6.4858901715
 30
0.0
 10
4.0905256513
 20
6.4829281051
 30
0.0
 10
4.0880671136
 20
6.4797724188
 30
0.0
 10
4.0862562815
 20
6.477005704
 30
0.0
 10
4.0849638303
 20
6.474735748
 30
0.0
 10
4.0837899277
 20
6.4724616319
 30
0.0
 10
4.0825209594
 20
6.4695843986
 30
0.0
 10
4.0815039522
 20
6.4666508419
 30
0.0
 10
4.0808492872
 20
6.4643079658
 30
0.0
 10
4.0803050477
 20
6.4620057315
 30
0.0
 10
4.0800026145
 20
6.4602680707
 30
0.0
 10
4.0798489901
 20
6.4591124007
 30
0.0
  0
LINE
  5
536
100
AcDbEntity
  8
0
100
AcDbLine
 62
7
  6
CONTINUOUS
 10
3.7341694149
 20
6.1257028591
 11
3.7340421174
 21
6.1257809412
  0
LINE
  5
537
100
AcDbEntity
  8
0
100
AcDbLine
 62
7
  6
CONTINUOUS
 10
3.7340421174
 20
6.1257809412
 11
3.7333573744
 21
6.1264198957
  0
LINE
  5
538
100
AcDbEntity
  8
0
100
AcDbLine
 62
7
  6
CONTINUOUS
 10
4.0128516436
 20
5.846925632
 11
4.0122189139
 21
5.8476028789
  0
LINE
  5
539
100
AcDbEntity
  8
0
100
AcDbLine
 62
7
  6
CONTINUOUS
 10
4.0122189139
 20
5.8476028789
 11
4.012134822
 21
5.8477374521
  0
SPLINE
  5
53A
100
AcDbEntity
  8
0
100
AcDbSpline
 62
7
  6
CONTINUOUS
 70
0
 71
3
 72
19
 73
15
 74
0
 42
0.0000001
 43
0.0000001
 44
0.0000000001
 40
0.0
 40
0.0
 40
0.0
 40
0.0
 40
0.0220356654
 40
0.0463871794
 40
0.0746984368
 40
0.1080255303
 40
0.1470093723
 40
0.1920393656
 40
0.2433564941
 40
0.301109981
 40
0.4362390996
 40
0.5977960506
 40
0.7857818801
 40
1.0
 40
1.0
 40
1.0
 40
1.0
 10
3.9777890223
 20
5.9008882877
 30
0.0
 10
3.9777824405
 20
5.9008817059
 30
0.0
 10
3.9777660867
 20
5.9008702004
 30
0.0
 10
3.9777357265
 20
5.9008604294
 30
0.0
 10
3.9776993306
 20
5.9008572118
 30
0.0
 10
3.9776568118
 20
5.9008602851
 30
0.0
 10
3.9776080398
 20
5.9008695577
 30
0.0
 10
3.9775529534
 20
5.9008850258
 30
0.0
 10
3.9774915338
 20
5.9009066922
 30
0.0
 10
3.9773961169
 20
5.9009459747
 30
0.0
 10
3.9772614411
 20
5.901011684
 30
0.0
 10
3.9770824807
 20
5.9011112342
 30
0.0
 10
3.9768790644
 20
5.9012351477
 30
0.0
 10
3.9767366617
 20
5.9013278449
 30
0.0
 10
3.9766613786
 20
5.9013780489
 30
0.0
  0
SPLINE
  5
53B
100
AcDbEntity
  8
0
100
AcDbSpline
 62
7
  6
CONTINUOUS
 70
0
 71
3
 72
19
 73
15
 74
0
 42
0.0000001
 43
0.0000001
 44
0.0000000001
 40
0.0
 40
0.0
 40
0.0
 40
0.0
 40
0.0225417962
 40
0.0472354046
 40
0.0757456708
 40
0.109164542
 40
0.148165659
 40
0.1931612378
 40
0.2444090595
 40
0.3020696492
 40
0.4369712484
 40
0.5982791845
 40
0.7860170056
 40
1.0
 40
1.0
 40
1.0
 40
1.0
 10
3.8933869081
 20
5.9848578591
 30
0.0
 10
3.8933800541
 20
5.9848510053
 30
0.0
 10
3.8933631724
 20
5.9848390037
 30
0.0
 10
3.8933319043
 20
5.9848286914
 30
0.0
 10
3.8932945894
 20
5.9848252205
 30
0.0
 10
3.8932511643
 20
5.9848283071
 30
0.0
 10
3.8932014987
 20
5.9848378509
 30
0.0
 10
3.8931455277
 20
5.9848538415
 30
0.0
 10
3.8930832295
 20
5.9848762817
 30
0.0
 10
3.8929865854
 20
5.9849170073
 30
0.0
 10
3.8928504014
 20
5.9849852057
 30
0.0
 10
3.8926697352
 20
5.98508859
 30
0.0
 10
3.8924646385
 20
5.9852173261
 30
0.0
 10
3.8923212202
 20
5.9853136455
 30
0.0
 10
3.892245429
 20
5.9853658162
 30
0.0
  0
SPLINE
  5
53C
100
AcDbEntity
  8
0
100
AcDbSpline
 62
7
  6
CONTINUOUS
 70
0
 71
3
 72
19
 73
15
 74
0
 42
0.0000001
 43
0.0000001
 44
0.0000000001
 40
0.0
 40
0.0
 40
0.0
 40
0.0
 40
0.0217975294
 40
0.045739248
 40
0.0735826668
 40
0.1064580248
 40
0.1450481393
 40
0.1897632383
 40
0.240856018
 40
0.2984819248
 40
0.4336572507
 40
0.5956701031
 40
0.7845196408
 40
1.0
 40
1.0
 40
1.0
 40
1.0
 10
3.8089848048
 20
6.0688274413
 30
0.0
 10
3.8089781417
 20
6.0688207784
 30
0.0
 10
3.808961586
 20
6.068809199
 30
0.0
 10
3.8089307958
 20
6.068799818
 30
0.0
 10
3.8088940335
 20
6.0687975314
 30
0.0
 10
3.8088512014
 20
6.0688020229
 30
0.0
 10
3.8088021484
 20
6.068813197
 30
0.0
 10
3.8087468021
 20
6.0688310495
 30
0.0
 10
3.8086851391
 20
6.0688555874
 30
0.0
 10
3.8085893122
 20
6.0688996455
 30
0.0
 10
3.8084542249
 20
6.0689725867
 30
0.0
 10
3.808274954
 20
6.0690822792
 30
0.0
 10
3.8080712985
 20
6.0692182526
 30
0.0
 10
3.8079288822
 20
6.0693196247
 30
0.0
 10
3.8078535963
 20
6.0693744792
 30
0.0
  0
LINE
  5
53D
100
AcDbEntity
  8
0
100
AcDbLine
 62
7
  6
CONTINUOUS
 10
3.730334575
 20
6.1470746451
 11
3.729237484
 21
6.1476792042
  0
LINE
  5
53E
100
AcDbEntity
  8
0
100
AcDbLine
 62
7
  6
CONTINUOUS
 10
3.6627960991
 20
6.2142670498
 11
3.662286859
 21
6.2145107496
  0
LINE
  5
53F
100
AcDbEntity
  8
0
100
AcDbLine
 62
7
  6
CONTINUOUS
 10
3.5783950137
 20
6.2982376501
 11
3.5781675581
 21
6.2984153556
  0
LINE
  5
540
100
AcDbEntity
  8
0
100
AcDbLine
 62
7
  6
CONTINUOUS
 10
3.5781675581
 20
6.2984153556
 11
3.5779915295
 21
6.2985875903
  0
LINE
  5
541
100
AcDbEntity
  8
0
100
AcDbLine
 62
7
  6
CONTINUOUS
 10
3.5779915295
 20
6.2985875903
 11
3.5775124329
 21
6.2990810459
  0
SPLINE
  5
542
100
AcDbEntity
  8
0
100
AcDbSpline
 62
7
  6
CONTINUOUS
 70
0
 71
3
 72
23
 73
19
 74
0
 42
0.0000001
 43
0.0000001
 44
0.0000000001
 40
0.0
 40
0.0
 40
0.0
 40
0.0
 40
0.0564152753
 40
0.1134325252
 40
0.1711853551
 40
0.229781301
 40
0.2892996704
 40
0.3497902501
 40
0.4112731781
 40
0.4737397559
 40
0.5371540356
 40
0.6014549797
 40
0.6665590198
 40
0.7323629273
 40
0.7987468911
 40
0.8655777007
 40
0.9327119796
 40
1.0
 40
1.0
 40
1.0
 40
1.0
 10
5.5345989752
 20
3.6205834116
 30
0.0
 10
5.534479315
 20
3.6201244053
 30
0.0
 10
5.5341917811
 20
3.6192130506
 30
0.0
 10
5.5336243337
 20
3.6178879059
 30
0.0
 10
5.5329228872
 20
3.6166075332
 30
0.0
 10
5.5320926657
 20
3.6153813364
 30
0.0
 10
5.5311397477
 20
3.6142180586
 30
0.0
 10
5.530071089
 20
3.6131260303
 30
0.0
 10
5.5288944475
 20
3.612113038
 30
0.0
 10
5.5276183365
 20
3.6111862972
 30
0.0
 10
5.526251963
 20
3.6103524013
 30
0.0
 10
5.5248051644
 20
3.6096172825
 30
0.0
 10
5.5232883435
 20
3.6089861693
 30
0.0
 10
5.5217123943
 20
3.6084635501
 30
0.0
 10
5.520088637
 20
3.6080531436
 30
0.0
 10
5.5184286948
 20
3.6077578717
 30
0.0
 10
5.5167445837
 20
3.6075798341
 30
0.0
 10
5.5156139418
 20
3.60754016
 30
0.0
 10
5.515048175
 20
3.6075401365
 30
0.0
  0
LINE
  5
543
100
AcDbEntity
  8
0
100
AcDbLine
 62
7
  6
CONTINUOUS
 10
5.5150481148
 20
3.6075403787
 11
5.5237427711
 21
3.592892302
  0
LINE
  5
544
100
AcDbEntity
  8
0
100
AcDbLine
 62
7
  6
CONTINUOUS
 10
5.5345989752
 20
3.6205834116
 11
5.5345157362
 21
3.6102235738
  0
SPLINE
  5
545
100
AcDbEntity
  8
0
100
AcDbSpline
 62
7
  6
CONTINUOUS
 70
0
 71
3
 72
131
 73
127
 74
0
 42
0.0000001
 43
0.0000001
 44
0.0000000001
 40
0.0
 40
0.0
 40
0.0
 40
0.0
 40
0.0000006868
 40
0.0000026914
 40
0.000006014
 40
0.0000106546
 40
0.0000238902
 40
0.0000423985
 40
0.0000661796
 40
0.0000952338
 40
0.0001295612
 40
0.0001691621
 40
0.0002641853
 40
0.0003803009
 40
0.0005174912
 40
0.0006757346
 40
0.0008550093
 40
0.0010552937
 40
0.0015188012
 40
0.0020660641
 40
0.002696883
 40
0.0034110034
 40
0.0042081122
 40
0.0050878748
 40
0.0060498685
 40
0.007093647
 40
0.0082187471
 40
0.0107109724
 40
0.0135225499
 40
0.0166491115
 40
0.0200856669
 40
0.0238268261
 40
0.0278670604
 40
0.0322007998
 40
0.0368223273
 40
0.0417254997
 40
0.05235191
 40
0.0580632235
 40
0.0640318769
 40
0.0767163525
 40
0.0903581805
 40
0.1049116147
 40
0.12033117
 40
0.1365705576
 40
0.1535794024
 40
0.1623558431
 40
0.1713021727
 40
0.1804091858
 40
0.1896667676
 40
0.1990640212
 40
0.2085893969
 40
0.2182304787
 40
0.2279745335
 40
0.2378089202
 40
0.2477213354
 40
0.25769982
 40
0.2677332457
 40
0.2778115307
 40
0.287925674
 40
0.2980677038
 40
0.3082307377
 40
0.3184089242
 40
0.3285973168
 40
0.3387918093
 40
0.3489889275
 40
0.3693791939
 40
0.3897522008
 40
0.4100961443
 40
0.4304028302
 40
0.4506664303
 40
0.4708823168
 40
0.4910465502
 40
0.5111558358
 40
0.5312067538
 40
0.5511954771
 40
0.5711179414
 40
0.5909700675
 40
0.6107468747
 40
0.6304422919
 40
0.6500496567
 40
0.6695616007
 40
0.708263251
 40
0.7274302447
 40
0.7464571389
 40
0.7653276323
 40
0.7840217012
 40
0.8025156531
 40
0.8207824847
 40
0.8387874905
 40
0.8564873597
 40
0.8738320775
 40
0.8907552306
 40
0.9071726063
 40
0.9229813696
 40
0.9306145488
 40
0.9380396312
 40
0.945234168
 40
0.9521718258
 40
0.9588199338
 40
0.9651427772
 40
0.9711007806
 40
0.9766503856
 40
0.9817427924
 40
0.9863234298
 40
0.9884035428
 40
0.9903337145
 40
0.9921076874
 40
0.9937187751
 40
0.9951598325
 40
0.9964239795
 40
0.9975043119
 40
0.9979736535
 40
0.9983951594
 40
0.9987684174
 40
0.9990930187
 40
0.9993685561
 40
0.9995946757
 40
0.9996891248
 40
0.999771127
 40
0.9998406524
 40
0.9998976702
 40
0.9999421473
 40
0.9999740502
 40
0.9999852759
 40
0.9999933455
 40
1.0
 40
1.0
 40
1.0
 40
1.0
 10
5.5165824855
 20
3.5866172306
 30
0.0
 10
5.5165824877
 20
3.5866172645
 30
0.0
 10
5.5165823551
 20
3.5866173558
 30
0.0
 10
5.5165822203
 20
3.5866176031
 30
0.0
 10
5.5165818872
 20
3.5866179819
 30
0.0
 10
5.5165812519
 20
3.5866188071
 30
0.0
 10
5.5165801179
 20
3.5866202098
 30
0.0
 10
5.5165784096
 20
3.5866223553
 30
0.0
 10
5.5165762023
 20
3.5866251073
 30
0.0
 10
5.5165735068
 20
3.5866284687
 30
0.0
 10
5.5165703186
 20
3.586632438
 30
0.0
 10
5.5165650854
 20
3.5866389474
 30
0.0
 10
5.5165573113
 20
3.5866486021
 30
0.0
 10
5.5165465005
 20
3.5866620057
 30
0.0
 10
5.5165337167
 20
3.5866778331
 30
0.0
 10
5.5165189597
 20
3.5866960803
 30
0.0
 10
5.5165022298
 20
3.5867167435
 30
0.0
 10
5.5164759866
 20
3.5867491214
 30
0.0
 10
5.5164382522
 20
3.5867956025
 30
0.0
 10
5.5163870473
 20
3.5868585624
 30
0.0
 10
5.5163279668
 20
3.5869310865
 30
0.0
 10
5.5162610132
 20
3.587013128
 30
0.0
 10
5.5161861835
 20
3.5871046264
 30
0.0
 10
5.5161034819
 20
3.5872055169
 30
0.0
 10
5.5160128851
 20
3.5873157032
 30
0.0
 10
5.5159143734
 20
3.5874350832
 30
0.0
 10
5.5157673636
 20
3.5876125214
 30
0.0
 10
5.5155637908
 20
3.5878565863
 30
0.0
 10
5.5152953794
 20
3.5881754089
 30
0.0
 10
5.51499517
 20
3.58852848
 30
0.0
 10
5.5146629558
 20
3.5889146497
 30
0.0
 10
5.5142984679
 20
3.5893326227
 30
0.0
 10
5.5139014602
 20
3.5897810654
 30
0.0
 10
5.5134717406
 20
3.5902586482
 30
0.0
 10
5.5130091505
 20
3.5907640126
 30
0.0
 10
5.5123294355
 20
3.5914923006
 30
0.0
 10
5.5116002835
 20
3.5922480837
 30
0.0
 10
5.5108202066
 20
3.5930275491
 30
0.0
 10
5.5099568977
 20
3.5938675147
 30
0.0
 10
5.5087875515
 20
3.5949549315
 30
0.0
 10
5.5072605997
 20
3.5962794629
 30
0.0
 10
5.5055769446
 20
3.5976274453
 30
0.0
 10
5.5037287717
 20
3.5989719545
 30
0.0
 10
5.5017108355
 20
3.6002842905
 30
0.0
 10
5.4999041105
 20
3.6013129105
 30
0.0
 10
5.4983722431
 20
3.602089043
 30
0.0
 10
5.4971688745
 20
3.6026474967
 30
0.0
 10
5.495924518
 20
3.6031721285
 30
0.0
 10
5.4946409969
 20
3.6036589539
 30
0.0
 10
5.4933205939
 20
3.6041041962
 30
0.0
 10
5.4919658077
 20
3.6045035709
 30
0.0
 10
5.4905800903
 20
3.6048549144
 30
0.0
 10
5.4891670954
 20
3.6051565842
 30
0.0
 10
5.4877304987
 20
3.6054069851
 30
0.0
 10
5.486274015
 20
3.6056046525
 30
0.0
 10
5.4848015458
 20
3.605750235
 30
0.0
 10
5.4833167344
 20
3.6058449254
 30
0.0
 10
5.4818228881
 20
3.6058897178
 30
0.0
 10
5.4803230289
 20
3.6058858644
 30
0.0
 10
5.4788198411
 20
3.6058356597
 30
0.0
 10
5.4773156106
 20
3.6057416034
 30
0.0
 10
5.4758122717
 20
3.6056060189
 30
0.0
 10
5.4743114511
 20
3.6054311423
 30
0.0
 10
5.4728144382
 20
3.6052195319
 30
0.0
 10
5.4708249965
 20
3.6048919399
 30
0.0
 10
5.4683529221
 20
3.6044025842
 30
0.0
 10
5.4654133612
 20
3.6037037403
 30
0.0
 10
5.4625023586
 20
3.6029101431
 30
0.0
 10
5.4596209277
 20
3.6020338643
 30
0.0
 10
5.456769218
 20
3.6010853587
 30
0.0
 10
5.4539462963
 20
3.6000752593
 30
0.0
 10
5.4511510422
 20
3.5990123348
 30
0.0
 10
5.4483830791
 20
3.5979020506
 30
0.0
 10
5.4456412485
 20
3.5967510342
 30
0.0
 10
5.4429244934
 20
3.5955649767
 30
0.0
 10
5.4402319118
 20
3.594348738
 30
0.0
 10
5.4375632743
 20
3.5931054561
 30
0.0
 10
5.4349181273
 20
3.5918387555
 30
0.0
 10
5.4322958028
 20
3.5905527304
 30
0.0
 10
5.4296963092
 20
3.5892501413
 30
0.0
 10
5.4262704606
 20
3.5874996022
 30
0.0
 10
5.4228833091
 20
3.5857214629
 30
0.0
 10
5.4195332591
 20
3.5839248235
 30
0.0
 10
5.4170547597
 20
3.5825774753
 30
0.0
 10
5.4146038618
 20
3.5812283961
 30
0.0
 10
5.4121823408
 20
3.5798806506
 30
0.0
 10
5.4097926139
 20
3.5785371976
 30
0.0
 10
5.4074381783
 20
3.577200531
 30
0.0
 10
5.4051229521
 20
3.5758743578
 30
0.0
 10
5.4028514752
 20
3.5745635495
 30
0.0
 10
5.4006307561
 20
3.5732718178
 30
0.0
 10
5.398468597
 20
3.5720055334
 30
0.0
 10
5.3963750043
 20
3.5707724373
 30
0.0
 10
5.3946800259
 20
3.5697675198
 30
0.0
 10
5.3933686264
 20
3.5689873114
 30
0.0
 10
5.39242374
 20
3.5684239436
 30
0.0
 10
5.3915089891
 20
3.5678771743
 30
0.0
 10
5.3906278554
 20
3.5673490303
 30
0.0
 10
5.3897840931
 20
3.5668423585
 30
0.0
 10
5.3889822186
 20
3.5663600061
 30
0.0
 10
5.3882272032
 20
3.5659051078
 30
0.0
 10
5.3875246314
 20
3.5654810341
 30
0.0
 10
5.3868806771
 20
3.5650916137
 30
0.0
 10
5.3863836836
 20
3.5647906297
 30
0.0
 10
5.3860204573
 20
3.5645705457
 30
0.0
 10
5.3857758965
 20
3.564422365
 30
0.0
 10
5.3855512125
 20
3.5642861236
 30
0.0
 10
5.3853472618
 20
3.5641623243
 30
0.0
 10
5.3851648928
 20
3.5640515427
 30
0.0
 10
5.3850049778
 20
3.563954336
 30
0.0
 10
5.384886103
 20
3.5638820955
 30
0.0
 10
5.3848028033
 20
3.5638315279
 30
0.0
 10
5.3847493801
 20
3.563799105
 30
0.0
 10
5.3847020757
 20
3.5637703915
 30
0.0
 10
5.3846609431
 20
3.5637454172
 30
0.0
 10
5.3846260317
 20
3.5637242121
 30
0.0
 10
5.384600849
 20
3.5637089066
 30
0.0
 10
5.3845838472
 20
3.563698562
 30
0.0
 10
5.3845734624
 20
3.5636922358
 30
0.0
 10
5.3845646604
 20
3.5636868676
 30
0.0
 10
5.3845574501
 20
3.5636824537
 30
0.0
 10
5.3845518213
 20
3.5636790152
 30
0.0
 10
5.3845481457
 20
3.5636767297
 30
0.0
 10
5.3845459734
 20
3.5636754235
 30
0.0
 10
5.3845449157
 20
3.5636747069
 30
0.0
 10
5.3845442325
 20
3.5636744037
 30
0.0
 10
5.3845439978
 20
3.5636741732
 30
0.0
  0
SPLINE
  5
546
100
AcDbEntity
  8
0
100
AcDbSpline
 62
7
  6
CONTINUOUS
 70
0
 71
3
 72
86
 73
82
 74
0
 42
0.0000001
 43
0.0000001
 44
0.0000000001
 40
0.0
 40
0.0
 40
0.0
 40
0.0
 40
0.0149286748
 40
0.0303069129
 40
0.0460944547
 40
0.0622513177
 40
0.0787377557
 40
0.0955138653
 40
0.1039999037
 40
0.1125454592
 40
0.1297952358
 40
0.1472284438
 40
0.1560049625
 40
0.1648166909
 40
0.1736598376
 40
0.1825306522
 40
0.2003427484
 40
0.2182320223
 40
0.2361790278
 40
0.2541665061
 40
0.2721802262
 40
0.290208426
 40
0.3082412414
 40
0.3262703575
 40
0.3442890878
 40
0.3802721353
 40
0.3982286448
 40
0.416156491
 40
0.434052717
 40
0.4519143446
 40
0.4697379803
 40
0.4875207398
 40
0.5052601668
 40
0.5229535646
 40
0.5581888087
 40
0.5757234666
 40
0.5931981012
 40
0.6279501632
 40
0.6624039792
 40
0.6795039248
 40
0.6965103076
 40
0.71341433
 40
0.7302061088
 40
0.7634088178
 40
0.779793792
 40
0.7960124356
 40
0.8120453544
 40
0.8278711801
 40
0.843463232
 40
0.8587884314
 40
0.8738097421
 40
0.8884842732
 40
0.9027550223
 40
0.9165541109
 40
0.9298054555
 40
0.9424070963
 40
0.9542333261
 40
0.9651461789
 40
0.9702035672
 40
0.9749602784
 40
0.9793920495
 40
0.9834717001
 40
0.9871697986
 40
0.9904551919
 40
0.9932964341
 40
0.994542008
 40
0.995666736
 40
0.9966676775
 40
0.9975421752
 40
0.9982873619
 40
0.9989002992
 40
0.9991565651
 40
0.9993791258
 40
0.9995678358
 40
0.9997225926
 40
0.9998432964
 40
0.9999298429
 40
0.9999602712
 40
0.9999821165
 40
0.9999953644
 40
1.0
 40
1.0
 40
1.0
 40
1.0
 10
5.5150477023
 20
3.6075404523
 30
0.0
 10
5.5143876573
 20
3.607907264
 30
0.0
 10
5.5130390039
 20
3.6086364391
 30
0.0
 10
5.5109609731
 20
3.6096942963
 30
0.0
 10
5.5087996368
 20
3.6107237256
 30
0.0
 10
5.5065590616
 20
3.6117150228
 30
0.0
 10
5.5042440195
 20
3.61265897
 30
0.0
 10
5.5022652137
 20
3.6133973848
 30
0.0
 10
5.5006493519
 20
3.6139573161
 30
0.0
 10
5.4990019137
 20
3.6144986177
 30
0.0
 10
5.4969083721
 20
3.6151310441
 30
0.0
 10
5.4947844804
 20
3.6156995898
 30
0.0
 10
5.4930625746
 20
3.6161159273
 30
0.0
 10
5.491758002
 20
3.6164086725
 30
0.0
 10
5.4904442173
 20
3.6166813398
 30
0.0
 10
5.4886791513
 20
3.6170188226
 30
0.0
 10
5.4864550706
 20
3.6173906276
 30
0.0
 10
5.483765671
 20
3.6177556067
 30
0.0
 10
5.4810577771
 20
3.6180410931
 30
0.0
 10
5.4783366696
 20
3.6182504924
 30
0.0
 10
5.4756068519
 20
3.6183869949
 30
0.0
 10
5.4728721774
 20
3.6184538859
 30
0.0
 10
5.4701359372
 20
3.6184544443
 30
0.0
 10
5.4674009001
 20
3.6183924978
 30
0.0
 10
5.4637607061
 20
3.6182333395
 30
0.0
 10
5.4601296131
 20
3.617967709
 30
0.0
 10
5.4565121883
 20
3.6176075681
 30
0.0
 10
5.4538097698
 20
3.6172948759
 30
0.0
 10
5.4511170288
 20
3.6169431246
 30
0.0
 10
5.4484345561
 20
3.6165554552
 30
0.0
 10
5.4457630163
 20
3.6161339148
 30
0.0
 10
5.4431028823
 20
3.6156810957
 30
0.0
 10
5.4404543817
 20
3.6152002046
 30
0.0
 10
5.4369440201
 20
3.6145256714
 30
0.0
 10
5.4334535939
 20
3.6138032249
 30
0.0
 10
5.4299836821
 20
3.6130387003
 30
0.0
 10
5.4265436183
 20
3.6122527599
 30
0.0
 10
5.4222798506
 20
3.6112304139
 30
0.0
 10
5.418047902
 20
3.6101583362
 30
0.0
 10
5.4146934727
 20
3.6092783927
 30
0.0
 10
5.4122010776
 20
3.6086109405
 30
0.0
 10
5.409727006
 20
3.6079354454
 30
0.0
 10
5.4064668261
 20
3.6070289044
 30
0.0
 10
5.4032377982
 20
3.6061084681
 30
0.0
 10
5.4000418892
 20
3.6051779351
 30
0.0
 10
5.3976823468
 20
3.6044816227
 30
0.0
 10
5.3953523262
 20
3.6037852552
 30
0.0
 10
5.3930548019
 20
3.6030908812
 30
0.0
 10
5.3907935477
 20
3.6024002715
 30
0.0
 10
5.3885731942
 20
3.6017150946
 30
0.0
 10
5.3863990076
 20
3.6010377352
 30
0.0
 10
5.3842772351
 20
3.6003714717
 30
0.0
 10
5.3822159706
 20
3.5997188915
 30
0.0
 10
5.3802248414
 20
3.5990833073
 30
0.0
 10
5.3783151804
 20
3.5984701518
 30
0.0
 10
5.3765015665
 20
3.5978842923
 30
0.0
 10
5.3748016849
 20
3.597331175
 30
0.0
 10
5.3734650958
 20
3.5968948592
 30
0.0
 10
5.3724688109
 20
3.5965683888
 30
0.0
 10
5.3717842646
 20
3.5963433571
 30
0.0
 10
5.3711468058
 20
3.5961334509
 30
0.0
 10
5.3705602823
 20
3.5959400651
 30
0.0
 10
5.370028886
 20
3.595764663
 30
0.0
 10
5.3695570304
 20
3.5956087254
 30
0.0
 10
5.3692030453
 20
3.5954914651
 30
0.0
 10
5.368952833
 20
3.5954084936
 30
0.0
 10
5.3687909818
 20
3.5953548023
 30
0.0
 10
5.3686469483
 20
3.5953070134
 30
0.0
 10
5.3685211313
 20
3.5952652841
 30
0.0
 10
5.3684139384
 20
3.5952297458
 30
0.0
 10
5.3683364364
 20
3.595204023
 30
0.0
 10
5.3682840285
 20
3.5951866144
 30
0.0
 10
5.3682519858
 20
3.5951759672
 30
0.0
 10
5.3682248157
 20
3.5951669389
 30
0.0
 10
5.3682025365
 20
3.5951595301
 30
0.0
 10
5.3681851597
 20
3.5951537569
 30
0.0
 10
5.3681737563
 20
3.5951499468
 30
0.0
 10
5.3681670898
 20
3.5951477451
 30
0.0
 10
5.3681639524
 20
3.5951466709
 30
0.0
 10
5.3681620322
 20
3.595146087
 30
0.0
 10
5.3681611872
 20
3.5951457506
 30
0.0
 10
5.3681609578
 20
3.5951457019
 30
0.0
  0
LINE
  5
547
100
AcDbEntity
  8
0
100
AcDbLine
 62
7
  6
CONTINUOUS
 10
5.515047208
 20
3.7376457019
 11
5.5150477023
 21
3.6075404523
  0
LINE
  5
548
100
AcDbEntity
  8
0
100
AcDbLine
 62
7
  6
CONTINUOUS
 10
4.1231370461
 20
5.7461615646
 11
4.1228734883
 21
5.7463174561
  0
LINE
  5
549
100
AcDbEntity
  8
0
100
AcDbLine
 62
7
  6
CONTINUOUS
 10
4.1228734883
 20
5.7463174561
 11
4.122269638
 21
5.7467894121
  0
LINE
  5
54A
100
AcDbEntity
  8
0
100
AcDbLine
 62
7
  6
CONTINUOUS
 10
4.0797432724
 20
5.7893331932
 11
4.0787987212
 21
5.7899103913
  0
LINE
  5
54B
100
AcDbEntity
  8
0
100
AcDbLine
 62
7
  6
CONTINUOUS
 10
4.0132601602
 20
5.8554759707
 11
4.0122564981
 21
5.8560265234
  0
LINE
  5
54C
100
AcDbEntity
  8
0
100
AcDbLine
 62
7
  6
CONTINUOUS
 10
3.931706559
 20
5.936612108
 11
3.9306705935
 21
5.9371633268
  0
LINE
  5
54D
100
AcDbEntity
  8
0
100
AcDbLine
 62
7
  6
CONTINUOUS
 10
3.6332216145
 20
6.235837379
 11
3.6327142583
 21
6.2364901105
  0
LINE
  5
54E
100
AcDbEntity
  8
0
100
AcDbLine
 62
7
  6
CONTINUOUS
 10
3.6326980528
 20
6.2365129662
 11
3.6325935271
 21
6.2367050835
  0
LINE
  5
54F
100
AcDbEntity
  8
0
100
AcDbLine
 62
7
  6
CONTINUOUS
 10
3.8449190402
 20
6.0229553931
 11
3.8438813185
 21
6.0235361842
  0
LINE
  5
550
100
AcDbEntity
  8
0
100
AcDbLine
 62
7
  6
CONTINUOUS
 10
3.5908816916
 20
6.2884057044
 11
3.5903222019
 21
6.2893699672
  0
LINE
  5
551
100
AcDbEntity
  8
0
100
AcDbLine
 62
7
  6
CONTINUOUS
 10
3.7633654601
 20
6.1040915511
 11
3.7623579572
 21
6.1047274447
  0
LINE
  5
552
100
AcDbEntity
  8
0
100
AcDbLine
 62
7
  6
CONTINUOUS
 10
3.6968823796
 20
6.1702343609
 11
3.6966505915
 21
6.1703382769
  0
LINE
  5
553
100
AcDbEntity
  8
0
100
AcDbLine
 62
7
  6
CONTINUOUS
 10
3.6763422565
 20
6.1923668874
 11
3.6757651555
 21
6.1933113102
  0
LINE
  5
554
100
AcDbEntity
  8
0
100
AcDbLine
 62
7
  6
CONTINUOUS
 10
3.6423977168
 20
6.2365107038
 11
3.6418807117
 21
6.237545836
  0
LINE
  5
555
100
AcDbEntity
  8
0
100
AcDbLine
 62
7
  6
CONTINUOUS
 10
3.662286859
 20
6.2145107496
 11
3.6618930315
 21
6.2148256899
  0
LINE
  5
556
100
AcDbEntity
  8
0
100
AcDbLine
 62
7
  6
CONTINUOUS
 10
3.709566357
 20
6.1689158697
 11
3.709073076
 21
6.1700073194
  0
SPLINE
  5
557
100
AcDbEntity
  8
0
100
AcDbSpline
 62
7
  6
CONTINUOUS
 70
0
 71
3
 72
9
 73
5
 74
0
 42
0.0000001
 43
0.0000001
 44
0.0000000001
 40
0.0
 40
0.0
 40
0.0
 40
0.0
 40
0.2357270899
 40
1.0
 40
1.0
 40
1.0
 40
1.0
 10
3.6966505915
 20
6.1703382769
 30
0.0
 10
3.6966448614
 20
6.1703423699
 30
0.0
 10
3.6966206335
 20
6.1703598455
 30
0.0
 10
3.6965967059
 20
6.1703777354
 30
0.0
 10
3.6965785484
 20
6.1703915757
 30
0.0
  0
LINE
  5
558
100
AcDbEntity
  8
0
100
AcDbLine
 62
7
  6
CONTINUOUS
 10
3.7424583538
 20
6.1258247163
 11
3.7419079332
 21
6.1268281977
  0
SPLINE
  5
559
100
AcDbEntity
  8
0
100
AcDbSpline
 62
7
  6
CONTINUOUS
 70
0
 71
3
 72
19
 73
15
 74
0
 42
0.0000001
 43
0.0000001
 44
0.0000000001
 40
0.0
 40
0.0
 40
0.0
 40
0.0
 40
0.2142185336
 40
0.4022046792
 40
0.5637618465
 40
0.6988910524
 40
0.7566445446
 40
0.8079616353
 40
0.8529915684
 40
0.8919753073
 40
0.9253022564
 40
0.9536133284
 40
0.9779646032
 40
1.0
 40
1.0
 40
1.0
 40
1.0
 10
3.7878100305
 20
6.0902293874
 30
0.0
 10
3.7877598249
 20
6.0903046725
 30
0.0
 10
3.7876671245
 20
6.0904470791
 30
0.0
 10
3.7875432068
 20
6.0906505008
 30
0.0
 10
3.787443653
 20
6.090829466
 30
0.0
 10
3.7873779413
 20
6.0909641453
 30
0.0
 10
3.7873386572
 20
6.0910595646
 30
0.0
 10
3.7873169899
 20
6.0911209858
 30
0.0
 10
3.787301521
 20
6.0911760734
 30
0.0
 10
3.7872922479
 20
6.0912248466
 30
0.0
 10
3.7872891742
 20
6.0912673664
 30
0.0
 10
3.7872923916
 20
6.091303763
 30
0.0
 10
3.7873021626
 20
6.0913341238
 30
0.0
 10
3.7873136683
 20
6.091350478
 30
0.0
 10
3.7873202501
 20
6.0913570599
 30
0.0
  0
SPLINE
  5
55A
100
AcDbEntity
  8
0
100
AcDbSpline
 62
7
  6
CONTINUOUS
 70
0
 71
3
 72
45
 73
41
 74
0
 42
0.0000001
 43
0.0000001
 44
0.0000000001
 40
0.0
 40
0.0
 40
0.0
 40
0.0
 40
0.0312412676
 40
0.0468669738
 40
0.0624922413
 40
0.0781170374
 40
0.0937412781
 40
0.1093648927
 40
0.1249878688
 40
0.1406102684
 40
0.1562322057
 40
0.1718538943
 40
0.1874755977
 40
0.2030975717
 40
0.2187200079
 40
0.2343430383
 40
0.2499667176
 40
0.2655909915
 40
0.2812158384
 40
0.2968411555
 40
0.3124668556
 40
0.3437083195
 40
0.3749538204
 40
0.4062020042
 40
0.4374519556
 40
0.468703086
 40
0.4999549774
 40
0.5312074011
 40
0.5624601676
 40
0.5937131536
 40
0.6249662823
 40
0.6562195049
 40
0.6874727896
 40
0.7187261129
 40
0.7499794513
 40
0.78123278
 40
0.8124861049
 40
0.87499049
 40
0.9374951338
 40
1.0
 40
1.0
 40
1.0
 40
1.0
 10
4.3577984067
 20
6.5507568991
 30
0.0
 10
4.3577297555
 20
6.5516863216
 30
0.0
 10
4.3576942259
 20
6.553087468
 30
0.0
 10
4.3578090194
 20
6.5549490322
 30
0.0
 10
4.3579836872
 20
6.556337512
 30
0.0
 10
4.3582544477
 20
6.5577105895
 30
0.0
 10
4.3586286073
 20
6.5590593698
 30
0.0
 10
4.3591126289
 20
6.5603729391
 30
0.0
 10
4.3597113416
 20
6.5616385812
 30
0.0
 10
4.3604270351
 20
6.5628421622
 30
0.0
 10
4.3612585857
 20
6.5639689946
 30
0.0
 10
4.3622009263
 20
6.5650050638
 30
0.0
 10
4.3632450835
 20
6.5659384296
 30
0.0
 10
4.3643788924
 20
6.5667604258
 30
0.0
 10
4.3655882289
 20
6.5674663221
 30
0.0
 10
4.3668584064
 20
6.5680553124
 30
0.0
 10
4.3681753855
 20
6.5685299294
 30
0.0
 10
4.3695265889
 20
6.5688951747
 30
0.0
 10
4.3709012746
 20
6.569157609
 30
0.0
 10
4.372290663
 20
6.5693245807
 30
0.0
 10
4.3741528999
 20
6.5694299468
 30
0.0
 10
4.3764868726
 20
6.5693605061
 30
0.0
 10
4.3792643406
 20
6.5690091399
 30
0.0
 10
4.3820037821
 20
6.5684344025
 30
0.0
 10
4.3846965447
 20
6.5676724062
 30
0.0
 10
4.3873390399
 20
6.5667521454
 30
0.0
 10
4.3899303177
 20
6.5656969431
 30
0.0
 10
4.3924710283
 20
6.5645256657
 30
0.0
 10
4.3949627013
 20
6.5632537163
 30
0.0
 10
4.3974073268
 20
6.5618937626
 30
0.0
 10
4.3998070972
 20
6.5604563045
 30
0.0
 10
4.402164248
 20
6.5589501025
 30
0.0
 10
4.404480957
 20
6.5573825048
 30
0.0
 10
4.4067592821
 20
6.5557596981
 30
0.0
 10
4.4090011149
 20
6.5540869025
 30
0.0
 10
4.4112081769
 20
6.5523685254
 30
0.0
 10
4.4141064483
 20
6.5500215613
 30
0.0
 10
4.4176495621
 20
6.5469909145
 30
0.0
 10
4.4217807022
 20
6.5432183108
 30
0.0
 10
4.4244567978
 20
6.5406202273
 30
0.0
 10
4.4257750439
 20
6.539301566
 30
0.0
  0
SPLINE
  5
55B
100
AcDbEntity
  8
0
100
AcDbSpline
 62
7
  6
CONTINUOUS
 70
0
 71
3
 72
63
 73
59
 74
0
 42
0.0000001
 43
0.0000001
 44
0.0000000001
 40
0.0
 40
0.0
 40
0.0
 40
0.0
 40
0.0156237544
 40
0.031248279
 40
0.0468733635
 40
0.062498856
 40
0.0781246245
 40
0.0937505824
 40
0.1093766717
 40
0.1250028479
 40
0.1406290801
 40
0.1562553518
 40
0.1875057377
 40
0.2187566996
 40
0.2500080501
 40
0.2812596293
 40
0.3125113388
 40
0.3437631352
 40
0.375014979
 40
0.4062668387
 40
0.4375186898
 40
0.4687705093
 40
0.5000222607
 40
0.5312738876
 40
0.562525323
 40
0.5937764609
 40
0.6250270651
 40
0.6406533592
 40
0.6562796325
 40
0.6719058622
 40
0.6875320266
 40
0.7031580941
 40
0.7187840165
 40
0.7344097194
 40
0.7500351017
 40
0.7656600605
 40
0.7812843818
 40
0.7969078238
 40
0.8125299943
 40
0.8281504093
 40
0.8437684554
 40
0.8515808997
 40
0.8593931773
 40
0.8672052733
 40
0.8750172143
 40
0.8828290182
 40
0.8906407312
 40
0.8984524075
 40
0.9062641051
 40
0.9140758867
 40
0.9218877916
 40
0.9296998553
 40
0.9375120948
 40
0.9453244965
 40
0.9531370647
 40
0.9687561241
 40
0.9843772915
 40
1.0
 40
1.0
 40
1.0
 40
1.0
 10
4.3577984067
 20
6.5507568991
 30
0.0
 10
4.3578553755
 20
6.5499856362
 30
0.0
 10
4.3580313945
 20
6.5484471605
 30
0.0
 10
4.3584552938
 20
6.5461644875
 30
0.0
 10
4.3590170987
 20
6.5439119246
 30
0.0
 10
4.3596984452
 20
6.5416928615
 30
0.0
 10
4.3604840276
 20
6.5395086828
 30
0.0
 10
4.3613610553
 20
6.5373597278
 30
0.0
 10
4.3623187905
 20
6.5352456119
 30
0.0
 10
4.3633481678
 20
6.5331655267
 30
0.0
 10
4.3644414895
 20
6.5311183862
 30
0.0
 10
4.365975702
 20
6.528431354
 30
0.0
 10
4.3680227579
 20
6.5251483806
 30
0.0
 10
4.3706491116
 20
6.5213209178
 30
0.0
 10
4.3734186484
 20
6.5175959537
 30
0.0
 10
4.3763108745
 20
6.5139656683
 30
0.0
 10
4.3793105113
 20
6.510423758
 30
0.0
 10
4.3824063543
 20
6.5069657224
 30
0.0
 10
4.3855905682
 20
6.5035889414
 30
0.0
 10
4.3888581912
 20
6.5002928294
 30
0.0
 10
4.3922067853
 20
6.497078999
 30
0.0
 10
4.395636186
 20
6.4939514917
 30
0.0
 10
4.3991483212
 20
6.490917092
 30
0.0
 10
4.4027470531
 20
6.4879857681
 30
0.0
 10
4.4064380735
 20
6.4851712642
 30
0.0
 10
4.4102286542
 20
6.4824921077
 30
0.0
 10
4.4134780708
 20
6.4803924762
 30
0.0
 10
4.4161364896
 20
6.47880925
 30
0.0
 10
4.4181612752
 20
6.4776751354
 30
0.0
 10
4.4202181716
 20
6.4766002624
 30
0.0
 10
4.4223083691
 20
6.4755915173
 30
0.0
 10
4.4244328711
 20
6.4746569789
 30
0.0
 10
4.4265923839
 20
6.4738061796
 30
0.0
 10
4.4287871084
 20
6.4730504299
 30
0.0
 10
4.431016439
 20
6.472403224
 30
0.0
 10
4.4332784864
 20
6.4718807142
 30
0.0
 10
4.435569379
 20
6.4715023078
 30
0.0
 10
4.4378821231
 20
6.471291205
 30
0.0
 10
4.440205096
 20
6.4712749077
 30
0.0
 10
4.4425192265
 20
6.4714849338
 30
0.0
 10
4.4444173978
 20
6.4718776313
 30
0.0
 10
4.4458947644
 20
6.4723383539
 30
0.0
 10
4.446976356
 20
6.4727607375
 30
0.0
 10
4.4480236317
 20
6.4732623383
 30
0.0
 10
4.4490285414
 20
6.4738443792
 30
0.0
 10
4.4499827024
 20
6.4745064649
 30
0.0
 10
4.4508779286
 20
6.4752463754
 30
0.0
 10
4.451706771
 20
6.4760599865
 30
0.0
 10
4.4524630386
 20
6.476941447
 30
0.0
 10
4.453142218
 20
6.4778835335
 30
0.0
 10
4.4537416692
 20
6.4788781736
 30
0.0
 10
4.4542606229
 20
6.479916992
 30
0.0
 10
4.4546999707
 20
6.48099179
 30
0.0
 10
4.4550619493
 20
6.4820949855
 30
0.0
 10
4.4554456167
 20
6.4835941633
 30
0.0
 10
4.4557496175
 20
6.4855080815
 30
0.0
 10
4.4558669571
 20
6.4878282862
 30
0.0
 10
4.455802826
 20
6.4893757152
 30
0.0
 10
4.4557401995
 20
6.4901464874
 30
0.0
  0
LINE
  5
55C
100
AcDbEntity
  8
0
100
AcDbLine
 62
7
  6
CONTINUOUS
 10
3.8235954824
 20
6.0442383686
 11
3.8230440705
 21
6.0452745965
  0
SPLINE
  5
55D
100
AcDbEntity
  8
0
100
AcDbSpline
 62
7
  6
CONTINUOUS
 70
0
 71
3
 72
19
 73
15
 74
0
 42
0.0000001
 43
0.0000001
 44
0.0000000001
 40
0.0
 40
0.0
 40
0.0
 40
0.0
 40
0.2139831387
 40
0.4017211479
 40
0.5630292061
 40
0.6979308724
 40
0.7555914815
 40
0.8068393167
 40
0.8518348754
 40
0.8908359336
 40
0.9242547336
 40
0.9527648814
 40
0.9774583603
 40
1.0
 40
1.0
 40
1.0
 40
1.0
 10
3.8717977898
 20
6.0058134504
 30
0.0
 10
3.8717456181
 20
6.0058892427
 30
0.0
 10
3.8716492969
 20
6.0060326631
 30
0.0
 10
3.8715205584
 20
6.0062377629
 30
0.0
 10
3.871417172
 20
6.0064184318
 30
0.0
 10
3.8713489721
 20
6.0065546177
 30
0.0
 10
3.8713082456
 20
6.0066512632
 30
0.0
 10
3.8712858049
 20
6.0067135623
 30
0.0
 10
3.8712698139
 20
6.0067695341
 30
0.0
 10
3.8712602698
 20
6.0068192003
 30
0.0
 10
3.8712571829
 20
6.0068626259
 30
0.0
 10
3.8712606537
 20
6.0068999413
 30
0.0
 10
3.871270966
 20
6.0069312098
 30
0.0
 10
3.8712829677
 20
6.0069480916
 30
0.0
 10
3.8712898215
 20
6.0069549456
 30
0.0
  0
LINE
  5
55E
100
AcDbEntity
  8
0
100
AcDbLine
 62
7
  6
CONTINUOUS
 10
4.0350010817
 20
5.826409539
 11
4.0341871814
 21
5.8270172076
  0
LINE
  5
55F
100
AcDbEntity
  8
0
100
AcDbLine
 62
7
  6
CONTINUOUS
 10
3.9099683504
 20
5.9574490911
 11
3.9093873555
 21
5.9584870779
  0
SPLINE
  5
560
100
AcDbEntity
  8
0
100
AcDbSpline
 62
7
  6
CONTINUOUS
 70
0
 71
3
 72
19
 73
15
 74
0
 42
0.0000001
 43
0.0000001
 44
0.0000000001
 40
0.0
 40
0.0
 40
0.0
 40
0.0
 40
0.2154807048
 40
0.4043305481
 40
0.5663436123
 40
0.7015191179
 40
0.7591450565
 40
0.8102378435
 40
0.8549528901
 40
0.8935429092
 40
0.9264181252
 40
0.9542613384
 40
0.9782027901
 40
1.0
 40
1.0
 40
1.0
 40
1.0
 10
3.9558064673
 20
5.9214215987
 30
0.0
 10
3.9557516106
 20
5.921496887
 30
0.0
 10
3.9556502344
 20
5.9216393079
 30
0.0
 10
3.9555142553
 20
5.9218429701
 30
0.0
 10
3.9554045582
 20
5.9220222467
 30
0.0
 10
3.9553316137
 20
5.9221573383
 30
0.0
 10
3.9552875535
 20
5.9222531682
 30
0.0
 10
3.9552630143
 20
5.9223148331
 30
0.0
 10
3.9552451608
 20
5.922370181
 30
0.0
 10
3.955233986
 20
5.9224192355
 30
0.0
 10
3.9552294939
 20
5.9224620687
 30
0.0
 10
3.9552317802
 20
5.922498832
 30
0.0
 10
3.9552411611
 20
5.922529623
 30
0.0
 10
3.9552527407
 20
5.9225461791
 30
0.0
 10
3.9552594037
 20
5.9225528423
 30
0.0
  0
LINE
  5
561
100
AcDbEntity
  8
0
100
AcDbLine
 62
7
  6
CONTINUOUS
 10
3.9714278404
 20
5.88965763
 11
3.9705493847
 21
5.8902324929
  0
LINE
  5
562
100
AcDbEntity
  8
0
100
AcDbLine
 62
7
  6
CONTINUOUS
 10
3.8845851878
 20
5.9760561389
 11
3.8836808718
 21
5.9766399972
  0
LINE
  5
563
100
AcDbEntity
  8
0
100
AcDbLine
 62
7
  6
CONTINUOUS
 10
4.034111235
 20
5.8428054347
 11
4.0335066075
 21
5.8439026126
  0
LINE
  5
564
100
AcDbEntity
  8
0
100
AcDbLine
 62
7
  6
CONTINUOUS
 10
3.7977425467
 20
6.0624546591
 11
3.7968595215
 21
6.0630881168
  0
LINE
  5
565
100
AcDbEntity
  8
0
100
AcDbLine
 62
7
  6
CONTINUOUS
 10
3.9911593931
 20
5.8759260116
 11
3.9905235137
 21
5.8769334975
  0
LINE
  5
566
100
AcDbEntity
  8
0
100
AcDbLine
 62
7
  6
CONTINUOUS
 10
4.1012576524
 20
5.7754610691
 11
4.1006990123
 21
5.7763641367
  0
LINE
  5
567
100
AcDbEntity
  8
0
100
AcDbLine
 62
7
  6
CONTINUOUS
 10
4.0568235381
 20
5.810146586
 11
4.0566663232
 21
5.8104504173
  0
LINE
  5
568
100
AcDbEntity
  8
0
100
AcDbLine
 62
7
  6
CONTINUOUS
 10
3.9309387383
 20
5.9251825065
 11
3.9300748793
 21
5.9258700469
  0
LINE
  5
569
100
AcDbEntity
  8
0
100
AcDbLine
 62
7
  6
CONTINUOUS
 10
3.6105141314
 20
6.2661186761
 11
3.6100057834
 21
6.2665855882
  0
LINE
  5
56A
100
AcDbEntity
  8
0
100
AcDbLine
 62
7
  6
CONTINUOUS
 10
3.8123016997
 20
6.0436432665
 11
3.8116144692
 21
6.0445067756
  0
LINE
  5
56B
100
AcDbEntity
  8
0
100
AcDbLine
 62
7
  6
CONTINUOUS
 10
4.1530175507
 20
5.7235738209
 11
4.1525506386
 21
5.7240821689
  0
LINE
  5
56C
100
AcDbEntity
  8
0
100
AcDbLine
 62
7
  6
CONTINUOUS
 10
4.1855130084
 20
5.6910804704
 11
4.1848473169
 21
5.6917355968
  0
LINE
  5
56D
100
AcDbEntity
  8
0
100
AcDbLine
 62
7
  6
CONTINUOUS
 10
4.1848473169
 20
5.6917355968
 11
4.1846696125
 21
5.6919630513
  0
LINE
  5
56E
100
AcDbEntity
  8
0
100
AcDbLine
 62
7
  6
CONTINUOUS
 10
3.7134494662
 20
6.1477548655
 11
3.7128415014
 21
6.1485691194
  0
LINE
  5
56F
100
AcDbEntity
  8
0
100
AcDbLine
 62
7
  6
CONTINUOUS
 10
3.776664439
 20
6.0841174426
 11
3.7760895925
 21
6.084995878
  0
SPLINE
  5
570
100
AcDbEntity
  8
0
100
AcDbSpline
 62
7
  6
CONTINUOUS
 70
0
 71
3
 72
23
 73
19
 74
0
 42
0.0000001
 43
0.0000001
 44
0.0000000001
 40
0.0
 40
0.0
 40
0.0
 40
0.0
 40
0.0585345104
 40
0.1183375796
 40
0.1794226696
 40
0.2417445101
 40
0.3051879451
 40
0.3695624851
 40
0.4346060947
 40
0.5
 40
0.5653939053
 40
0.6304375149
 40
0.6948120549
 40
0.7582554899
 40
0.8205773304
 40
0.8816624204
 40
0.9414654896
 40
1.0
 40
1.0
 40
1.0
 40
1.0
 10
4.385086673
 20
6.2342387334
 30
0.0
 10
4.3849801164
 20
6.2330405452
 30
0.0
 10
4.3846656376
 20
6.2306258304
 30
0.0
 10
4.3838868959
 20
6.2270175227
 30
0.0
 10
4.3827818005
 20
6.2234133919
 30
0.0
 10
4.3813410814
 20
6.2198487889
 30
0.0
 10
4.3795622638
 20
6.2163639501
 30
0.0
 10
4.3774513737
 20
6.2130032072
 30
0.0
 10
4.3750240334
 20
6.2098127201
 30
0.0
 10
4.3723056905
 20
6.2068377081
 30
0.0
 10
4.3693306784
 20
6.2041193651
 30
0.0
 10
4.3661401914
 20
6.2016920248
 30
0.0
 10
4.3627794485
 20
6.1995811347
 30
0.0
 10
4.3592946096
 20
6.1978023172
 30
0.0
 10
4.3557300066
 20
6.196361598
 30
0.0
 10
4.3521258759
 20
6.1952565026
 30
0.0
 10
4.3485175682
 20
6.1944777609
 30
0.0
 10
4.3461028533
 20
6.1941632821
 30
0.0
 10
4.3449046652
 20
6.1940567256
 30
0.0
  0
SPLINE
  5
571
100
AcDbEntity
  8
0
100
AcDbSpline
 62
7
  6
CONTINUOUS
 70
0
 71
3
 72
23
 73
19
 74
0
 42
0.0000001
 43
0.0000001
 44
0.0000000001
 40
0.0
 40
0.0
 40
0.0
 40
0.0
 40
0.0595446438
 40
0.1200264871
 40
0.1814608638
 40
0.24381904
 40
0.3070189861
 40
0.3709205
 40
0.4353276433
 40
0.5
 40
0.5646723567
 40
0.6290795
 40
0.6929810139
 40
0.75618096
 40
0.8185391362
 40
0.8799735129
 40
0.9404553562
 40
1.0
 40
1.0
 40
1.0
 40
1.0
 10
4.3831737399
 20
6.2361516665
 30
0.0
 10
4.3831086532
 20
6.2349158539
 30
0.0
 10
4.3828748811
 20
6.2324289004
 30
0.0
 10
4.3822040089
 20
6.2287131553
 30
0.0
 10
4.381194108
 20
6.2250135729
 30
0.0
 10
4.3798340813
 20
6.2213672186
 30
0.0
 10
4.378119713
 20
6.2178160328
 30
0.0
 10
4.3760554958
 20
6.2144059461
 30
0.0
 10
4.3736558779
 20
6.211184469
 30
0.0
 10
4.3709456193
 20
6.2081977792
 30
0.0
 10
4.3679589296
 20
6.2054875206
 30
0.0
 10
4.3647374524
 20
6.2030879028
 30
0.0
 10
4.3613273658
 20
6.2010236856
 30
0.0
 10
4.35777618
 20
6.1993093172
 30
0.0
 10
4.3541298257
 20
6.1979492906
 30
0.0
 10
4.3504302433
 20
6.1969393896
 30
0.0
 10
4.3467144981
 20
6.1962685174
 30
0.0
 10
4.3442275446
 20
6.1960347454
 30
0.0
 10
4.3429917321
 20
6.1959696587
 30
0.0
  0
LINE
  5
572
100
AcDbEntity
  8
0
100
AcDbLine
 62
7
  6
CONTINUOUS
 10
3.8630721018
 20
5.9972487342
 11
3.8624881013
 21
5.9981532254
  0
SPLINE
  5
573
100
AcDbEntity
  8
0
100
AcDbSpline
 62
7
  6
CONTINUOUS
 70
0
 71
3
 72
23
 73
19
 74
0
 42
0.0000001
 43
0.0000001
 44
0.0000000001
 40
0.0
 40
0.0
 40
0.0
 40
0.0
 40
0.0604270926
 40
0.1215066165
 40
0.1832524212
 40
0.2456473699
 40
0.3086362888
 40
0.3721219887
 40
0.4359666857
 40
0.5
 40
0.5640333143
 40
0.6278780113
 40
0.6913637112
 40
0.7543526301
 40
0.8167475788
 40
0.8784933835
 40
0.9395729074
 40
1.0
 40
1.0
 40
1.0
 40
1.0
 10
4.3800059941
 20
6.2393194122
 30
0.0
 10
4.3799764977
 20
6.2380511702
 30
0.0
 10
4.3798120119
 20
6.2355020808
 30
0.0
 10
4.3792343233
 20
6.2316937435
 30
0.0
 10
4.3783067166
 20
6.2279118671
 30
0.0
 10
4.3770164915
 20
6.2241949716
 30
0.0
 10
4.3753578916
 20
6.2205864618
 30
0.0
 10
4.3733340476
 20
6.2171336631
 30
0.0
 10
4.3709583674
 20
6.2138852868
 30
0.0
 10
4.3682550137
 20
6.2108883849
 30
0.0
 10
4.3652581117
 20
6.2081850311
 30
0.0
 10
4.3620097354
 20
6.205809351
 30
0.0
 10
4.3585569367
 20
6.2037855069
 30
0.0
 10
4.3549484269
 20
6.202126907
 30
0.0
 10
4.3512315315
 20
6.2008366819
 30
0.0
 10
4.3474496551
 20
6.1999090752
 30
0.0
 10
4.3436413178
 20
6.1993313867
 30
0.0
 10
4.3410922283
 20
6.1991669008
 30
0.0
 10
4.3398239863
 20
6.1991374044
 30
0.0
  0
SPLINE
  5
574
100
AcDbEntity
  8
0
100
AcDbSpline
 62
7
  6
CONTINUOUS
 70
0
 71
3
 72
23
 73
19
 74
0
 42
0.0000001
 43
0.0000001
 44
0.0000000001
 40
0.0
 40
0.0
 40
0.0
 40
0.0
 40
0.0611655247
 40
0.1227484819
 40
0.1847593716
 40
0.2471887499
 40
0.3100023783
 40
0.3731383329
 40
0.4365077482
 40
0.5
 40
0.5634922518
 40
0.6268616671
 40
0.6899976217
 40
0.7528112501
 40
0.8152406284
 40
0.8772515181
 40
0.9388344753
 40
1.0
 40
1.0
 40
1.0
 40
1.0
 10
4.3756139429
 20
6.2437114634
 30
0.0
 10
4.3756139138
 20
6.242416267
 30
0.0
 10
4.3755067956
 20
6.239815618
 30
0.0
 10
4.3750066511
 20
6.2359303711
 30
0.0
 10
4.3741475717
 20
6.232080124
 30
0.0
 10
4.3729155082
 20
6.2283045847
 30
0.0
 10
4.3713033958
 20
6.2246483665
 30
0.0
 10
4.3693132011
 20
6.2211599619
 30
0.0
 10
4.3669574432
 20
6.2178891065
 30
0.0
 10
4.3642597826
 20
6.2148836159
 30
0.0
 10
4.361254292
 20
6.2121859553
 30
0.0
 10
4.3579834367
 20
6.2098301975
 30
0.0
 10
4.354495032
 20
6.2078400028
 30
0.0
 10
4.3508388138
 20
6.2062278904
 30
0.0
 10
4.3470632745
 20
6.2049958268
 30
0.0
 10
4.3432130274
 20
6.2041367474
 30
0.0
 10
4.3393277806
 20
6.203636603
 30
0.0
 10
4.3367271316
 20
6.2035294847
 30
0.0
 10
4.3354319351
 20
6.2035294556
 30
0.0
  0
SPLINE
  5
575
100
AcDbEntity
  8
0
100
AcDbSpline
 62
7
  6
CONTINUOUS
 70
0
 71
3
 72
23
 73
19
 74
0
 42
0.0000001
 43
0.0000001
 44
0.0000000001
 40
0.0
 40
0.0
 40
0.0
 40
0.0
 40
0.0617488294
 40
0.1237315419
 40
0.1859547008
 40
0.2484136612
 40
0.3110897083
 40
0.373948268
 40
0.4369392564
 40
0.5
 40
0.5630607436
 40
0.626051732
 40
0.6889102917
 40
0.7515863388
 40
0.8140452992
 40
0.8762684581
 40
0.9382511706
 40
1.0
 40
1.0
 40
1.0
 40
1.0
 10
4.370039884
 20
6.2492855223
 30
0.0
 10
4.3700629946
 20
6.2479690909
 30
0.0
 10
4.3700009194
 20
6.2453278753
 30
0.0
 10
4.3695618979
 20
6.2413820896
 30
0.0
 10
4.3687568636
 20
6.237478019
 30
0.0
 10
4.3675706964
 20
6.2336562922
 30
0.0
 10
4.3659952837
 20
6.2299624661
 30
0.0
 10
4.3640316529
 20
6.2264459551
 30
0.0
 10
4.361691605
 20
6.2231573186
 30
0.0
 10
4.3589983997
 20
6.2201449988
 30
0.0
 10
4.35598608
 20
6.2174517935
 30
0.0
 10
4.3526974434
 20
6.2151117456
 30
0.0
 10
4.3491809324
 20
6.2131481149
 30
0.0
 10
4.3454871063
 20
6.2115727021
 30
0.0
 10
4.3416653795
 20
6.2103865349
 30
0.0
 10
4.3377613089
 20
6.2095815006
 30
0.0
 10
4.3338155233
 20
6.2091424791
 30
0.0
 10
4.3311743076
 20
6.209080404
 30
0.0
 10
4.3298578763
 20
6.2091035145
 30
0.0
  0
LINE
  5
576
100
AcDbEntity
  8
0
100
AcDbLine
 62
7
  6
CONTINUOUS
 10
3.9495200183
 20
5.9104276291
 11
3.9488866215
 21
5.9113105843
  0
SPLINE
  5
577
100
AcDbEntity
  8
0
100
AcDbSpline
 62
7
  6
CONTINUOUS
 70
0
 71
3
 72
23
 73
19
 74
0
 42
0.0000001
 43
0.0000001
 44
0.0000000001
 40
0.0
 40
0.0
 40
0.0
 40
0.0
 40
0.062169763
 40
0.1244420774
 40
0.1868199859
 40
0.2493016139
 40
0.3118788843
 40
0.3745366643
 40
0.4372529217
 40
0.5
 40
0.5627470783
 40
0.6254633357
 40
0.6881211157
 40
0.7506983861
 40
0.8131800141
 40
0.8755579226
 40
0.937830237
 40
1.0
 40
1.0
 40
1.0
 40
1.0
 10
4.3633374988
 20
6.2559879075
 30
0.0
 10
4.3633772576
 20
6.2546561604
 30
0.0
 10
4.3633475842
 20
6.2519857129
 30
0.0
 10
4.3629526565
 20
6.2479962976
 30
0.0
 10
4.3621866262
 20
6.2440534354
 30
0.0
 10
4.3610335975
 20
6.24019841
 30
0.0
 10
4.3594846928
 20
6.236477453
 30
0.0
 10
4.35754025
 20
6.2329406441
 30
0.0
 10
4.3552115408
 20
6.2296391453
 30
0.0
 10
4.3525215325
 20
6.2266218661
 30
0.0
 10
4.3495042532
 20
6.2239318577
 30
0.0
 10
4.3462027545
 20
6.2216031486
 30
0.0
 10
4.3426659456
 20
6.2196587058
 30
0.0
 10
4.3389449886
 20
6.2181098011
 30
0.0
 10
4.3350899632
 20
6.2169567723
 30
0.0
 10
4.3311471009
 20
6.2161907421
 30
0.0
 10
4.3271576856
 20
6.2157958143
 30
0.0
 10
4.3244872382
 20
6.2157661409
 30
0.0
 10
4.323155491
 20
6.2158058998
 30
0.0
  0
SPLINE
  5
578
100
AcDbEntity
  8
0
100
AcDbSpline
 62
7
  6
CONTINUOUS
 70
0
 71
3
 72
23
 73
19
 74
0
 42
0.0000001
 43
0.0000001
 44
0.0000000001
 40
0.0
 40
0.0
 40
0.0
 40
0.0
 40
0.0624238919
 40
0.1248714981
 40
0.1873434677
 40
0.2498393201
 40
0.3123571685
 40
0.3748934925
 40
0.4374432186
 40
0.5
 40
0.5625567814
 40
0.6251065075
 40
0.6876428315
 40
0.7501606799
 40
0.8126565323
 40
0.8751285019
 40
0.9375761081
 40
1.0
 40
1.0
 40
1.0
 40
1.0
 10
4.3555713348
 20
6.2637540716
 30
0.0
 10
4.3556211311
 20
6.2624130748
 30
0.0
 10
4.3556109905
 20
6.2597249841
 30
0.0
 10
4.3552426927
 20
6.2557092354
 30
0.0
 10
4.3545002252
 20
6.2517429596
 30
0.0
 10
4.3533672222
 20
6.2478678323
 30
0.0
 10
4.3518343409
 20
6.2441304896
 30
0.0
 10
4.3499014974
 20
6.240581413
 30
0.0
 10
4.347579639
 20
6.2372721319
 30
0.0
 10
4.3448915547
 20
6.2342518438
 30
0.0
 10
4.3418712666
 20
6.2315637596
 30
0.0
 10
4.3385619856
 20
6.2292419012
 30
0.0
 10
4.3350129089
 20
6.2273090576
 30
0.0
 10
4.3312755663
 20
6.2257761764
 30
0.0
 10
4.327400439
 20
6.2246431734
 30
0.0
 10
4.3234341631
 20
6.2239007058
 30
0.0
 10
4.3194184144
 20
6.2235324081
 30
0.0
 10
4.3167303237
 20
6.2235222674
 30
0.0
 10
4.315389327
 20
6.2235720638
 30
0.0
  0
SPLINE
  5
579
100
AcDbEntity
  8
0
100
AcDbSpline
 62
7
  6
CONTINUOUS
 70
0
 71
3
 72
33
 73
29
 74
0
 42
0.0000001
 43
0.0000001
 44
0.0000000001
 40
0.0
 40
0.0
 40
0.0
 40
0.0
 40
0.0624938859
 40
0.1249852065
 40
0.1874737662
 40
0.2187269437
 40
0.2499799703
 40
0.2812328525
 40
0.3124856032
 40
0.3437382222
 40
0.3749907243
 40
0.4062431306
 40
0.4374954655
 40
0.468747746
 40
0.5
 40
0.531252254
 40
0.5625045345
 40
0.5937568694
 40
0.6250092757
 40
0.6562617778
 40
0.6875143968
 40
0.7187671475
 40
0.7500200297
 40
0.7812730563
 40
0.8125262338
 40
0.8750147935
 40
0.9375061141
 40
1.0
 40
1.0
 40
1.0
 40
1.0
 10
4.3468161844
 20
6.2725092219
 30
0.0
 10
4.3468693347
 20
6.2711651319
 30
0.0
 10
4.3468657084
 20
6.2684711046
 30
0.0
 10
4.34650637
 20
6.2644467231
 30
0.0
 10
4.3458940045
 20
6.2611341994
 30
0.0
 10
4.3452086109
 20
6.2585315405
 30
0.0
 10
4.3445952341
 20
6.2566079211
 30
0.0
 10
4.3438817031
 20
6.2547191704
 30
0.0
 10
4.3430676779
 20
6.2528714539
 30
0.0
 10
4.3421534675
 20
6.2510711686
 30
0.0
 10
4.3411400705
 20
6.2493247582
 30
0.0
 10
4.3400292112
 20
6.247638636
 30
0.0
 10
4.3388233566
 20
6.2460190664
 30
0.0
 10
4.337525713
 20
6.2444720492
 30
0.0
 10
4.3361401903
 20
6.2430032082
 30
0.0
 10
4.3346713494
 20
6.2416176855
 30
0.0
 10
4.3331243321
 20
6.2403200419
 30
0.0
 10
4.3315047626
 20
6.2391141874
 30
0.0
 10
4.3298186403
 20
6.238003328
 30
0.0
 10
4.3280722299
 20
6.2369899311
 30
0.0
 10
4.3262719447
 20
6.2360757206
 30
0.0
 10
4.3244242282
 20
6.2352616954
 30
0.0
 10
4.3225354775
 20
6.2345481645
 30
0.0
 10
4.320611858
 20
6.2339347876
 30
0.0
 10
4.3180091991
 20
6.2332493941
 30
0.0
 10
4.3146966754
 20
6.2326370286
 30
0.0
 10
4.310672294
 20
6.2322776902
 30
0.0
 10
4.3079782666
 20
6.2322740638
 30
0.0
 10
4.3066341766
 20
6.2323272142
 30
0.0
  0
SPLINE
  5
57A
100
AcDbEntity
  8
0
100
AcDbSpline
 62
7
  6
CONTINUOUS
 70
0
 71
3
 72
23
 73
19
 74
0
 42
0.0000001
 43
0.0000001
 44
0.0000000001
 40
0.0
 40
0.0
 40
0.0
 40
0.0
 40
0.0504962342
 40
0.105122428
 40
0.163707945
 40
0.2259470815
 40
0.2913819401
 40
0.359396515
 40
0.4292282152
 40
0.5
 40
0.5707717848
 40
0.640603485
 40
0.7086180599
 40
0.7740529185
 40
0.836292055
 40
0.894877572
 40
0.9495037658
 40
1.0
 40
1.0
 40
1.0
 40
1.0
 10
4.2969743567
 20
6.241987034
 30
0.0
 10
4.2975764656
 20
6.2427320578
 30
0.0
 10
4.2988437905
 20
6.2442718705
 30
0.0
 10
4.3008544345
 20
6.2466387929
 30
0.0
 10
4.3030454275
 20
6.2491443534
 30
0.0
 10
4.3054067172
 20
6.2517729421
 30
0.0
 10
4.3079221803
 20
6.2545030741
 30
0.0
 10
4.3105692586
 20
6.2573073989
 30
0.0
 10
4.3133192677
 20
6.2601534107
 30
0.0
 10
4.3161384843
 20
6.2630049142
 30
0.0
 10
4.3189899878
 20
6.2658241309
 30
0.0
 10
4.3218359997
 20
6.26857414
 30
0.0
 10
4.3246403245
 20
6.2712212183
 30
0.0
 10
4.3273704565
 20
6.2737366813
 30
0.0
 10
4.3299990452
 20
6.2760979711
 30
0.0
 10
4.3325046057
 20
6.278288964
 30
0.0
 10
4.334871528
 20
6.280299608
 30
0.0
 10
4.3364113408
 20
6.2815669329
 30
0.0
 10
4.3371563645
 20
6.2821690418
 30
0.0
  0
SPLINE
  5
57B
100
AcDbEntity
  8
0
100
AcDbSpline
 62
7
  6
CONTINUOUS
 70
0
 71
3
 72
23
 73
19
 74
0
 42
0.0000001
 43
0.0000001
 44
0.0000000001
 40
0.0
 40
0.0
 40
0.0
 40
0.0
 40
0.0624238919
 40
0.1248714981
 40
0.1873434677
 40
0.2498393201
 40
0.3123571685
 40
0.3748934925
 40
0.4374432186
 40
0.5
 40
0.5625567814
 40
0.6251065075
 40
0.6876428315
 40
0.7501606799
 40
0.8126565323
 40
0.8751285019
 40
0.9375761081
 40
1.0
 40
1.0
 40
1.0
 40
1.0
 10
4.3371563645
 20
6.2821690418
 30
0.0
 10
4.3372061609
 20
6.2808280451
 30
0.0
 10
4.3371960202
 20
6.2781399544
 30
0.0
 10
4.3368277225
 20
6.2741242057
 30
0.0
 10
4.3360852549
 20
6.2701579298
 30
0.0
 10
4.3349522519
 20
6.2662828025
 30
0.0
 10
4.3334193707
 20
6.2625454598
 30
0.0
 10
4.3314865271
 20
6.2589963832
 30
0.0
 10
4.3291646688
 20
6.2556871022
 30
0.0
 10
4.3264765845
 20
6.2526668141
 30
0.0
 10
4.3234562964
 20
6.2499787298
 30
0.0
 10
4.3201470153
 20
6.2476568714
 30
0.0
 10
4.3165979387
 20
6.2457240279
 30
0.0
 10
4.312860596
 20
6.2441911466
 30
0.0
 10
4.3089854687
 20
6.2430581436
 30
0.0
 10
4.3050191929
 20
6.2423156761
 30
0.0
 10
4.3010034442
 20
6.2419473783
 30
0.0
 10
4.2983153535
 20
6.2419372377
 30
0.0
 10
4.2969743567
 20
6.241987034
 30
0.0
  0
SPLINE
  5
57C
100
AcDbEntity
  8
0
100
AcDbSpline
 62
7
  6
CONTINUOUS
 70
0
 71
3
 72
23
 73
19
 74
0
 42
0.0000001
 43
0.0000001
 44
0.0000000001
 40
0.0
 40
0.0
 40
0.0
 40
0.0
 40
0.0509749109
 40
0.1058972985
 40
0.1646175024
 40
0.2268518454
 40
0.2921662348
 40
0.3599706886
 40
0.429530906
 40
0.5
 40
0.570469094
 40
0.6400293114
 40
0.7078337652
 40
0.7731481546
 40
0.8353824976
 40
0.8941027015
 40
0.9490250891
 40
1.0
 40
1.0
 40
1.0
 40
1.0
 10
4.2865028968
 20
6.252458494
 30
0.0
 10
4.2870329387
 20
6.2532722948
 30
0.0
 10
4.2881631638
 20
6.2549440929
 30
0.0
 10
4.2899978476
 20
6.2574883505
 30
0.0
 10
4.2920335504
 20
6.2601505083
 30
0.0
 10
4.2942629563
 20
6.2629121982
 30
0.0
 10
4.2966726063
 20
6.2657493093
 30
0.0
 10
4.2992423186
 20
6.2686321298
 30
0.0
 10
4.3019453054
 20
6.2715262732
 30
0.0
 10
4.3047490716
 20
6.274394327
 30
0.0
 10
4.3076171254
 20
6.2771980931
 30
0.0
 10
4.3105112687
 20
6.27990108
 30
0.0
 10
4.3133940893
 20
6.2824707922
 30
0.0
 10
4.3162312003
 20
6.2848804423
 30
0.0
 10
4.3189928902
 20
6.2871098481
 30
0.0
 10
4.321655048
 20
6.289145551
 30
0.0
 10
4.3241993056
 20
6.2909802348
 30
0.0
 10
4.3258711038
 20
6.2921104598
 30
0.0
 10
4.3266849045
 20
6.2926405018
 30
0.0
  0
SPLINE
  5
57D
100
AcDbEntity
  8
0
100
AcDbSpline
 62
7
  6
CONTINUOUS
 70
0
 71
3
 72
23
 73
19
 74
0
 42
0.0000001
 43
0.0000001
 44
0.0000000001
 40
0.0
 40
0.0
 40
0.0
 40
0.0
 40
0.062169763
 40
0.1244420774
 40
0.1868199859
 40
0.2493016139
 40
0.3118788843
 40
0.3745366643
 40
0.4372529217
 40
0.5
 40
0.5627470783
 40
0.6254633357
 40
0.6881211157
 40
0.7506983861
 40
0.8131800141
 40
0.8755579226
 40
0.937830237
 40
1.0
 40
1.0
 40
1.0
 40
1.0
 10
4.3266849045
 20
6.2926405018
 30
0.0
 10
4.3267246634
 20
6.2913087546
 30
0.0
 10
4.32669499
 20
6.2886383072
 30
0.0
 10
4.3263000622
 20
6.2846488919
 30
0.0
 10
4.3255340319
 20
6.2807060296
 30
0.0
 10
4.3243810032
 20
6.2768510042
 30
0.0
 10
4.3228320985
 20
6.2731300472
 30
0.0
 10
4.3208876557
 20
6.2695932383
 30
0.0
 10
4.3185589465
 20
6.2662917396
 30
0.0
 10
4.3158689382
 20
6.2632744603
 30
0.0
 10
4.312851659
 20
6.260584452
 30
0.0
 10
4.3095501602
 20
6.2582557428
 30
0.0
 10
4.3060133513
 20
6.2563113
 30
0.0
 10
4.3022923943
 20
6.2547623953
 30
0.0
 10
4.2984373689
 20
6.2536093666
 30
0.0
 10
4.2944945067
 20
6.2528433363
 30
0.0
 10
4.2905050914
 20
6.2524484086
 30
0.0
 10
4.2878346439
 20
6.2524187352
 30
0.0
 10
4.2865028968
 20
6.252458494
 30
0.0
  0
SPLINE
  5
57E
100
AcDbEntity
  8
0
100
AcDbSpline
 62
7
  6
CONTINUOUS
 70
0
 71
3
 72
23
 73
19
 74
0
 42
0.0000001
 43
0.0000001
 44
0.0000000001
 40
0.0
 40
0.0
 40
0.0
 40
0.0
 40
0.0517278135
 40
0.1071193758
 40
0.1660550998
 40
0.2282842794
 40
0.2934095106
 40
0.3608816773
 40
0.4300114064
 40
0.5
 40
0.5699885936
 40
0.6391183227
 40
0.7065904894
 40
0.7717157206
 40
0.8339449002
 40
0.8928806242
 40
0.9482721865
 40
1.0
 40
1.0
 40
1.0
 40
1.0
 10
4.2753206425
 20
6.2636407482
 30
0.0
 10
4.2757797631
 20
6.264520538
 30
0.0
 10
4.2767747924
 20
6.2663195877
 30
0.0
 10
4.2784368258
 20
6.2690384157
 30
0.0
 10
4.2803202507
 20
6.2718547631
 30
0.0
 10
4.2824204158
 20
6.2747475434
 30
0.0
 10
4.2847264622
 20
6.2776900793
 30
0.0
 10
4.2872205288
 20
6.2806503452
 30
0.0
 10
4.2898776819
 20
6.2835921117
 30
0.0
 10
4.292666626
 20
6.2864767725
 30
0.0
 10
4.2955512869
 20
6.2892657166
 30
0.0
 10
4.2984930533
 20
6.2919228698
 30
0.0
 10
4.3014533192
 20
6.2944169364
 30
0.0
 10
4.3043958552
 20
6.2967229827
 30
0.0
 10
4.3072886354
 20
6.2988231479
 30
0.0
 10
4.3101049829
 20
6.3007065728
 30
0.0
 10
4.3128238109
 20
6.3023686062
 30
0.0
 10
4.3146228605
 20
6.3033636355
 30
0.0
 10
4.3155026503
 20
6.303822756
 30
0.0
  0
SPLINE
  5
57F
100
AcDbEntity
  8
0
100
AcDbSpline
 62
7
  6
CONTINUOUS
 70
0
 71
3
 72
23
 73
19
 74
0
 42
0.0000001
 43
0.0000001
 44
0.0000000001
 40
0.0
 40
0.0
 40
0.0
 40
0.0
 40
0.0617488294
 40
0.1237315419
 40
0.1859547008
 40
0.2484136612
 40
0.3110897083
 40
0.373948268
 40
0.4369392564
 40
0.5
 40
0.5630607436
 40
0.626051732
 40
0.6889102917
 40
0.7515863388
 40
0.8140452992
 40
0.8762684581
 40
0.9382511706
 40
1.0
 40
1.0
 40
1.0
 40
1.0
 10
4.3155026503
 20
6.303822756
 30
0.0
 10
4.3155257608
 20
6.3025063246
 30
0.0
 10
4.3154636857
 20
6.299865109
 30
0.0
 10
4.3150246642
 20
6.2959193234
 30
0.0
 10
4.3142196299
 20
6.2920152528
 30
0.0
 10
4.3130334627
 20
6.288193526
 30
0.0
 10
4.3114580499
 20
6.2844996999
 30
0.0
 10
4.3094944192
 20
6.2809831889
 30
0.0
 10
4.3071543713
 20
6.2776945523
 30
0.0
 10
4.304461166
 20
6.2746822326
 30
0.0
 10
4.3014488462
 20
6.2719890272
 30
0.0
 10
4.2981602097
 20
6.2696489794
 30
0.0
 10
4.2946436987
 20
6.2676853486
 30
0.0
 10
4.2909498726
 20
6.2661099358
 30
0.0
 10
4.2871281458
 20
6.2649237686
 30
0.0
 10
4.2832240752
 20
6.2641187343
 30
0.0
 10
4.2792782895
 20
6.2636797129
 30
0.0
 10
4.2766370739
 20
6.2636176377
 30
0.0
 10
4.2753206425
 20
6.2636407482
 30
0.0
  0
SPLINE
  5
580
100
AcDbEntity
  8
0
100
AcDbSpline
 62
7
  6
CONTINUOUS
 70
0
 71
3
 72
23
 73
19
 74
0
 42
0.0000001
 43
0.0000001
 44
0.0000000001
 40
0.0
 40
0.0
 40
0.0
 40
0.0
 40
0.0526965789
 40
0.1086976394
 40
0.1679172579
 40
0.2301441349
 40
0.2950266493
 40
0.3620680878
 40
0.4306376403
 40
0.5
 40
0.5693623597
 40
0.6379319122
 40
0.7049733507
 40
0.7698558651
 40
0.8320827421
 40
0.8913023606
 40
0.9473034211
 40
1.0
 40
1.0
 40
1.0
 40
1.0
 10
4.2635352853
 20
6.2754261055
 30
0.0
 10
4.2639257149
 20
6.2763686437
 30
0.0
 10
4.2647892945
 20
6.2782891194
 30
0.0
 10
4.2662834036
 20
6.2811779255
 30
0.0
 10
4.2680188177
 20
6.2841444846
 30
0.0
 10
4.2699934617
 20
6.2871650425
 30
0.0
 10
4.2721989827
 20
6.2902104184
 30
0.0
 10
4.2746197603
 20
6.2932463284
 30
0.0
 10
4.2772326486
 20
6.2962347447
 30
0.0
 10
4.2800075061
 20
6.2991358925
 30
0.0
 10
4.2829086539
 20
6.30191075
 30
0.0
 10
4.2858970702
 20
6.3045236382
 30
0.0
 10
4.2889329802
 20
6.3069444158
 30
0.0
 10
4.2919783561
 20
6.3091499368
 30
0.0
 10
4.294998914
 20
6.3111245808
 30
0.0
 10
4.297965473
 20
6.3128599949
 30
0.0
 10
4.3008542792
 20
6.3143541041
 30
0.0
 10
4.3027747548
 20
6.3152176837
 30
0.0
 10
4.303717293
 20
6.3156081133
 30
0.0
  0
SPLINE
  5
581
100
AcDbEntity
  8
0
100
AcDbSpline
 62
7
  6
CONTINUOUS
 70
0
 71
3
 72
23
 73
19
 74
0
 42
0.0000001
 43
0.0000001
 44
0.0000000001
 40
0.0
 40
0.0
 40
0.0
 40
0.0
 40
0.0611655247
 40
0.1227484819
 40
0.1847593716
 40
0.2471887499
 40
0.3100023783
 40
0.3731383329
 40
0.4365077482
 40
0.5
 40
0.5634922518
 40
0.6268616671
 40
0.6899976217
 40
0.7528112501
 40
0.8152406284
 40
0.8772515181
 40
0.9388344753
 40
1.0
 40
1.0
 40
1.0
 40
1.0
 10
4.303717293
 20
6.3156081133
 30
0.0
 10
4.303717264
 20
6.3143129168
 30
0.0
 10
4.3036101457
 20
6.3117122678
 30
0.0
 10
4.3031100013
 20
6.307827021
 30
0.0
 10
4.3022509218
 20
6.3039767739
 30
0.0
 10
4.3010188583
 20
6.3002012346
 30
0.0
 10
4.2994067459
 20
6.2965450164
 30
0.0
 10
4.2974165512
 20
6.2930566117
 30
0.0
 10
4.2950607934
 20
6.2897857564
 30
0.0
 10
4.2923631328
 20
6.2867802658
 30
0.0
 10
4.2893576422
 20
6.2840826052
 30
0.0
 10
4.2860867868
 20
6.2817268473
 30
0.0
 10
4.2825983821
 20
6.2797366526
 30
0.0
 10
4.278942164
 20
6.2781245402
 30
0.0
 10
4.2751666247
 20
6.2768924767
 30
0.0
 10
4.2713163776
 20
6.2760333973
 30
0.0
 10
4.2674311307
 20
6.2755332528
 30
0.0
 10
4.2648304817
 20
6.2754261345
 30
0.0
 10
4.2635352853
 20
6.2754261055
 30
0.0
  0
SPLINE
  5
582
100
AcDbEntity
  8
0
100
AcDbSpline
 62
7
  6
CONTINUOUS
 70
0
 71
3
 72
23
 73
19
 74
0
 42
0.0000001
 43
0.0000001
 44
0.0000000001
 40
0.0
 40
0.0
 40
0.0
 40
0.0
 40
0.0538140633
 40
0.1105260937
 40
0.1700823453
 40
0.2323127545
 40
0.2969163956
 40
0.3634566408
 40
0.431371247
 40
0.5
 40
0.568628753
 40
0.6365433592
 40
0.7030836044
 40
0.7676872455
 40
0.8299176547
 40
0.8894739063
 40
0.9461859367
 40
1.0
 40
1.0
 40
1.0
 40
1.0
 10
4.2512603244
 20
6.2877010664
 30
0.0
 10
4.2515852064
 20
6.2887028106
 30
0.0
 10
4.2523227826
 20
6.2907380297
 30
0.0
 10
4.2536551868
 20
6.2937903654
 30
0.0
 10
4.2552481462
 20
6.296901558
 30
0.0
 10
4.2571020692
 20
6.3000452547
 30
0.0
 10
4.2592110021
 20
6.3031898382
 30
0.0
 10
4.2615614676
 20
6.3062988288
 30
0.0
 10
4.2641320244
 20
6.3093324469
 30
0.0
 10
4.2668936246
 20
6.312249774
 30
0.0
 10
4.2698109516
 20
6.3150113742
 30
0.0
 10
4.2728445698
 20
6.317581931
 30
0.0
 10
4.2759535603
 20
6.3199323965
 30
0.0
 10
4.2790981438
 20
6.3220413294
 30
0.0
 10
4.2822418405
 20
6.3238952523
 30
0.0
 10
4.2853530331
 20
6.3254882117
 30
0.0
 10
4.2884053688
 20
6.326820616
 30
0.0
 10
4.290440588
 20
6.3275581922
 30
0.0
 10
4.2914423322
 20
6.3278830741
 30
0.0
  0
SPLINE
  5
583
100
AcDbEntity
  8
0
100
AcDbSpline
 62
7
  6
CONTINUOUS
 70
0
 71
3
 72
23
 73
19
 74
0
 42
0.0000001
 43
0.0000001
 44
0.0000000001
 40
0.0
 40
0.0
 40
0.0
 40
0.0
 40
0.0604270926
 40
0.1215066165
 40
0.1832524212
 40
0.2456473699
 40
0.3086362888
 40
0.3721219887
 40
0.4359666857
 40
0.5
 40
0.5640333143
 40
0.6278780113
 40
0.6913637112
 40
0.7543526301
 40
0.8167475788
 40
0.8784933835
 40
0.9395729074
 40
1.0
 40
1.0
 40
1.0
 40
1.0
 10
4.2914423322
 20
6.3278830741
 30
0.0
 10
4.2914128358
 20
6.3266148322
 30
0.0
 10
4.29124835
 20
6.3240657427
 30
0.0
 10
4.2906706614
 20
6.3202574054
 30
0.0
 10
4.2897430547
 20
6.316475529
 30
0.0
 10
4.2884528296
 20
6.3127586336
 30
0.0
 10
4.2867942297
 20
6.3091501238
 30
0.0
 10
4.2847703856
 20
6.3056973251
 30
0.0
 10
4.2823947055
 20
6.3024489487
 30
0.0
 10
4.2796913517
 20
6.2994520468
 30
0.0
 10
4.2766944498
 20
6.296748693
 30
0.0
 10
4.2734460735
 20
6.2943730129
 30
0.0
 10
4.2699932748
 20
6.2923491688
 30
0.0
 10
4.266384765
 20
6.2906905689
 30
0.0
 10
4.2626678695
 20
6.2894003439
 30
0.0
 10
4.2588859932
 20
6.2884727371
 30
0.0
 10
4.2550776558
 20
6.2878950486
 30
0.0
 10
4.2525285664
 20
6.2877305627
 30
0.0
 10
4.2512603244
 20
6.2877010664
 30
0.0
  0
SPLINE
  5
584
100
AcDbEntity
  8
0
100
AcDbSpline
 62
7
  6
CONTINUOUS
 70
0
 71
3
 72
23
 73
19
 74
0
 42
0.0000001
 43
0.0000001
 44
0.0000000001
 40
0.0
 40
0.0
 40
0.0
 40
0.0
 40
0.0550130014
 40
0.1124969579
 40
0.172425222
 40
0.2346669576
 40
0.2989729407
 40
0.3649704178
 40
0.432171856
 40
0.5
 40
0.567828144
 40
0.6350295822
 40
0.7010270593
 40
0.7653330424
 40
0.827574778
 40
0.8875030421
 40
0.9449869986
 40
1.0
 40
1.0
 40
1.0
 40
1.0
 10
4.2386139745
 20
6.3003474162
 30
0.0
 10
4.2388771787
 20
6.3014045832
 30
0.0
 10
4.239495688
 20
6.3035471742
 30
0.0
 10
4.2406741636
 20
6.3067547989
 30
0.0
 10
4.2421315482
 20
6.31000348
 30
0.0
 10
4.2438706402
 20
6.3132643649
 30
0.0
 10
4.245887775
 20
6.3165034818
 30
0.0
 10
4.2481715121
 20
6.319682227
 30
0.0
 10
4.2507020207
 20
6.3227591208
 30
0.0
 10
4.2534512746
 20
6.3256921239
 30
0.0
 10
4.2563842777
 20
6.3284413779
 30
0.0
 10
4.2594611715
 20
6.3309718864
 30
0.0
 10
4.2626399168
 20
6.3332556236
 30
0.0
 10
4.2658790336
 20
6.3352727584
 30
0.0
 10
4.2691399185
 20
6.3370118504
 30
0.0
 10
4.2723885997
 20
6.338469235
 30
0.0
 10
4.2755962243
 20
6.3396477105
 30
0.0
 10
4.2777388153
 20
6.3402662198
 30
0.0
 10
4.2787959823
 20
6.340529424
 30
0.0
  0
SPLINE
  5
585
100
AcDbEntity
  8
0
100
AcDbSpline
 62
7
  6
CONTINUOUS
 70
0
 71
3
 72
23
 73
19
 74
0
 42
0.0000001
 43
0.0000001
 44
0.0000000001
 40
0.0
 40
0.0
 40
0.0
 40
0.0
 40
0.0595446438
 40
0.1200264871
 40
0.1814608638
 40
0.24381904
 40
0.3070189861
 40
0.3709205
 40
0.4353276433
 40
0.5
 40
0.5646723567
 40
0.6290795
 40
0.6929810139
 40
0.75618096
 40
0.8185391362
 40
0.8799735129
 40
0.9404553562
 40
1.0
 40
1.0
 40
1.0
 40
1.0
 10
4.2787959823
 20
6.340529424
 30
0.0
 10
4.2787308956
 20
6.3392936114
 30
0.0
 10
4.2784971236
 20
6.336806658
 30
0.0
 10
4.2778262514
 20
6.3330909128
 30
0.0
 10
4.2768163504
 20
6.3293913304
 30
0.0
 10
4.2754563238
 20
6.3257449761
 30
0.0
 10
4.2737419554
 20
6.3221937903
 30
0.0
 10
4.2716777382
 20
6.3187837037
 30
0.0
 10
4.2692781204
 20
6.3155622265
 30
0.0
 10
4.2665678618
 20
6.3125755367
 30
0.0
 10
4.2635811721
 20
6.3098652781
 30
0.0
 10
4.2603596949
 20
6.3074656603
 30
0.0
 10
4.2569496083
 20
6.3054014431
 30
0.0
 10
4.2533984224
 20
6.3036870748
 30
0.0
 10
4.2497520681
 20
6.3023270481
 30
0.0
 10
4.2460524857
 20
6.3013171472
 30
0.0
 10
4.2423367406
 20
6.300646275
 30
0.0
 10
4.2398497871
 20
6.3004125029
 30
0.0
 10
4.2386139745
 20
6.3003474162
 30
0.0
  0
LINE
  5
586
100
AcDbEntity
  8
0
100
AcDbLine
 62
7
  6
CONTINUOUS
 10
3.6965785484
 20
6.1703915757
 11
3.6959353837
 21
6.1709461632
  0
SPLINE
  5
587
100
AcDbEntity
  8
0
100
AcDbSpline
 62
7
  6
CONTINUOUS
 70
0
 71
3
 72
23
 73
19
 74
0
 42
0.0000001
 43
0.0000001
 44
0.0000000001
 40
0.0
 40
0.0
 40
0.0
 40
0.0
 40
0.0562321905
 40
0.1145104948
 40
0.1748284865
 40
0.2370899265
 40
0.3010951264
 40
0.3665354683
 40
0.433000527
 40
0.5
 40
0.566999473
 40
0.6334645317
 40
0.6989048736
 40
0.7629100735
 40
0.8251715135
 40
0.8854895052
 40
0.9437678095
 40
1.0
 40
1.0
 40
1.0
 40
1.0
 10
4.2257180269
 20
6.3132433638
 30
0.0
 10
4.2259239932
 20
6.3143519288
 30
0.0
 10
4.2264316313
 20
6.3165939263
 30
0.0
 10
4.2274655238
 20
6.319946941
 30
0.0
 10
4.2287955472
 20
6.3233244866
 30
0.0
 10
4.2304267887
 20
6.3266953499
 30
0.0
 10
4.2323577595
 20
6.3300233138
 30
0.0
 10
4.234578945
 20
6.3332677406
 30
0.0
 10
4.2370720239
 20
6.3363855092
 30
0.0
 10
4.2398099135
 20
6.339333485
 30
0.0
 10
4.2427578894
 20
6.3420713746
 30
0.0
 10
4.245875658
 20
6.3445644536
 30
0.0
 10
4.2491200848
 20
6.3467856391
 30
0.0
 10
4.2524480486
 20
6.3487166098
 30
0.0
 10
4.2558189119
 20
6.3503478514
 30
0.0
 10
4.2591964576
 20
6.3516778747
 30
0.0
 10
4.2625494723
 20
6.3527117672
 30
0.0
 10
4.2647914698
 20
6.3532194053
 30
0.0
 10
4.2659000347
 20
6.3534253716
 30
0.0
  0
SPLINE
  5
588
100
AcDbEntity
  8
0
100
AcDbSpline
 62
7
  6
CONTINUOUS
 70
0
 71
3
 72
23
 73
19
 74
0
 42
0.0000001
 43
0.0000001
 44
0.0000000001
 40
0.0
 40
0.0
 40
0.0
 40
0.0
 40
0.0585345104
 40
0.1183375796
 40
0.1794226696
 40
0.2417445101
 40
0.3051879451
 40
0.3695624851
 40
0.4346060947
 40
0.5
 40
0.5653939053
 40
0.6304375149
 40
0.6948120549
 40
0.7582554899
 40
0.8205773304
 40
0.8816624204
 40
0.9414654896
 40
1.0
 40
1.0
 40
1.0
 40
1.0
 10
4.2659000347
 20
6.3534253716
 30
0.0
 10
4.2657934781
 20
6.3522271835
 30
0.0
 10
4.2654789994
 20
6.3498124686
 30
0.0
 10
4.2647002577
 20
6.3462041609
 30
0.0
 10
4.2635951623
 20
6.3426000302
 30
0.0
 10
4.2621544431
 20
6.3390354272
 30
0.0
 10
4.2603756256
 20
6.3355505883
 30
0.0
 10
4.2582647355
 20
6.3321898454
 30
0.0
 10
4.2558373952
 20
6.3289993584
 30
0.0
 10
4.2531190522
 20
6.3260243463
 30
0.0
 10
4.2501440402
 20
6.3233060034
 30
0.0
 10
4.2469535531
 20
6.3208786631
 30
0.0
 10
4.2435928102
 20
6.318767773
 30
0.0
 10
4.2401079714
 20
6.3169889554
 30
0.0
 10
4.2365433684
 20
6.3155482363
 30
0.0
 10
4.2329392376
 20
6.3144431409
 30
0.0
 10
4.2293309299
 20
6.3136643992
 30
0.0
 10
4.2269162151
 20
6.3133499204
 30
0.0
 10
4.2257180269
 20
6.3132433638
 30
0.0
  0
SPLINE
  5
589
100
AcDbEntity
  8
0
100
AcDbSpline
 62
7
  6
CONTINUOUS
 70
0
 71
3
 72
27
 73
23
 74
0
 42
0.0000001
 43
0.0000001
 44
0.0000000001
 40
0.0
 40
0.0
 40
0.0
 40
0.0
 40
0.0574169052
 40
0.0867446951
 40
0.1164868207
 40
0.1771923653
 40
0.239477947
 40
0.2711752469
 40
0.30320246
 40
0.3680918949
 40
0.4338254123
 40
0.5
 40
0.5661745877
 40
0.6319081051
 40
0.69679754
 40
0.7288247531
 40
0.760522053
 40
0.8228076347
 40
0.8835131793
 40
0.9132553049
 40
0.9425830948
 40
1.0
 40
1.0
 40
1.0
 40
1.0
 10
4.2126966766
 20
6.3262647142
 30
0.0
 10
4.212850301
 20
6.3274203842
 30
0.0
 10
4.2131527342
 20
6.3291580449
 30
0.0
 10
4.2136969737
 20
6.3314602793
 30
0.0
 10
4.2143516388
 20
6.3338031553
 30
0.0
 10
4.215368646
 20
6.3367367121
 30
0.0
 10
4.2166376142
 20
6.3396139454
 30
0.0
 10
4.2178115168
 20
6.3418880615
 30
0.0
 10
4.219103968
 20
6.3441580175
 30
0.0
 10
4.2209148002
 20
6.3469247323
 30
0.0
 10
4.2233733379
 20
6.3500804186
 30
0.0
 10
4.2261009136
 20
6.353042485
 30
0.0
 10
4.2290629799
 20
6.3557700607
 30
0.0
 10
4.2322186663
 20
6.3582285984
 30
0.0
 10
4.2349853811
 20
6.3600394305
 30
0.0
 10
4.2372553371
 20
6.3613318817
 30
0.0
 10
4.2395294532
 20
6.3625057844
 30
0.0
 10
4.2424066865
 20
6.3637747526
 30
0.0
 10
4.2453402432
 20
6.3647917598
 30
0.0
 10
4.2476831193
 20
6.3654464248
 30
0.0
 10
4.2499853536
 20
6.3659906644
 30
0.0
 10
4.2517230143
 20
6.3662930975
 30
0.0
 10
4.2528786844
 20
6.3664467219
 30
0.0
  0
SPLINE
  5
58A
100
AcDbEntity
  8
0
100
AcDbSpline
 62
7
  6
CONTINUOUS
 70
0
 71
3
 72
27
 73
23
 74
0
 42
0.0000001
 43
0.0000001
 44
0.0000000001
 40
0.0
 40
0.0
 40
0.0
 40
0.0
 40
0.0574169052
 40
0.0867446951
 40
0.1164868207
 40
0.1771923653
 40
0.239477947
 40
0.2711752469
 40
0.30320246
 40
0.3680918949
 40
0.4338254123
 40
0.5
 40
0.5661745877
 40
0.6319081051
 40
0.69679754
 40
0.7288247531
 40
0.760522053
 40
0.8228076347
 40
0.8835131793
 40
0.9132553049
 40
0.9425830948
 40
1.0
 40
1.0
 40
1.0
 40
1.0
 10
4.2528786844
 20
6.3664467219
 30
0.0
 10
4.25272506
 20
6.3652910519
 30
0.0
 10
4.2524226268
 20
6.3635533912
 30
0.0
 10
4.2518783873
 20
6.3612511568
 30
0.0
 10
4.2512237222
 20
6.3589082808
 30
0.0
 10
4.250206715
 20
6.355974724
 30
0.0
 10
4.2489377468
 20
6.3530974907
 30
0.0
 10
4.2477638442
 20
6.3508233746
 30
0.0
 10
4.246471393
 20
6.3485534186
 30
0.0
 10
4.2446605608
 20
6.3457867038
 30
0.0
 10
4.2422020231
 20
6.3426310175
 30
0.0
 10
4.2394744474
 20
6.3396689511
 30
0.0
 10
4.2365123811
 20
6.3369413754
 30
0.0
 10
4.2333566947
 20
6.3344828377
 30
0.0
 10
4.2305899799
 20
6.3326720056
 30
0.0
 10
4.2283200239
 20
6.3313795544
 30
0.0
 10
4.2260459078
 20
6.3302056517
 30
0.0
 10
4.2231686745
 20
6.3289366835
 30
0.0
 10
4.2202351178
 20
6.3279196763
 30
0.0
 10
4.2178922417
 20
6.3272650113
 30
0.0
 10
4.2155900074
 20
6.3267207717
 30
0.0
 10
4.2138523467
 20
6.3264183386
 30
0.0
 10
4.2126966766
 20
6.3262647142
 30
0.0
  0
SPLINE
  5
58B
100
AcDbEntity
  8
0
100
AcDbSpline
 62
7
  6
CONTINUOUS
 70
0
 71
3
 72
23
 73
19
 74
0
 42
0.0000001
 43
0.0000001
 44
0.0000000001
 40
0.0
 40
0.0
 40
0.0
 40
0.0
 40
0.0585345104
 40
0.1183375796
 40
0.1794226696
 40
0.2417445101
 40
0.3051879451
 40
0.3695624851
 40
0.4346060947
 40
0.5
 40
0.5653939053
 40
0.6304375149
 40
0.6948120549
 40
0.7582554899
 40
0.8205773304
 40
0.8816624204
 40
0.9414654896
 40
1.0
 40
1.0
 40
1.0
 40
1.0
 10
4.1996753263
 20
6.3392860645
 30
0.0
 10
4.1997818828
 20
6.3404842526
 30
0.0
 10
4.2000963616
 20
6.3428989675
 30
0.0
 10
4.2008751033
 20
6.3465072752
 30
0.0
 10
4.2019801987
 20
6.3501114059
 30
0.0
 10
4.2034209179
 20
6.3536760089
 30
0.0
 10
4.2051997354
 20
6.3571608478
 30
0.0
 10
4.2073106255
 20
6.3605215907
 30
0.0
 10
4.2097379658
 20
6.3637120777
 30
0.0
 10
4.2124563088
 20
6.3666870898
 30
0.0
 10
4.2154313208
 20
6.3694054327
 30
0.0
 10
4.2186218079
 20
6.371832773
 30
0.0
 10
4.2219825508
 20
6.3739436631
 30
0.0
 10
4.2254673896
 20
6.3757224807
 30
0.0
 10
4.2290319926
 20
6.3771631998
 30
0.0
 10
4.2326361234
 20
6.3782682952
 30
0.0
 10
4.2362444311
 20
6.3790470369
 30
0.0
 10
4.2386591459
 20
6.3793615157
 30
0.0
 10
4.2398573341
 20
6.3794680723
 30
0.0
  0
SPLINE
  5
58C
100
AcDbEntity
  8
0
100
AcDbSpline
 62
7
  6
CONTINUOUS
 70
0
 71
3
 72
23
 73
19
 74
0
 42
0.0000001
 43
0.0000001
 44
0.0000000001
 40
0.0
 40
0.0
 40
0.0
 40
0.0
 40
0.0562321905
 40
0.1145104948
 40
0.1748284865
 40
0.2370899265
 40
0.3010951264
 40
0.3665354683
 40
0.433000527
 40
0.5
 40
0.566999473
 40
0.6334645317
 40
0.6989048736
 40
0.7629100735
 40
0.8251715135
 40
0.8854895052
 40
0.9437678095
 40
1.0
 40
1.0
 40
1.0
 40
1.0
 10
4.2398573341
 20
6.3794680723
 30
0.0
 10
4.2396513677
 20
6.3783595073
 30
0.0
 10
4.2391437297
 20
6.3761175098
 30
0.0
 10
4.2381098372
 20
6.3727644951
 30
0.0
 10
4.2367798138
 20
6.3693869495
 30
0.0
 10
4.2351485723
 20
6.3660160862
 30
0.0
 10
4.2332176015
 20
6.3626881223
 30
0.0
 10
4.230996416
 20
6.3594436955
 30
0.0
 10
4.228503337
 20
6.3563259269
 30
0.0
 10
4.2257654474
 20
6.3533779511
 30
0.0
 10
4.2228174716
 20
6.3506400615
 30
0.0
 10
4.219699703
 20
6.3481469825
 30
0.0
 10
4.2164552762
 20
6.345925797
 30
0.0
 10
4.2131273123
 20
6.3439948263
 30
0.0
 10
4.209756449
 20
6.3423635847
 30
0.0
 10
4.2063789034
 20
6.3410335614
 30
0.0
 10
4.2030258887
 20
6.3399996689
 30
0.0
 10
4.2007838912
 20
6.3394920308
 30
0.0
 10
4.1996753263
 20
6.3392860645
 30
0.0
  0
SPLINE
  5
58D
100
AcDbEntity
  8
0
100
AcDbSpline
 62
7
  6
CONTINUOUS
 70
0
 71
3
 72
23
 73
19
 74
0
 42
0.0000001
 43
0.0000001
 44
0.0000000001
 40
0.0
 40
0.0
 40
0.0
 40
0.0
 40
0.0595446438
 40
0.1200264871
 40
0.1814608638
 40
0.24381904
 40
0.3070189861
 40
0.3709205
 40
0.4353276433
 40
0.5
 40
0.5646723567
 40
0.6290795
 40
0.6929810139
 40
0.75618096
 40
0.8185391362
 40
0.8799735129
 40
0.9404553562
 40
1.0
 40
1.0
 40
1.0
 40
1.0
 10
4.1867793787
 20
6.3521820121
 30
0.0
 10
4.1868444653
 20
6.3534178247
 30
0.0
 10
4.1870782374
 20
6.3559047781
 30
0.0
 10
4.1877491096
 20
6.3596205233
 30
0.0
 10
4.1887590105
 20
6.3633201057
 30
0.0
 10
4.1901190372
 20
6.36696646
 30
0.0
 10
4.1918334055
 20
6.3705176458
 30
0.0
 10
4.1938976228
 20
6.3739277324
 30
0.0
 10
4.1962972406
 20
6.3771492096
 30
0.0
 10
4.1990074992
 20
6.3801358994
 30
0.0
 10
4.2019941889
 20
6.382846158
 30
0.0
 10
4.2052156661
 20
6.3852457758
 30
0.0
 10
4.2086257527
 20
6.387309993
 30
0.0
 10
4.2121769386
 20
6.3890243613
 30
0.0
 10
4.2158232928
 20
6.390384388
 30
0.0
 10
4.2195228753
 20
6.3913942889
 30
0.0
 10
4.2232386204
 20
6.3920651611
 30
0.0
 10
4.2257255739
 20
6.3922989332
 30
0.0
 10
4.2269613864
 20
6.3923640199
 30
0.0
  0
SPLINE
  5
58E
100
AcDbEntity
  8
0
100
AcDbSpline
 62
7
  6
CONTINUOUS
 70
0
 71
3
 72
23
 73
19
 74
0
 42
0.0000001
 43
0.0000001
 44
0.0000000001
 40
0.0
 40
0.0
 40
0.0
 40
0.0
 40
0.0550130014
 40
0.1124969579
 40
0.172425222
 40
0.2346669576
 40
0.2989729407
 40
0.3649704178
 40
0.432171856
 40
0.5
 40
0.567828144
 40
0.6350295822
 40
0.7010270593
 40
0.7653330424
 40
0.827574778
 40
0.8875030421
 40
0.9449869986
 40
1.0
 40
1.0
 40
1.0
 40
1.0
 10
4.2269613864
 20
6.3923640199
 30
0.0
 10
4.2266981823
 20
6.3913068529
 30
0.0
 10
4.2260796729
 20
6.3891642619
 30
0.0
 10
4.2249011974
 20
6.3859566372
 30
0.0
 10
4.2234438128
 20
6.3827079561
 30
0.0
 10
4.2217047208
 20
6.3794470712
 30
0.0
 10
4.219687586
 20
6.3762079543
 30
0.0
 10
4.2174038489
 20
6.373029209
 30
0.0
 10
4.2148733403
 20
6.3699523153
 30
0.0
 10
4.2121240864
 20
6.3670193122
 30
0.0
 10
4.2091910833
 20
6.3642700582
 30
0.0
 10
4.2061141895
 20
6.3617395497
 30
0.0
 10
4.2029354442
 20
6.3594558125
 30
0.0
 10
4.1996963274
 20
6.3574386777
 30
0.0
 10
4.1964354425
 20
6.3556995857
 30
0.0
 10
4.1931867613
 20
6.3542422011
 30
0.0
 10
4.1899791366
 20
6.3530637256
 30
0.0
 10
4.1878365456
 20
6.3524452163
 30
0.0
 10
4.1867793787
 20
6.3521820121
 30
0.0
  0
SPLINE
  5
58F
100
AcDbEntity
  8
0
100
AcDbSpline
 62
7
  6
CONTINUOUS
 70
0
 71
3
 72
23
 73
19
 74
0
 42
0.0000001
 43
0.0000001
 44
0.0000000001
 40
0.0
 40
0.0
 40
0.0
 40
0.0
 40
0.0604270926
 40
0.1215066165
 40
0.1832524212
 40
0.2456473699
 40
0.3086362888
 40
0.3721219887
 40
0.4359666857
 40
0.5
 40
0.5640333143
 40
0.6278780113
 40
0.6913637112
 40
0.7543526301
 40
0.8167475788
 40
0.8784933835
 40
0.9395729074
 40
1.0
 40
1.0
 40
1.0
 40
1.0
 10
4.1741330288
 20
6.364828362
 30
0.0
 10
4.1741625252
 20
6.3660966039
 30
0.0
 10
4.174327011
 20
6.3686456934
 30
0.0
 10
4.1749046996
 20
6.3724540307
 30
0.0
 10
4.1758323063
 20
6.3762359071
 30
0.0
 10
4.1771225314
 20
6.3799528025
 30
0.0
 10
4.1787811313
 20
6.3835613123
 30
0.0
 10
4.1808049753
 20
6.387014111
 30
0.0
 10
4.1831806555
 20
6.3902624874
 30
0.0
 10
4.1858840092
 20
6.3932593893
 30
0.0
 10
4.1888809112
 20
6.3959627431
 30
0.0
 10
4.1921292875
 20
6.3983384232
 30
0.0
 10
4.1955820862
 20
6.4003622673
 30
0.0
 10
4.199190596
 20
6.4020208672
 30
0.0
 10
4.2029074915
 20
6.4033110922
 30
0.0
 10
4.2066893678
 20
6.404238699
 30
0.0
 10
4.2104977052
 20
6.4048163875
 30
0.0
 10
4.2130467946
 20
6.4049808734
 30
0.0
 10
4.2143150366
 20
6.4050103697
 30
0.0
  0
SPLINE
  5
590
100
AcDbEntity
  8
0
100
AcDbSpline
 62
7
  6
CONTINUOUS
 70
0
 71
3
 72
23
 73
19
 74
0
 42
0.0000001
 43
0.0000001
 44
0.0000000001
 40
0.0
 40
0.0
 40
0.0
 40
0.0
 40
0.0538140633
 40
0.1105260937
 40
0.1700823453
 40
0.2323127545
 40
0.2969163956
 40
0.3634566408
 40
0.431371247
 40
0.5
 40
0.568628753
 40
0.6365433592
 40
0.7030836044
 40
0.7676872455
 40
0.8299176547
 40
0.8894739063
 40
0.9461859367
 40
1.0
 40
1.0
 40
1.0
 40
1.0
 10
4.2143150366
 20
6.4050103697
 30
0.0
 10
4.2139901546
 20
6.4040086255
 30
0.0
 10
4.2132525784
 20
6.4019734063
 30
0.0
 10
4.2119201742
 20
6.3989210707
 30
0.0
 10
4.2103272148
 20
6.3958098781
 30
0.0
 10
4.2084732918
 20
6.3926661814
 30
0.0
 10
4.2063643589
 20
6.3895215979
 30
0.0
 10
4.2040138934
 20
6.3864126073
 30
0.0
 10
4.2014433366
 20
6.3833789892
 30
0.0
 10
4.1986817364
 20
6.3804616621
 30
0.0
 10
4.1957644094
 20
6.3777000619
 30
0.0
 10
4.1927307912
 20
6.3751295051
 30
0.0
 10
4.1896218007
 20
6.3727790396
 30
0.0
 10
4.1864772171
 20
6.3706701067
 30
0.0
 10
4.1833335204
 20
6.3688161838
 30
0.0
 10
4.1802223279
 20
6.3672232244
 30
0.0
 10
4.1771699922
 20
6.3658908201
 30
0.0
 10
4.175134773
 20
6.3651532439
 30
0.0
 10
4.1741330288
 20
6.364828362
 30
0.0
  0
SPLINE
  5
591
100
AcDbEntity
  8
0
100
AcDbSpline
 62
7
  6
CONTINUOUS
 70
0
 71
3
 72
23
 73
19
 74
0
 42
0.0000001
 43
0.0000001
 44
0.0000000001
 40
0.0
 40
0.0
 40
0.0
 40
0.0
 40
0.0611655247
 40
0.1227484819
 40
0.1847593716
 40
0.2471887499
 40
0.3100023783
 40
0.3731383329
 40
0.4365077482
 40
0.5
 40
0.5634922518
 40
0.6268616671
 40
0.6899976217
 40
0.7528112501
 40
0.8152406284
 40
0.8772515181
 40
0.9388344753
 40
1.0
 40
1.0
 40
1.0
 40
1.0
 10
4.1618580679
 20
6.3771033228
 30
0.0
 10
4.161858097
 20
6.3783985193
 30
0.0
 10
4.1619652153
 20
6.3809991683
 30
0.0
 10
4.1624653597
 20
6.3848844151
 30
0.0
 10
4.1633244391
 20
6.3887346622
 30
0.0
 10
4.1645565027
 20
6.3925102015
 30
0.0
 10
4.1661686151
 20
6.3961664197
 30
0.0
 10
4.1681588098
 20
6.3996548244
 30
0.0
 10
4.1705145676
 20
6.4029256797
 30
0.0
 10
4.1732122282
 20
6.4059311703
 30
0.0
 10
4.1762177188
 20
6.4086288309
 30
0.0
 10
4.1794885742
 20
6.4109845888
 30
0.0
 10
4.1829769788
 20
6.4129747835
 30
0.0
 10
4.186633197
 20
6.4145868959
 30
0.0
 10
4.1904087363
 20
6.4158189594
 30
0.0
 10
4.1942589834
 20
6.4166780388
 30
0.0
 10
4.1981442303
 20
6.4171781833
 30
0.0
 10
4.2007448793
 20
6.4172853015
 30
0.0
 10
4.2020400757
 20
6.4172853306
 30
0.0
  0
SPLINE
  5
592
100
AcDbEntity
  8
0
100
AcDbSpline
 62
7
  6
CONTINUOUS
 70
0
 71
3
 72
23
 73
19
 74
0
 42
0.0000001
 43
0.0000001
 44
0.0000000001
 40
0.0
 40
0.0
 40
0.0
 40
0.0
 40
0.0526965789
 40
0.1086976394
 40
0.1679172579
 40
0.2301441349
 40
0.2950266493
 40
0.3620680878
 40
0.4306376403
 40
0.5
 40
0.5693623597
 40
0.6379319122
 40
0.7049733507
 40
0.7698558651
 40
0.8320827421
 40
0.8913023606
 40
0.9473034211
 40
1.0
 40
1.0
 40
1.0
 40
1.0
 10
4.2020400757
 20
6.4172853306
 30
0.0
 10
4.2016496461
 20
6.4163427924
 30
0.0
 10
4.2007860665
 20
6.4144223167
 30
0.0
 10
4.1992919574
 20
6.4115335106
 30
0.0
 10
4.1975565433
 20
6.4085669515
 30
0.0
 10
4.1955818993
 20
6.4055463936
 30
0.0
 10
4.1933763782
 20
6.4025010177
 30
0.0
 10
4.1909556007
 20
6.3994651077
 30
0.0
 10
4.1883427124
 20
6.3964766914
 30
0.0
 10
4.1855678549
 20
6.3935755436
 30
0.0
 10
4.1826667071
 20
6.3908006861
 30
0.0
 10
4.1796782908
 20
6.3881877979
 30
0.0
 10
4.1766423808
 20
6.3857670203
 30
0.0
 10
4.1735970049
 20
6.3835614993
 30
0.0
 10
4.170576447
 20
6.3815868553
 30
0.0
 10
4.167609888
 20
6.3798514412
 30
0.0
 10
4.1647210818
 20
6.378357332
 30
0.0
 10
4.1628006062
 20
6.3774937524
 30
0.0
 10
4.1618580679
 20
6.3771033228
 30
0.0
  0
SPLINE
  5
593
100
AcDbEntity
  8
0
100
AcDbSpline
 62
7
  6
CONTINUOUS
 70
0
 71
3
 72
23
 73
19
 74
0
 42
0.0000001
 43
0.0000001
 44
0.0000000001
 40
0.0
 40
0.0
 40
0.0
 40
0.0
 40
0.0617488294
 40
0.1237315419
 40
0.1859547008
 40
0.2484136612
 40
0.3110897083
 40
0.373948268
 40
0.4369392564
 40
0.5
 40
0.5630607436
 40
0.626051732
 40
0.6889102917
 40
0.7515863388
 40
0.8140452992
 40
0.8762684581
 40
0.9382511706
 40
1.0
 40
1.0
 40
1.0
 40
1.0
 10
4.1500727107
 20
6.3888886801
 30
0.0
 10
4.1500496001
 20
6.3902051115
 30
0.0
 10
4.1501116753
 20
6.3928463271
 30
0.0
 10
4.1505506968
 20
6.3967921127
 30
0.0
 10
4.1513557311
 20
6.4006961833
 30
0.0
 10
4.1525418983
 20
6.4045179101
 30
0.0
 10
4.1541173111
 20
6.4082117362
 30
0.0
 10
4.1560809418
 20
6.4117282472
 30
0.0
 10
4.1584209897
 20
6.4150168838
 30
0.0
 10
4.161114195
 20
6.4180292035
 30
0.0
 10
4.1641265147
 20
6.4207224088
 30
0.0
 10
4.1674151513
 20
6.4230624567
 30
0.0
 10
4.1709316623
 20
6.4250260875
 30
0.0
 10
4.1746254884
 20
6.4266015003
 30
0.0
 10
4.1784472152
 20
6.4277876674
 30
0.0
 10
4.1823512858
 20
6.4285927018
 30
0.0
 10
4.1862970715
 20
6.4290317232
 30
0.0
 10
4.1889382871
 20
6.4290937984
 30
0.0
 10
4.1902547185
 20
6.4290706879
 30
0.0
  0
SPLINE
  5
594
100
AcDbEntity
  8
0
100
AcDbSpline
 62
7
  6
CONTINUOUS
 70
0
 71
3
 72
23
 73
19
 74
0
 42
0.0000001
 43
0.0000001
 44
0.0000000001
 40
0.0
 40
0.0
 40
0.0
 40
0.0
 40
0.0517278135
 40
0.1071193758
 40
0.1660550998
 40
0.2282842794
 40
0.2934095106
 40
0.3608816773
 40
0.4300114064
 40
0.5
 40
0.5699885936
 40
0.6391183227
 40
0.7065904894
 40
0.7717157206
 40
0.8339449002
 40
0.8928806242
 40
0.9482721865
 40
1.0
 40
1.0
 40
1.0
 40
1.0
 10
4.1902547185
 20
6.4290706879
 30
0.0
 10
4.1897955979
 20
6.4281908981
 30
0.0
 10
4.1888005686
 20
6.4263918484
 30
0.0
 10
4.1871385352
 20
6.4236730204
 30
0.0
 10
4.1852551103
 20
6.420856673
 30
0.0
 10
4.1831549452
 20
6.4179638927
 30
0.0
 10
4.1808488988
 20
6.4150213568
 30
0.0
 10
4.1783548322
 20
6.4120610909
 30
0.0
 10
4.1756976791
 20
6.4091193244
 30
0.0
 10
4.172908735
 20
6.4062346636
 30
0.0
 10
4.1700240741
 20
6.4034457195
 30
0.0
 10
4.1670823077
 20
6.4007885663
 30
0.0
 10
4.1641220418
 20
6.3982944997
 30
0.0
 10
4.1611795058
 20
6.3959884534
 30
0.0
 10
4.1582867256
 20
6.3938882882
 30
0.0
 10
4.1554703781
 20
6.3920048633
 30
0.0
 10
4.1527515501
 20
6.3903428299
 30
0.0
 10
4.1509525005
 20
6.3893478006
 30
0.0
 10
4.1500727107
 20
6.3888886801
 30
0.0
  0
SPLINE
  5
595
100
AcDbEntity
  8
0
100
AcDbSpline
 62
7
  6
CONTINUOUS
 70
0
 71
3
 72
23
 73
19
 74
0
 42
0.0000001
 43
0.0000001
 44
0.0000000001
 40
0.0
 40
0.0
 40
0.0
 40
0.0
 40
0.062169763
 40
0.1244420774
 40
0.1868199859
 40
0.2493016139
 40
0.3118788843
 40
0.3745366643
 40
0.4372529217
 40
0.5
 40
0.5627470783
 40
0.6254633357
 40
0.6881211157
 40
0.7506983861
 40
0.8131800141
 40
0.8755579226
 40
0.937830237
 40
1.0
 40
1.0
 40
1.0
 40
1.0
 10
4.1388904564
 20
6.4000709343
 30
0.0
 10
4.1388506976
 20
6.4014026815
 30
0.0
 10
4.138880371
 20
6.4040731289
 30
0.0
 10
4.1392752988
 20
6.4080625442
 30
0.0
 10
4.140041329
 20
6.4120054065
 30
0.0
 10
4.1411943578
 20
6.4158604319
 30
0.0
 10
4.1427432625
 20
6.4195813889
 30
0.0
 10
4.1446877053
 20
6.4231181978
 30
0.0
 10
4.1470164144
 20
6.4264196965
 30
0.0
 10
4.1497064228
 20
6.4294369758
 30
0.0
 10
4.152723702
 20
6.4321269841
 30
0.0
 10
4.1560252007
 20
6.4344556933
 30
0.0
 10
4.1595620096
 20
6.4364001361
 30
0.0
 10
4.1632829667
 20
6.4379490408
 30
0.0
 10
4.1671379921
 20
6.4391020695
 30
0.0
 10
4.1710808543
 20
6.4398680998
 30
0.0
 10
4.1750702696
 20
6.4402630275
 30
0.0
 10
4.1777407171
 20
6.4402927009
 30
0.0
 10
4.1790724642
 20
6.4402529421
 30
0.0
  0
SPLINE
  5
596
100
AcDbEntity
  8
0
100
AcDbSpline
 62
7
  6
CONTINUOUS
 70
0
 71
3
 72
23
 73
19
 74
0
 42
0.0000001
 43
0.0000001
 44
0.0000000001
 40
0.0
 40
0.0
 40
0.0
 40
0.0
 40
0.0509749109
 40
0.1058972985
 40
0.1646175024
 40
0.2268518454
 40
0.2921662348
 40
0.3599706886
 40
0.429530906
 40
0.5
 40
0.570469094
 40
0.6400293114
 40
0.7078337652
 40
0.7731481546
 40
0.8353824976
 40
0.8941027015
 40
0.9490250891
 40
1.0
 40
1.0
 40
1.0
 40
1.0
 10
4.1790724642
 20
6.4402529421
 30
0.0
 10
4.1785424223
 20
6.4394391413
 30
0.0
 10
4.1774121972
 20
6.4377673432
 30
0.0
 10
4.1755775134
 20
6.4352230855
 30
0.0
 10
4.1735418106
 20
6.4325609277
 30
0.0
 10
4.1713124047
 20
6.4297992379
 30
0.0
 10
4.1689027547
 20
6.4269621268
 30
0.0
 10
4.1663330424
 20
6.4240793062
 30
0.0
 10
4.1636300556
 20
6.4211851629
 30
0.0
 10
4.1608262894
 20
6.4183171091
 30
0.0
 10
4.1579582356
 20
6.415513343
 30
0.0
 10
4.1550640923
 20
6.4128103561
 30
0.0
 10
4.1521812717
 20
6.4102406439
 30
0.0
 10
4.1493441606
 20
6.4078309938
 30
0.0
 10
4.1465824708
 20
6.405601588
 30
0.0
 10
4.143920313
 20
6.4035658851
 30
0.0
 10
4.1413760553
 20
6.4017312013
 30
0.0
 10
4.1397042572
 20
6.4006009763
 30
0.0
 10
4.1388904564
 20
6.4000709343
 30
0.0
  0
SPLINE
  5
597
100
AcDbEntity
  8
0
100
AcDbSpline
 62
7
  6
CONTINUOUS
 70
0
 71
3
 72
23
 73
19
 74
0
 42
0.0000001
 43
0.0000001
 44
0.0000000001
 40
0.0
 40
0.0
 40
0.0
 40
0.0
 40
0.0624238919
 40
0.1248714981
 40
0.1873434677
 40
0.2498393201
 40
0.3123571685
 40
0.3748934925
 40
0.4374432186
 40
0.5
 40
0.5625567814
 40
0.6251065075
 40
0.6876428315
 40
0.7501606799
 40
0.8126565323
 40
0.8751285019
 40
0.9375761081
 40
1.0
 40
1.0
 40
1.0
 40
1.0
 10
4.1284189965
 20
6.4105423943
 30
0.0
 10
4.1283692001
 20
6.411883391
 30
0.0
 10
4.1283793408
 20
6.4145714817
 30
0.0
 10
4.1287476385
 20
6.4185872304
 30
0.0
 10
4.1294901061
 20
6.4225535063
 30
0.0
 10
4.130623109
 20
6.4264286336
 30
0.0
 10
4.1321559903
 20
6.4301659763
 30
0.0
 10
4.1340888339
 20
6.4337150529
 30
0.0
 10
4.1364106922
 20
6.4370243339
 30
0.0
 10
4.1390987765
 20
6.440044622
 30
0.0
 10
4.1421190646
 20
6.4427327063
 30
0.0
 10
4.1454283457
 20
6.4450545647
 30
0.0
 10
4.1489774223
 20
6.4469874082
 30
0.0
 10
4.1527147649
 20
6.4485202895
 30
0.0
 10
4.1565898923
 20
6.4496532925
 30
0.0
 10
4.1605561681
 20
6.45039576
 30
0.0
 10
4.1645719168
 20
6.4507640578
 30
0.0
 10
4.1672600075
 20
6.4507741984
 30
0.0
 10
4.1686010042
 20
6.4507244021
 30
0.0
  0
SPLINE
  5
598
100
AcDbEntity
  8
0
100
AcDbSpline
 62
7
  6
CONTINUOUS
 70
0
 71
3
 72
23
 73
19
 74
0
 42
0.0000001
 43
0.0000001
 44
0.0000000001
 40
0.0
 40
0.0
 40
0.0
 40
0.0
 40
0.0504962342
 40
0.105122428
 40
0.163707945
 40
0.2259470815
 40
0.2913819401
 40
0.359396515
 40
0.4292282152
 40
0.5
 40
0.5707717848
 40
0.640603485
 40
0.7086180599
 40
0.7740529185
 40
0.836292055
 40
0.894877572
 40
0.9495037658
 40
1.0
 40
1.0
 40
1.0
 40
1.0
 10
4.1686010042
 20
6.4507244021
 30
0.0
 10
4.1679988954
 20
6.4499793783
 30
0.0
 10
4.1667315705
 20
6.4484395656
 30
0.0
 10
4.1647209265
 20
6.4460726432
 30
0.0
 10
4.1625299335
 20
6.4435670827
 30
0.0
 10
4.1601686438
 20
6.440938494
 30
0.0
 10
4.1576531807
 20
6.438208362
 30
0.0
 10
4.1550061024
 20
6.4354040372
 30
0.0
 10
4.1522560933
 20
6.4325580254
 30
0.0
 10
4.1494368767
 20
6.4297065219
 30
0.0
 10
4.1465853732
 20
6.4268873052
 30
0.0
 10
4.1437393613
 20
6.4241372961
 30
0.0
 10
4.1409350365
 20
6.4214902178
 30
0.0
 10
4.1382049045
 20
6.4189747548
 30
0.0
 10
4.1355763158
 20
6.416613465
 30
0.0
 10
4.1330707553
 20
6.414422472
 30
0.0
 10
4.130703833
 20
6.4124118281
 30
0.0
 10
4.1291640202
 20
6.4111445032
 30
0.0
 10
4.1284189965
 20
6.4105423943
 30
0.0
  0
LINE
  5
599
100
AcDbEntity
  8
0
100
AcDbLine
 62
7
  6
CONTINUOUS
 10
4.1758019296
 20
5.7038902395
 11
4.174837575
 21
5.7044497954
  0
SPLINE
  5
59A
100
AcDbEntity
  8
0
100
AcDbSpline
 62
7
  6
CONTINUOUS
 70
0
 71
3
 72
33
 73
29
 74
0
 42
0.0000001
 43
0.0000001
 44
0.0000000001
 40
0.0
 40
0.0
 40
0.0
 40
0.0
 40
0.0624938859
 40
0.1249852065
 40
0.1874737662
 40
0.2187269437
 40
0.2499799703
 40
0.2812328525
 40
0.3124856032
 40
0.3437382222
 40
0.3749907243
 40
0.4062431306
 40
0.4374954655
 40
0.468747746
 40
0.5
 40
0.531252254
 40
0.5625045345
 40
0.5937568694
 40
0.6250092757
 40
0.6562617778
 40
0.6875143968
 40
0.7187671475
 40
0.7500200297
 40
0.7812730563
 40
0.8125262338
 40
0.8750147935
 40
0.9375061141
 40
1.0
 40
1.0
 40
1.0
 40
1.0
 10
4.1187591766
 20
6.4202022142
 30
0.0
 10
4.1187060263
 20
6.4215463042
 30
0.0
 10
4.1187096526
 20
6.4242403315
 30
0.0
 10
4.119068991
 20
6.428264713
 30
0.0
 10
4.1196813565
 20
6.4315772367
 30
0.0
 10
4.1203667501
 20
6.4341798956
 30
0.0
 10
4.1209801269
 20
6.436103515
 30
0.0
 10
4.1216936579
 20
6.4379922657
 30
0.0
 10
4.1225076831
 20
6.4398399822
 30
0.0
 10
4.1234218935
 20
6.4416402675
 30
0.0
 10
4.1244352905
 20
6.4433866779
 30
0.0
 10
4.1255461498
 20
6.4450728001
 30
0.0
 10
4.1267520044
 20
6.4466923697
 30
0.0
 10
4.128049648
 20
6.4482393869
 30
0.0
 10
4.1294351707
 20
6.4497082279
 30
0.0
 10
4.1309040116
 20
6.4510937506
 30
0.0
 10
4.1324510289
 20
6.4523913942
 30
0.0
 10
4.1340705984
 20
6.4535972487
 30
0.0
 10
4.1357567206
 20
6.4547081081
 30
0.0
 10
4.1375031311
 20
6.455721505
 30
0.0
 10
4.1393034163
 20
6.4566357155
 30
0.0
 10
4.1411511328
 20
6.4574497407
 30
0.0
 10
4.1430398835
 20
6.4581632716
 30
0.0
 10
4.144963503
 20
6.4587766485
 30
0.0
 10
4.1475661618
 20
6.459462042
 30
0.0
 10
4.1508786856
 20
6.4600744075
 30
0.0
 10
4.154903067
 20
6.4604337459
 30
0.0
 10
4.1575970944
 20
6.4604373723
 30
0.0
 10
4.1589411844
 20
6.4603842219
 30
0.0
  0
SPLINE
  5
59B
100
AcDbEntity
  8
0
100
AcDbSpline
 62
7
  6
CONTINUOUS
 70
0
 71
3
 72
23
 73
19
 74
0
 42
0.0000001
 43
0.0000001
 44
0.0000000001
 40
0.0
 40
0.0
 40
0.0
 40
0.0
 40
0.0624238919
 40
0.1248714981
 40
0.1873434677
 40
0.2498393201
 40
0.3123571685
 40
0.3748934925
 40
0.4374432186
 40
0.5
 40
0.5625567814
 40
0.6251065075
 40
0.6876428315
 40
0.7501606799
 40
0.8126565323
 40
0.8751285019
 40
0.9375761081
 40
1.0
 40
1.0
 40
1.0
 40
1.0
 10
4.1100040262
 20
6.4289573645
 30
0.0
 10
4.1099542299
 20
6.4302983613
 30
0.0
 10
4.1099643705
 20
6.432986452
 30
0.0
 10
4.1103326683
 20
6.4370022007
 30
0.0
 10
4.1110751358
 20
6.4409684765
 30
0.0
 10
4.1122081388
 20
6.4448436038
 30
0.0
 10
4.1137410201
 20
6.4485809465
 30
0.0
 10
4.1156738636
 20
6.4521300231
 30
0.0
 10
4.117995722
 20
6.4554393042
 30
0.0
 10
4.1206838063
 20
6.4584595923
 30
0.0
 10
4.1237040944
 20
6.4611476765
 30
0.0
 10
4.1270133754
 20
6.4634695349
 30
0.0
 10
4.130562452
 20
6.4654023785
 30
0.0
 10
4.1342997947
 20
6.4669352597
 30
0.0
 10
4.138174922
 20
6.4680682627
 30
0.0
 10
4.1421411979
 20
6.4688107303
 30
0.0
 10
4.1461569466
 20
6.469179028
 30
0.0
 10
4.1488450373
 20
6.4691891687
 30
0.0
 10
4.150186034
 20
6.4691393723
 30
0.0
  0
LINE
  5
59C
100
AcDbEntity
  8
0
100
AcDbLine
 62
7
  6
CONTINUOUS
 10
4.0573781257
 20
5.8095034212
 11
4.0568235381
 21
5.810146586
  0
SPLINE
  5
59D
100
AcDbEntity
  8
0
100
AcDbSpline
 62
7
  6
CONTINUOUS
 70
0
 71
3
 72
23
 73
19
 74
0
 42
0.0000001
 43
0.0000001
 44
0.0000000001
 40
0.0
 40
0.0
 40
0.0
 40
0.0
 40
0.062169763
 40
0.1244420774
 40
0.1868199859
 40
0.2493016139
 40
0.3118788843
 40
0.3745366643
 40
0.4372529217
 40
0.5
 40
0.5627470783
 40
0.6254633357
 40
0.6881211157
 40
0.7506983861
 40
0.8131800141
 40
0.8755579226
 40
0.937830237
 40
1.0
 40
1.0
 40
1.0
 40
1.0
 10
4.1022378622
 20
6.4367235286
 30
0.0
 10
4.1021981034
 20
6.4380552757
 30
0.0
 10
4.1022277768
 20
6.4407257232
 30
0.0
 10
4.1026227045
 20
6.4447151385
 30
0.0
 10
4.1033887348
 20
6.4486580007
 30
0.0
 10
4.1045417635
 20
6.4525130261
 30
0.0
 10
4.1060906682
 20
6.4562339831
 30
0.0
 10
4.108035111
 20
6.459770792
 30
0.0
 10
4.1103638202
 20
6.4630722908
 30
0.0
 10
4.1130538285
 20
6.46608957
 30
0.0
 10
4.1160711078
 20
6.4687795784
 30
0.0
 10
4.1193726065
 20
6.4711082875
 30
0.0
 10
4.1229094154
 20
6.4730527303
 30
0.0
 10
4.1266303724
 20
6.474601635
 30
0.0
 10
4.1304853978
 20
6.4757546637
 30
0.0
 10
4.1344282601
 20
6.476520694
 30
0.0
 10
4.1384176753
 20
6.4769156218
 30
0.0
 10
4.1410881228
 20
6.4769452952
 30
0.0
 10
4.14241987
 20
6.4769055363
 30
0.0
  0
SPLINE
  5
59E
100
AcDbEntity
  8
0
100
AcDbSpline
 62
7
  6
CONTINUOUS
 70
0
 71
3
 72
23
 73
19
 74
0
 42
0.0000001
 43
0.0000001
 44
0.0000000001
 40
0.0
 40
0.0
 40
0.0
 40
0.0
 40
0.0617488294
 40
0.1237315419
 40
0.1859547008
 40
0.2484136612
 40
0.3110897083
 40
0.373948268
 40
0.4369392564
 40
0.5
 40
0.5630607436
 40
0.626051732
 40
0.6889102917
 40
0.7515863388
 40
0.8140452992
 40
0.8762684581
 40
0.9382511706
 40
1.0
 40
1.0
 40
1.0
 40
1.0
 10
4.0955354769
 20
6.4434259138
 30
0.0
 10
4.0955123664
 20
6.4447423452
 30
0.0
 10
4.0955744416
 20
6.4473835608
 30
0.0
 10
4.0960134631
 20
6.4513293465
 30
0.0
 10
4.0968184974
 20
6.4552334171
 30
0.0
 10
4.0980046646
 20
6.4590551439
 30
0.0
 10
4.0995800773
 20
6.46274897
 30
0.0
 10
4.1015437081
 20
6.466265481
 30
0.0
 10
4.103883756
 20
6.4695541175
 30
0.0
 10
4.1065769613
 20
6.4725664373
 30
0.0
 10
4.109589281
 20
6.4752596426
 30
0.0
 10
4.1128779176
 20
6.4775996905
 30
0.0
 10
4.1163944286
 20
6.4795633212
 30
0.0
 10
4.1200882547
 20
6.481138734
 30
0.0
 10
4.1239099815
 20
6.4823249012
 30
0.0
 10
4.1278140521
 20
6.4831299355
 30
0.0
 10
4.1317598377
 20
6.483568957
 30
0.0
 10
4.1344010534
 20
6.4836310321
 30
0.0
 10
4.1357174847
 20
6.4836079216
 30
0.0
  0
SPLINE
  5
59F
100
AcDbEntity
  8
0
100
AcDbSpline
 62
7
  6
CONTINUOUS
 70
0
 71
3
 72
23
 73
19
 74
0
 42
0.0000001
 43
0.0000001
 44
0.0000000001
 40
0.0
 40
0.0
 40
0.0
 40
0.0
 40
0.0611655247
 40
0.1227484819
 40
0.1847593716
 40
0.2471887499
 40
0.3100023783
 40
0.3731383329
 40
0.4365077482
 40
0.5
 40
0.5634922518
 40
0.6268616671
 40
0.6899976217
 40
0.7528112501
 40
0.8152406284
 40
0.8772515181
 40
0.9388344753
 40
1.0
 40
1.0
 40
1.0
 40
1.0
 10
4.0899614181
 20
6.4489999727
 30
0.0
 10
4.0899614471
 20
6.4502951691
 30
0.0
 10
4.0900685654
 20
6.4528958181
 30
0.0
 10
4.0905687099
 20
6.456781065
 30
0.0
 10
4.0914277893
 20
6.4606313121
 30
0.0
 10
4.0926598528
 20
6.4644068514
 30
0.0
 10
4.0942719652
 20
6.4680630695
 30
0.0
 10
4.0962621599
 20
6.4715514742
 30
0.0
 10
4.0986179178
 20
6.4748223296
 30
0.0
 10
4.1013155783
 20
6.4778278202
 30
0.0
 10
4.1043210689
 20
6.4805254808
 30
0.0
 10
4.1075919243
 20
6.4828812386
 30
0.0
 10
4.111080329
 20
6.4848714333
 30
0.0
 10
4.1147365472
 20
6.4864835457
 30
0.0
 10
4.1185120865
 20
6.4877156093
 30
0.0
 10
4.1223623336
 20
6.4885746887
 30
0.0
 10
4.1262475804
 20
6.4890748331
 30
0.0
 10
4.1288482294
 20
6.4891819514
 30
0.0
 10
4.1301434259
 20
6.4891819805
 30
0.0
  0
LINE
  5
5A0
100
AcDbEntity
  8
0
100
AcDbLine
 62
7
  6
CONTINUOUS
 10
4.1239777985
 20
5.7554487492
 11
4.1229426938
 21
5.7559657356
  0
SPLINE
  5
5A1
100
AcDbEntity
  8
0
100
AcDbSpline
 62
7
  6
CONTINUOUS
 70
0
 71
3
 72
23
 73
19
 74
0
 42
0.0000001
 43
0.0000001
 44
0.0000000001
 40
0.0
 40
0.0
 40
0.0
 40
0.0
 40
0.0604270926
 40
0.1215066165
 40
0.1832524212
 40
0.2456473699
 40
0.3086362888
 40
0.3721219887
 40
0.4359666857
 40
0.5
 40
0.5640333143
 40
0.6278780113
 40
0.6913637112
 40
0.7543526301
 40
0.8167475788
 40
0.8784933835
 40
0.9395729074
 40
1.0
 40
1.0
 40
1.0
 40
1.0
 10
4.0855693669
 20
6.4533920239
 30
0.0
 10
4.0855988632
 20
6.4546602658
 30
0.0
 10
4.0857633491
 20
6.4572093553
 30
0.0
 10
4.0863410376
 20
6.4610176926
 30
0.0
 10
4.0872686444
 20
6.464799569
 30
0.0
 10
4.0885588694
 20
6.4685164645
 30
0.0
 10
4.0902174693
 20
6.4721249742
 30
0.0
 10
4.0922413134
 20
6.475577773
 30
0.0
 10
4.0946169936
 20
6.4788261493
 30
0.0
 10
4.0973203473
 20
6.4818230512
 30
0.0
 10
4.1003172493
 20
6.484526405
 30
0.0
 10
4.1035656256
 20
6.4869020851
 30
0.0
 10
4.1070184243
 20
6.4889259292
 30
0.0
 10
4.1106269341
 20
6.4905845291
 30
0.0
 10
4.1143438295
 20
6.4918747542
 30
0.0
 10
4.1181257059
 20
6.4928023609
 30
0.0
 10
4.1219340432
 20
6.4933800494
 30
0.0
 10
4.1244831327
 20
6.4935445353
 30
0.0
 10
4.1257513747
 20
6.4935740317
 30
0.0
  0
SPLINE
  5
5A2
100
AcDbEntity
  8
0
100
AcDbSpline
 62
7
  6
CONTINUOUS
 70
0
 71
3
 72
23
 73
19
 74
0
 42
0.0000001
 43
0.0000001
 44
0.0000000001
 40
0.0
 40
0.0
 40
0.0
 40
0.0
 40
0.0595446438
 40
0.1200264871
 40
0.1814608638
 40
0.24381904
 40
0.3070189861
 40
0.3709205
 40
0.4353276433
 40
0.5
 40
0.5646723567
 40
0.6290795
 40
0.6929810139
 40
0.75618096
 40
0.8185391362
 40
0.8799735129
 40
0.9404553562
 40
1.0
 40
1.0
 40
1.0
 40
1.0
 10
4.0824016211
 20
6.4565597696
 30
0.0
 10
4.0824667078
 20
6.4577955822
 30
0.0
 10
4.0827004799
 20
6.4602825357
 30
0.0
 10
4.0833713521
 20
6.4639982808
 30
0.0
 10
4.084381253
 20
6.4676978632
 30
0.0
 10
4.0857412797
 20
6.4713442175
 30
0.0
 10
4.087455648
 20
6.4748954033
 30
0.0
 10
4.0895198652
 20
6.47830549
 30
0.0
 10
4.091919483
 20
6.4815269671
 30
0.0
 10
4.0946297416
 20
6.4845136569
 30
0.0
 10
4.0976164314
 20
6.4872239155
 30
0.0
 10
4.1008379086
 20
6.4896235333
 30
0.0
 10
4.1042479952
 20
6.4916877505
 30
0.0
 10
4.107799181
 20
6.4934021189
 30
0.0
 10
4.1114455353
 20
6.4947621455
 30
0.0
 10
4.1151451177
 20
6.4957720465
 30
0.0
 10
4.1188608629
 20
6.4964429187
 30
0.0
 10
4.1213478163
 20
6.4966766907
 30
0.0
 10
4.1225836289
 20
6.4967417774
 30
0.0
  0
SPLINE
  5
5A3
100
AcDbEntity
  8
0
100
AcDbSpline
 62
7
  6
CONTINUOUS
 70
0
 71
3
 72
23
 73
19
 74
0
 42
0.0000001
 43
0.0000001
 44
0.0000000001
 40
0.0
 40
0.0
 40
0.0
 40
0.0
 40
0.0585345104
 40
0.1183375796
 40
0.1794226696
 40
0.2417445101
 40
0.3051879451
 40
0.3695624851
 40
0.4346060947
 40
0.5
 40
0.5653939053
 40
0.6304375149
 40
0.6948120549
 40
0.7582554899
 40
0.8205773304
 40
0.8816624204
 40
0.9414654896
 40
1.0
 40
1.0
 40
1.0
 40
1.0
 10
4.080488688
 20
6.4584727027
 30
0.0
 10
4.0805952446
 20
6.4596708909
 30
0.0
 10
4.0809097234
 20
6.4620856057
 30
0.0
 10
4.0816884651
 20
6.4656939134
 30
0.0
 10
4.0827935604
 20
6.4692980442
 30
0.0
 10
4.0842342796
 20
6.4728626472
 30
0.0
 10
4.0860130972
 20
6.476347486
 30
0.0
 10
4.0881239872
 20
6.4797082289
 30
0.0
 10
4.0905513276
 20
6.482898716
 30
0.0
 10
4.0932696705
 20
6.485873728
 30
0.0
 10
4.0962446826
 20
6.488592071
 30
0.0
 10
4.0994351696
 20
6.4910194113
 30
0.0
 10
4.1027959125
 20
6.4931303014
 30
0.0
 10
4.1062807514
 20
6.4949091189
 30
0.0
 10
4.1098453543
 20
6.4963498381
 30
0.0
 10
4.1134494851
 20
6.4974549335
 30
0.0
 10
4.1170577928
 20
6.4982336752
 30
0.0
 10
4.1194725077
 20
6.498548154
 30
0.0
 10
4.1206706958
 20
6.4986547105
 30
0.0
  0
LINE
  5
5A4
100
AcDbEntity
  8
0
100
AcDbLine
 62
7
  6
CONTINUOUS
 10
4.0564392818
 20
5.8226411135
 11
4.055347824
 21
5.8231344
  0
SPLINE
  5
5A5
100
AcDbEntity
  8
0
100
AcDbSpline
 62
7
  6
CONTINUOUS
 70
0
 71
3
 72
26
 73
22
 74
0
 42
0.0000001
 43
0.0000001
 44
0.0000000001
 40
0.0
 40
0.0
 40
0.0
 40
0.0
 40
0.0312487118
 40
0.0624981541
 40
0.0937481688
 40
0.1249986165
 40
0.1562493886
 40
0.1875003986
 40
0.2499951992
 40
0.3124924259
 40
0.3749911243
 40
0.4374908167
 40
0.4999911036
 40
0.5624917646
 40
0.6249926761
 40
0.68749375
 40
0.7499949213
 40
0.8124961614
 40
0.8749974105
 40
0.937498732
 40
1.0
 40
1.0
 40
1.0
 40
1.0
 10
4.4557401995
 20
6.4901464874
 30
0.0
 10
4.4556907844
 20
6.4907546618
 30
0.0
 10
4.455553829
 20
6.4919681873
 30
0.0
 10
4.4552470043
 20
6.4937736711
 30
0.0
 10
4.45485001
 20
6.495561439
 30
0.0
 10
4.4543726191
 20
6.4973293074
 30
0.0
 10
4.4538232903
 20
6.4990760982
 30
0.0
 10
4.4530047451
 20
6.501375983
 30
0.0
 10
4.4518360368
 20
6.5041965395
 30
0.0
 10
4.4502429434
 20
6.5074945717
 30
0.0
 10
4.4484906099
 20
6.5107105631
 30
0.0
 10
4.4466038039
 20
6.5138492328
 30
0.0
 10
4.4446019993
 20
6.5169156375
 30
0.0
 10
4.4425006959
 20
6.519914574
 30
0.0
 10
4.4403122814
 20
6.5228504284
 30
0.0
 10
4.4380466748
 20
6.5257270415
 30
0.0
 10
4.4357117798
 20
6.5285476371
 30
0.0
 10
4.4333138243
 20
6.5313147677
 30
0.0
 10
4.4308576027
 20
6.5340302818
 30
0.0
 10
4.4283466861
 20
6.536695259
 30
0.0
 10
4.426637884
 20
6.5384384541
 30
0.0
 10
4.4257750439
 20
6.539301566
 30
0.0
  0
ENDSEC
  0
SECTION
  2
OBJECTS
  0
DICTIONARY
  5
C
100
AcDbDictionary
280
0
281
1
  3
ACAD_GROUP
350
D
  3
ACAD_MLINESTYLE
350
17
  3
ACAD_LAYOUT
350
1A
  3
ACAD_PLOTSETTINGS
350
19
  3
ACAD_PLOTSTYLENAME
350
E
  0
DICTIONARY
  5
D
102
{ACAD_REACTORS
330
C
102
}
100
AcDbDictionary
280
0
281
1
  0
ACDBDICTIONARYWDFLT
  5
E
102
{ACAD_REACTORS
330
C
102
}
100
AcDbDictionary
281
1
  3
Normal
350
F
100
AcDbDictionaryWithDefault
340
F
  0
DICTIONARY
  5
17
102
{ACAD_REACTORS
330
C
102
}
100
AcDbDictionary
280
0
281
1
  3
Standard
350
18
  0
DICTIONARY
  5
19
102
{ACAD_REACTORS
330
C
102
}
100
AcDbDictionary
281
1
  0
DICTIONARY
  5
1A
102
{ACAD_REACTORS
330
C
102
}
100
AcDbDictionary
281
1
  3
Model
350
5A6
  3
Layout1
350
5A7
  0
ACDBPLACEHOLDER
  5
F
102
{ACAD_REACTORS
330
E
102
}
  0
MLINESTYLE
  5
18
102
{ACAD_REACTORS
330
17
102
}
100
AcDbMlineStyle
  2
STANDARD
 70
0
  3

 62
256
 51
90.0
 52
90.0
 71
2
 49
0.5
 62
256
  6
BYLAYER
 49
-0.5
 62
256
  6
BYLAYER
  0
LAYOUT
  5
5A6
102
{ACAD_REACTORS
330
1A
102
}
100
AcDbPlotSettings
  1

  2
none_device
  4
ANSI_A_(11.00_x_8.50_Inches)
  6

 40
0.0
 41
0.0
 42
0.0
 43
0.0
 44
279.4
 45
215.9
 46
0.0
 47
0.0
 48
0.0
 49
0.0
140
0.0
141
0.0
142
1.0
143
1.0
 70
1024
 72
0
 73
0
 74
0
  7

 75
0
147
1.0
148
0.0
149
0.0
100
AcDbLayout
  1
Model
 70
0
 71
0
 10
0.0
 20
0.0
 11
11.0
 21
8.5
 12
0.0
 22
0.0
 32
0.0
 14
0.0
 24
0.0
 34
0.0
 15
0.0
 25
0.0
 35
0.0
146
0.0
 13
0.0
 23
0.0
 33
0.0
 16
1.0
 26
0.0
 36
0.0
 17
0.0
 27
1.0
 37
0.0
 76
0
330
202
345
0
346
0
  0
LAYOUT
  5
5A7
102
{ACAD_REACTORS
330
1A
102
}
100
AcDbPlotSettings
  1

  2
none_device
  4
ANSI_A_(11.00_x_8.50_Inches)
  6

 40
0.0
 41
0.0
 42
0.0
 43
0.0
 44
279.4
 45
215.9
 46
0.0
 47
0.0
 48
0.0
 49
0.0
140
0.0
141
0.0
142
1.0
143
1.0
 70
0
 72
0
 73
0
 74
0
  7

 75
0
147
1.0
148
0.0
149
0.0
100
AcDbLayout
  1
Layout1
 70
0
 71
1
 10
0.0
 20
0.0
 11
11.0
 21
8.5
 12
0.0
 22
0.0
 32
0.0
 14
0.0
 24
0.0
 34
0.0
 15
0.0
 25
0.0
 35
0.0
146
0.0
 13
0.0
 23
0.0
 33
0.0
 16
1.0
 26
0.0
 36
0.0
 17
0.0
 27
1.0
 37
0.0
 76
0
330
203
345
0
346
0
  0
ENDSEC
  0
EOF
