  0
SECTION
  2
HEADER
  9
$ACADVER
  1
AC1032
  9
$ACADMAINTVER
 90
      205
  9
$DWGCODEPAGE
  3
ANSI_1252
  9
$LASTSAVEDBY
  1
rwheeler
  9
$REQUIREDVERSIONS
160
                 0
  9
$INSBASE
 10
0.0
 20
0.0
 30
0.0
  9
$EXTMIN
 10
0.5905511811000001
 20
0.1968503937
 30
0.0
  9
$EXTMAX
 10
46.6141732283
 20
32.9133858268
 30
0.0
  9
$LIMMIN
 10
0.0
 20
0.0
  9
$LIMMAX
 10
46.81102362199999
 20
33.1102362205
  9
$ORTHOMODE
 70
     0
  9
$REGENMODE
 70
     1
  9
$FILLMODE
 70
     1
  9
$QTEXTMODE
 70
     0
  9
$MIRRTEXT
 70
     1
  9
$LTSCALE
 40
1.0
  9
$ATTMODE
 70
     1
  9
$TEXTSIZE
 40
0.1377952756
  9
$TRACEWID
 40
0.05
  9
$TEXTSTYLE
  7
Standard
  9
$CLAYER
  8
0
  9
$CELTYPE
  6
ByLayer
  9
$CECOLOR
 62
   256
  9
$CELTSCALE
 40
1.0
  9
$DISPSILH
 70
     0
  9
$DIMSCALE
 40
1.0
  9
$DIMASZ
 40
0.13
  9
$DIMEXO
 40
0.0393700787
  9
$DIMDLI
 40
0.38
  9
$DIMRND
 40
0.0
  9
$DIMDLE
 40
0.0
  9
$DIMEXE
 40
0.0393700787
  9
$DIMTP
 40
0.0
  9
$DIMTM
 40
0.0
  9
$DIMTXT
 40
0.1377952756
  9
$DIMCEN
 40
0.09
  9
$DIMTSZ
 40
0.0
  9
$DIMTOL
 70
     0
  9
$DIMLIM
 70
     0
  9
$DIMTIH
 70
     1
  9
$DIMTOH
 70
     1
  9
$DIMSE1
 70
     0
  9
$DIMSE2
 70
     0
  9
$DIMTAD
 70
     1
  9
$DIMZIN
 70
     1
  9
$DIMBLK
  1

  9
$DIMASO
 70
     1
  9
$DIMSHO
 70
     1
  9
$DIMPOST
  1

  9
$DIMAPOST
  1

  9
$DIMALT
 70
     0
  9
$DIMALTD
 70
     2
  9
$DIMALTF
 40
25.4
  9
$DIMLFAC
 40
2.0
  9
$DIMTOFL
 70
     0
  9
$DIMTVP
 40
0.0
  9
$DIMTIX
 70
     0
  9
$DIMSOXD
 70
     0
  9
$DIMSAH
 70
     0
  9
$DIMBLK1
  1

  9
$DIMBLK2
  1

  9
$DIMSTYLE
  2
Standard
  9
$DIMCLRD
 70
     0
  9
$DIMCLRE
 70
     0
  9
$DIMCLRT
 70
     0
  9
$DIMTFAC
 40
1.0
  9
$DIMGAP
 40
0.06
  9
$DIMJUST
 70
     0
  9
$DIMSD1
 70
     0
  9
$DIMSD2
 70
     0
  9
$DIMTOLJ
 70
     1
  9
$DIMTZIN
 70
     1
  9
$DIMALTZ
 70
     0
  9
$DIMALTTZ
 70
     0
  9
$DIMUPT
 70
     0
  9
$DIMDEC
 70
     2
  9
$DIMTDEC
 70
     2
  9
$DIMALTU
 70
     2
  9
$DIMALTTD
 70
     2
  9
$DIMTXSTY
  7
Standard
  9
$DIMAUNIT
 70
     0
  9
$DIMADEC
 70
     2
  9
$DIMALTRND
 40
0.0
  9
$DIMAZIN
 70
     0
  9
$DIMDSEP
 70
    46
  9
$DIMATFIT
 70
     3
  9
$DIMFRAC
 70
     0
  9
$DIMLDRBLK
  1

  9
$DIMLUNIT
 70
     2
  9
$DIMLWD
 70
    -2
  9
$DIMLWE
 70
    -2
  9
$DIMTMOVE
 70
     0
  9
$DIMFXL
 40
1.0
  9
$DIMFXLON
 70
     0
  9
$DIMJOGANG
 40
0.7853981633974483
  9
$DIMTFILL
 70
     0
  9
$DIMTFILLCLR
 70
     0
  9
$DIMARCSYM
 70
     0
  9
$DIMLTYPE
  6

  9
$DIMLTEX1
  6

  9
$DIMLTEX2
  6

  9
$DIMTXTDIRECTION
 70
     0
  9
$LUNITS
 70
     2
  9
$LUPREC
 70
     2
  9
$SKETCHINC
 40
0.1
  9
$FILLETRAD
 40
0.0
  9
$AUNITS
 70
     0
  9
$AUPREC
 70
     2
  9
$MENU
  1
.
  9
$ELEVATION
 40
0.0
  9
$PELEVATION
 40
0.0
  9
$THICKNESS
 40
0.0
  9
$LIMCHECK
 70
     0
  9
$CHAMFERA
 40
0.0
  9
$CHAMFERB
 40
0.0
  9
$CHAMFERC
 40
0.0
  9
$CHAMFERD
 40
0.0
  9
$SKPOLY
 70
     0
  9
$TDCREATE
 40
2460503.804583334
  9
$TDUCREATE
 40
2460503.971255857
  9
$TDUPDATE
 40
2460526.459965278
  9
$TDUUPDATE
 40
2460526.626631945
  9
$TDINDWG
 40
0.0032407523
  9
$TDUSRTIMER
 40
0.0032407523
  9
$USRTIMER
 70
     1
  9
$ANGBASE
 50
0.0
  9
$ANGDIR
 70
     0
  9
$PDMODE
 70
     0
  9
$PDSIZE
 40
-1.0
  9
$PLINEWID
 40
0.0
  9
$SPLFRAME
 70
     0
  9
$SPLINETYPE
 70
     6
  9
$SPLINESEGS
 70
     8
  9
$HANDSEED
  5
464
  9
$SURFTAB1
 70
     6
  9
$SURFTAB2
 70
     6
  9
$SURFTYPE
 70
     6
  9
$SURFU
 70
     6
  9
$SURFV
 70
     6
  9
$UCSBASE
  2

  9
$UCSNAME
  2

  9
$UCSORG
 10
0.0
 20
0.0
 30
0.0
  9
$UCSXDIR
 10
1.0
 20
0.0
 30
0.0
  9
$UCSYDIR
 10
0.0
 20
1.0
 30
0.0
  9
$UCSORTHOREF
  2

  9
$UCSORTHOVIEW
 70
     0
  9
$UCSORGTOP
 10
0.0
 20
0.0
 30
0.0
  9
$UCSORGBOTTOM
 10
0.0
 20
0.0
 30
0.0
  9
$UCSORGLEFT
 10
0.0
 20
0.0
 30
0.0
  9
$UCSORGRIGHT
 10
0.0
 20
0.0
 30
0.0
  9
$UCSORGFRONT
 10
0.0
 20
0.0
 30
0.0
  9
$UCSORGBACK
 10
0.0
 20
0.0
 30
0.0
  9
$PUCSBASE
  2

  9
$PUCSNAME
  2

  9
$PUCSORG
 10
0.0
 20
0.0
 30
0.0
  9
$PUCSXDIR
 10
1.0
 20
0.0
 30
0.0
  9
$PUCSYDIR
 10
0.0
 20
1.0
 30
0.0
  9
$PUCSORTHOREF
  2

  9
$PUCSORTHOVIEW
 70
     0
  9
$PUCSORGTOP
 10
0.0
 20
0.0
 30
0.0
  9
$PUCSORGBOTTOM
 10
0.0
 20
0.0
 30
0.0
  9
$PUCSORGLEFT
 10
0.0
 20
0.0
 30
0.0
  9
$PUCSORGRIGHT
 10
0.0
 20
0.0
 30
0.0
  9
$PUCSORGFRONT
 10
0.0
 20
0.0
 30
0.0
  9
$PUCSORGBACK
 10
0.0
 20
0.0
 30
0.0
  9
$USERI1
 70
     0
  9
$USERI2
 70
     0
  9
$USERI3
 70
     0
  9
$USERI4
 70
     0
  9
$USERI5
 70
     0
  9
$USERR1
 40
0.0
  9
$USERR2
 40
0.0
  9
$USERR3
 40
0.0
  9
$USERR4
 40
0.0
  9
$USERR5
 40
0.0
  9
$WORLDVIEW
 70
     1
  9
$SHADEDGE
 70
     3
  9
$SHADEDIF
 70
    70
  9
$TILEMODE
 70
     1
  9
$MAXACTVP
 70
    64
  9
$PINSBASE
 10
0.0
 20
0.0
 30
0.0
  9
$PLIMCHECK
 70
     0
  9
$PEXTMIN
 10
1.000000000000000E+20
 20
1.000000000000000E+20
 30
1.000000000000000E+20
  9
$PEXTMAX
 10
-1.000000000000000E+20
 20
-1.000000000000000E+20
 30
-1.000000000000000E+20
  9
$PLIMMIN
 10
0.0
 20
0.0
  9
$PLIMMAX
 10
12.0
 20
9.0
  9
$UNITMODE
 70
     0
  9
$VISRETAIN
 70
     1
  9
$PLINEGEN
 70
     0
  9
$PSLTSCALE
 70
     1
  9
$TREEDEPTH
 70
  3020
  9
$CMLSTYLE
  2
Standard
  9
$CMLJUST
 70
     0
  9
$CMLSCALE
 40
1.0
  9
$PROXYGRAPHICS
 70
     1
  9
$MEASUREMENT
 70
     0
  9
$CELWEIGHT
370
    -1
  9
$ENDCAPS
280
     0
  9
$JOINSTYLE
280
     0
  9
$LWDISPLAY
290
     1
  9
$INSUNITS
 70
     1
  9
$HYPERLINKBASE
  1

  9
$STYLESHEET
  1

  9
$XEDIT
290
     1
  9
$CEPSNTYPE
380
     0
  9
$PSTYLEMODE
290
     1
  9
$FINGERPRINTGUID
  2
{A2B93C54-5605-46DC-9BB4-E4A5384F28F7}
  9
$VERSIONGUID
  2
{D22BFFDE-5F7C-2741-AE2C-B0CD78BACDFC}
  9
$EXTNAMES
290
     1
  9
$PSVPSCALE
 40
0.0
  9
$OLESTARTUP
290
     0
  9
$SORTENTS
280
   127
  9
$INDEXCTL
280
     0
  9
$HIDETEXT
280
     0
  9
$XCLIPFRAME
280
     2
  9
$HALOGAP
280
     0
  9
$OBSCOLOR
 70
   257
  9
$OBSLTYPE
280
     0
  9
$INTERSECTIONDISPLAY
280
     0
  9
$INTERSECTIONCOLOR
 70
   257
  9
$DIMASSOC
280
     1
  9
$PROJECTNAME
  1

  9
$CAMERADISPLAY
290
     0
  9
$LENSLENGTH
 40
50.0
  9
$CAMERAHEIGHT
 40
0.0
  9
$STEPSPERSEC
 40
2.0
  9
$STEPSIZE
 40
6.0
  9
$3DDWFPREC
 40
2.0
  9
$PSOLWIDTH
 40
0.25
  9
$PSOLHEIGHT
 40
4.0
  9
$LOFTANG1
 40
1.570796326794896
  9
$LOFTANG2
 40
1.570796326794896
  9
$LOFTMAG1
 40
0.0
  9
$LOFTMAG2
 40
0.0
  9
$LOFTPARAM
 70
     7
  9
$LOFTNORMALS
280
     1
  9
$LATITUDE
 40
37.795
  9
$LONGITUDE
 40
-122.394
  9
$NORTHDIRECTION
 40
0.0
  9
$TIMEZONE
 70
 -8000
  9
$LIGHTGLYPHDISPLAY
280
     1
  9
$TILEMODELIGHTSYNCH
280
     1
  9
$CMATERIAL
347
40C
  9
$SOLIDHIST
280
     0
  9
$SHOWHIST
280
     1
  9
$DWFFRAME
280
     2
  9
$DGNFRAME
280
     0
  9
$REALWORLDSCALE
290
     1
  9
$INTERFERECOLOR
 62
     1
  9
$INTERFEREOBJVS
345
42E
  9
$INTERFEREVPVS
346
42B
  9
$CSHADOW
280
     0
  9
$SHADOWPLANELOCATION
 40
0.0
  0
ENDSEC
  0
SECTION
  2
CLASSES
  0
CLASS
  1
ACDBDICTIONARYWDFLT
  2
AcDbDictionaryWithDefault
  3
ObjectDBX Classes
 90
        0
 91
        1
280
     0
281
     0
  0
CLASS
  1
VISUALSTYLE
  2
AcDbVisualStyle
  3
ObjectDBX Classes
 90
     4095
 91
       24
280
     0
281
     0
  0
CLASS
  1
MATERIAL
  2
AcDbMaterial
  3
ObjectDBX Classes
 90
     1153
 91
        3
280
     0
281
     0
  0
CLASS
  1
SCALE
  2
AcDbScale
  3
ObjectDBX Classes
 90
     1153
 91
       17
280
     0
281
     0
  0
CLASS
  1
TABLESTYLE
  2
AcDbTableStyle
  3
ObjectDBX Classes
 90
     4095
 91
        1
280
     0
281
     0
  0
CLASS
  1
MLEADERSTYLE
  2
AcDbMLeaderStyle
  3
ACDB_MLEADERSTYLE_CLASS
 90
     4095
 91
        1
280
     0
281
     0
  0
CLASS
  1
SUN
  2
AcDbSun
  3
SCENEOE
 90
     1153
 91
        0
280
     0
281
     0
  0
CLASS
  1
ACDBSECTIONVIEWSTYLE
  2
AcDbSectionViewStyle
  3
ObjectDBX Classes
 90
     1025
 91
        1
280
     0
281
     0
  0
CLASS
  1
ACDBDETAILVIEWSTYLE
  2
AcDbDetailViewStyle
  3
ObjectDBX Classes
 90
     1025
 91
        1
280
     0
281
     0
  0
CLASS
  1
DICTIONARYVAR
  2
AcDbDictionaryVar
  3
ObjectDBX Classes
 90
        0
 91
        9
280
     0
281
     0
  0
CLASS
  1
CELLSTYLEMAP
  2
AcDbCellStyleMap
  3
ObjectDBX Classes
 90
     1152
 91
        1
280
     0
281
     0
  0
ENDSEC
  0
SECTION
  2
TABLES
  0
TABLE
  2
VPORT
  5
8
330
0
100
AcDbSymbolTable
 70
     1
  0
VPORT
  5
29
330
8
100
AcDbSymbolTableRecord
100
AcDbViewportTableRecord
  2
*Active
 70
     0
 10
0.0
 20
0.0
 11
1.0
 21
1.0
 12
22.98777615781336
 22
19.19360003946812
 13
0.0
 23
0.0
 14
0.5
 24
0.5
 15
0.5
 25
0.5
 16
0.0
 26
0.0
 36
1.0
 17
0.0
 27
0.0
 37
0.0
 40
10.81593827294847
 41
2.334149326805385
 42
50.0
 43
0.0
 44
0.0
 50
0.0
 51
0.0
 71
     0
 72
  2000
 73
     1
 74
     3
 75
     0
 76
     0
 77
     0
 78
     0
281
     0
 65
     1
110
0.0
120
0.0
130
0.0
111
1.0
121
0.0
131
0.0
112
0.0
122
1.0
132
0.0
 79
     0
146
0.0
348
42A
 60
     3
 61
     5
292
     1
282
     1
141
0.0
142
0.0
 63
   250
421
  3355443
1001
ACAD_NAV_VCDISPLAY
1070
     3
  0
ENDTAB
  0
TABLE
  2
LTYPE
  5
5
330
0
100
AcDbSymbolTable
 70
     6
  0
LTYPE
  5
14
330
5
100
AcDbSymbolTableRecord
100
AcDbLinetypeTableRecord
  2
ByBlock
 70
     0
  3

 72
    65
 73
     0
 40
0.0
  0
LTYPE
  5
15
330
5
100
AcDbSymbolTableRecord
100
AcDbLinetypeTableRecord
  2
ByLayer
 70
     0
  3

 72
    65
 73
     0
 40
0.0
  0
LTYPE
  5
16
330
5
100
AcDbSymbolTableRecord
100
AcDbLinetypeTableRecord
  2
Continuous
 70
     0
  3
Solid line
 72
    65
 73
     0
 40
0.0
  0
LTYPE
  5
5E
330
5
100
AcDbSymbolTableRecord
100
AcDbLinetypeTableRecord
  2
HIDDEN
 70
     0
  3
Hidden __ __ __ __ __ __ __ __ __ __ __ __ __ __
 72
    65
 73
     2
 40
0.075
 49
0.05
 74
     0
 49
-0.025
 74
     0
  0
LTYPE
  5
5F
330
5
100
AcDbSymbolTableRecord
100
AcDbLinetypeTableRecord
  2
PHANTOM
 70
     0
  3
Phantom ______  __  __  ______  __  __  ______
 72
    65
 73
     6
 40
0.5
 49
0.25
 74
     0
 49
-0.05
 74
     0
 49
0.05
 74
     0
 49
-0.05
 74
     0
 49
0.05
 74
     0
 49
-0.05
 74
     0
  0
LTYPE
  5
60
330
5
100
AcDbSymbolTableRecord
100
AcDbLinetypeTableRecord
  2
CENTER
 70
     0
  3
Center ____ _ ____ _ ____ _ ____ _ ____ _ ____
 72
    65
 73
     4
 40
0.4
 49
0.25
 74
     0
 49
-0.05
 74
     0
 49
0.05
 74
     0
 49
-0.05
 74
     0
  0
LTYPE
  5
61
330
5
100
AcDbSymbolTableRecord
100
AcDbLinetypeTableRecord
  2
CENTERX2
 70
     0
  3
Center (2x) ________  __  ________  __  _____
 72
    65
 73
     4
 40
0.8
 49
0.5
 74
     0
 49
-0.1
 74
     0
 49
0.1
 74
     0
 49
-0.1
 74
     0
  0
LTYPE
  5
62
330
5
100
AcDbSymbolTableRecord
100
AcDbLinetypeTableRecord
  2
DOT2
 70
     0
  3
Dot (.5x) ........................................
 72
    65
 73
     2
 40
0.025
 49
0.0
 74
     0
 49
-0.025
 74
     0
  0
ENDTAB
  0
TABLE
  2
LAYER
  5
2
102
{ACAD_XDICTIONARY
360
450
102
}
330
0
100
AcDbSymbolTable
 70
     2
  0
LAYER
  5
10
102
{ACAD_XDICTIONARY
360
449
102
}
330
2
100
AcDbSymbolTableRecord
100
AcDbLayerTableRecord
  2
0
 70
     0
 62
     7
  6
Continuous
370
    -3
390
F
347
41C
348
0
  0
LAYER
  5
63
102
{ACAD_XDICTIONARY
360
44B
102
}
330
2
100
AcDbSymbolTableRecord
100
AcDbLayerTableRecord
  2
FORMAT
 70
     0
 62
     7
  6
Continuous
370
    -3
390
F
347
41C
348
0
  0
ENDTAB
  0
TABLE
  2
STYLE
  5
3
330
0
100
AcDbSymbolTable
 70
     4
  0
STYLE
  5
11
330
3
100
AcDbSymbolTableRecord
100
AcDbTextStyleTableRecord
  2
Standard
 70
     0
 40
0.0
 41
1.0
 50
0.0
 71
     0
 42
0.1377952756
  3
txt
  4

  0
STYLE
  5
D5
330
3
100
AcDbSymbolTableRecord
100
AcDbTextStyleTableRecord
  2
SLDTEXTSTYLE0
 70
     0
 40
0.0
 41
0.75
 50
0.0
 71
     0
 42
0.1377952756
  3
TXT
  4

  0
STYLE
  5
126
330
3
100
AcDbSymbolTableRecord
100
AcDbTextStyleTableRecord
  2
SLDTEXTSTYLE1
 70
     0
 40
0.0
 41
0.6864493306
 50
0.0
 71
     0
 42
0.1377952756
  3
TXT
  4

  0
STYLE
  5
13F
330
3
100
AcDbSymbolTableRecord
100
AcDbTextStyleTableRecord
  2
SLDTEXTSTYLE2
 70
     0
 40
0.0
 41
0.6875
 50
0.0
 71
     0
 42
0.1377952756
  3
TXT
  4

  0
ENDTAB
  0
TABLE
  2
VIEW
  5
6
330
0
100
AcDbSymbolTable
 70
     1
  0
ENDTAB
  0
TABLE
  2
UCS
  5
7
330
0
100
AcDbSymbolTable
 70
     0
  0
ENDTAB
  0
TABLE
  2
APPID
  5
9
330
0
100
AcDbSymbolTable
 70
     2
  0
APPID
  5
12
330
9
100
AcDbSymbolTableRecord
100
AcDbRegAppTableRecord
  2
ACAD
 70
     0
  0
APPID
  5
460
330
9
100
AcDbSymbolTableRecord
100
AcDbRegAppTableRecord
  2
ACAD_NAV_VCDISPLAY
 70
     0
  0
ENDTAB
  0
TABLE
  2
DIMSTYLE
  5
A
330
0
100
AcDbSymbolTable
 70
     1
100
AcDbDimStyleTable
 71
     0
  0
DIMSTYLE
105
27
330
A
100
AcDbSymbolTableRecord
100
AcDbDimStyleTableRecord
  2
Standard
 70
     0
340
11
  0
ENDTAB
  0
TABLE
  2
BLOCK_RECORD
  5
1
330
0
100
AcDbSymbolTable
 70
     1
  0
BLOCK_RECORD
  5
1F
330
1
100
AcDbSymbolTableRecord
100
AcDbBlockTableRecord
  2
*Model_Space
340
22
 70
     0
280
     1
281
     0
  0
BLOCK_RECORD
  5
1B
330
1
100
AcDbSymbolTableRecord
100
AcDbBlockTableRecord
  2
*Paper_Space
340
1E
 70
     0
280
     1
281
     0
  0
BLOCK_RECORD
  5
23
330
1
100
AcDbSymbolTableRecord
100
AcDbBlockTableRecord
  2
*Paper_Space0
340
26
 70
     0
280
     1
281
     0
  0
ENDTAB
  0
ENDSEC
  0
SECTION
  2
BLOCKS
  0
BLOCK
  5
20
330
1F
100
AcDbEntity
  8
0
100
AcDbBlockBegin
  2
*Model_Space
 70
     0
 10
0.0
 20
0.0
 30
0.0
  3
*Model_Space
  1

  0
ENDBLK
  5
21
330
1F
100
AcDbEntity
  8
0
100
AcDbBlockEnd
  0
BLOCK
  5
1C
330
1B
100
AcDbEntity
 67
     1
  8
0
100
AcDbBlockBegin
  2
*Paper_Space
 70
     0
 10
0.0
 20
0.0
 30
0.0
  3
*Paper_Space
  1

  0
ENDBLK
  5
1D
330
1B
100
AcDbEntity
 67
     1
  8
0
100
AcDbBlockEnd
  0
BLOCK
  5
24
330
23
100
AcDbEntity
 67
     1
  8
0
100
AcDbBlockBegin
  2
*Paper_Space0
 70
     0
 10
0.0
 20
0.0
 30
0.0
  3
*Paper_Space0
  1

  0
ENDBLK
  5
25
330
23
100
AcDbEntity
 67
     1
  8
0
100
AcDbBlockEnd
  0
ENDSEC
  0
SECTION
  2
ENTITIES
  0
CIRCLE
  5
144
330
1F
100
AcDbEntity
  8
0
  6
Continuous
 62
     7
100
AcDbCircle
 10
24.9966712343
 20
18.2573187763
 30
0.0
 40
0.2385534495268597
  0
CIRCLE
  5
145
330
1F
100
AcDbEntity
  8
0
  6
Continuous
 62
     7
100
AcDbCircle
 10
24.9966712343
 20
18.2573187763
 30
0.0
 40
0.2539370078740152
  0
CIRCLE
  5
146
330
1F
100
AcDbEntity
  8
0
  6
Continuous
 62
     7
100
AcDbCircle
 10
24.9966712343
 20
18.2573187763
 30
0.0
 40
0.2559055118110256
  0
CIRCLE
  5
147
330
1F
100
AcDbEntity
  8
0
  6
Continuous
 62
     7
100
AcDbCircle
 10
24.9966712343
 20
18.2573187763
 30
0.0
 40
0.2677165354330733
  0
CIRCLE
  5
148
330
1F
100
AcDbEntity
  8
0
  6
CENTERX2
 62
     7
100
AcDbCircle
 10
24.9966712343
 20
16.8793660204
 30
0.0
 40
0.4970472440944875
  0
CIRCLE
  5
149
330
1F
100
AcDbEntity
  8
0
  6
CENTERX2
 62
     7
100
AcDbCircle
 10
24.9966712343
 20
16.8793660204
 30
0.0
 40
0.5088582677165387
  0
SPLINE
  5
14A
330
1F
100
AcDbEntity
  8
0
  6
Continuous
 62
     7
370
    25
100
AcDbSpline
210
0.0
220
0.0
230
1.0
 70
     8
 71
     3
 72
    11
 73
     7
 74
     0
 42
0.00000001
 43
0.0000000001
 40
0.0
 40
0.0
 40
0.0
 40
0.0
 40
0.2431342850754983
 40
0.5000123000444613
 40
0.7568841713522704
 40
1.0
 40
1.0
 40
1.0
 40
1.0
 10
24.87369868700056
 20
16.40895332876181
 30
0.0
 10
24.87567980834113
 20
16.40823359264285
 30
0.0
 10
24.87975403850518
 20
16.40675343564996
 30
0.0
 10
24.88456595819586
 20
16.40214566566146
 30
0.0
 10
24.88780666915602
 20
16.39632449705336
 30
0.0
 10
24.88820827302618
 20
16.3920076933486
 30
0.0
 10
24.88840355034539
 20
16.38990867509297
 30
0.0
  0
SPLINE
  5
14B
330
1F
100
AcDbEntity
  8
0
  6
Continuous
 62
     7
370
    25
100
AcDbSpline
210
0.0
220
0.0
230
1.0
 70
     8
 71
     3
 72
    11
 73
     7
 74
     0
 42
0.00000001
 43
0.0000000001
 40
0.0
 40
0.0
 40
0.0
 40
0.0
 40
0.243117394896652
 40
0.4999918035125603
 40
0.7568703065722141
 40
1.0
 40
1.0
 40
1.0
 40
1.0
 10
25.10493895898274
 20
16.38990868892066
 30
0.0
 10
25.10513423692895
 20
16.39200770878552
 30
0.0
 10
25.10553584279739
 20
16.3963245234186
 30
0.0
 10
25.10877662182187
 20
16.40214567326719
 30
0.0
 10
25.11358862289198
 20
16.40675346244677
 30
0.0
 10
25.11766308589324
 20
16.40823369762073
 30
0.0
 10
25.11964429929602
 20
16.40895346406971
 30
0.0
  0
LINE
  5
14C
330
1F
100
AcDbEntity
  8
0
  6
Continuous
 62
     7
370
    25
100
AcDbLine
 10
24.8884035178
 20
16.389968195
 30
0.0
 11
24.8884035178
 21
15.7238542093
 31
0.0
  0
LINE
  5
14D
330
1F
100
AcDbEntity
  8
0
  6
Continuous
 62
     7
370
    25
100
AcDbLine
 10
25.10493895090001
 20
15.7238542093
 30
0.0
 11
25.10493895090001
 21
16.389968195
 31
0.0
  0
ARC
  5
14E
330
1F
100
AcDbEntity
  8
0
  6
Continuous
 62
     7
370
    25
100
AcDbCircle
 10
25.0891909194
 20
15.7238542093
 30
0.0
 40
0.0157480314960665
100
AcDbArc
 50
270.0
 51
0.0
  0
ARC
  5
14F
330
1F
100
AcDbEntity
  8
0
  6
Continuous
 62
     7
370
    25
100
AcDbCircle
 10
24.9041515493
 20
15.7238542093
 30
0.0
 40
0.015748031496063
100
AcDbArc
 50
180.0
 51
270.0
  0
LINE
  5
150
330
1F
100
AcDbEntity
  8
0
  6
Continuous
 62
     7
370
    25
100
AcDbLine
 10
24.9425373761
 20
18.017284359
 30
0.0
 11
24.9425373761
 21
18.0171389014
 31
0.0
  0
LINE
  5
151
330
1F
100
AcDbEntity
  8
0
  6
Continuous
 62
     7
370
    25
100
AcDbLine
 10
25.0508050926
 20
18.0171389014
 30
0.0
 11
25.0508050926
 21
18.017284359
 31
0.0
  0
ARC
  5
152
330
1F
100
AcDbEntity
  8
0
  6
Continuous
 62
     7
370
    25
100
AcDbCircle
 10
24.9336791084
 20
19.1766101149
 30
0.0
 40
0.015748031496063
100
AcDbArc
 50
90.0
 51
180.0
  0
ARC
  5
153
330
1F
100
AcDbEntity
  8
0
  6
Continuous
 62
     7
370
    25
100
AcDbCircle
 10
25.05966336030001
 20
19.1766101149
 30
0.0
 40
0.0157480314960665
100
AcDbArc
 50
0.0
 51
90.0
  0
LINE
  5
154
330
1F
100
AcDbEntity
  8
0
  6
Continuous
 62
     7
370
    25
100
AcDbLine
 10
25.0754113918
 20
18.4904431716
 30
0.0
 11
25.0754113918
 21
19.1766101149
 31
0.0
  0
LINE
  5
155
330
1F
100
AcDbEntity
  8
0
  6
Continuous
 62
     7
370
    25
100
AcDbLine
 10
24.9179310769
 20
19.1766101149
 30
0.0
 11
24.9179310769
 21
18.4904431716
 31
0.0
  0
LINE
  5
156
330
1F
100
AcDbEntity
  8
0
  6
Continuous
 62
     7
370
    25
100
AcDbLine
 10
23.4803747832
 20
16.4577941627
 30
0.0
 11
23.4807412145
 21
16.4593927531
 31
0.0
  0
LINE
  5
157
330
1F
100
AcDbEntity
  8
0
  6
Continuous
 62
     7
370
    25
100
AcDbLine
 10
24.0052818209
 20
15.9346617775
 30
0.0
 11
24.0036828405
 21
15.9342958674
 31
0.0
  0
LINE
  5
158
330
1F
100
AcDbEntity
  8
0
  6
Continuous
 62
     7
370
    25
100
AcDbLine
 10
26.512479207
 20
18.4434160828
 30
0.0
 11
26.5121135623
 21
18.4418173124
 31
0.0
  0
LINE
  5
159
330
1F
100
AcDbEntity
  8
0
  6
Continuous
 62
     7
370
    25
100
AcDbLine
 10
25.9873148435
 20
18.9662901422
 30
0.0
 11
25.9889136437
 21
18.966656839
 31
0.0
  0
LINE
  5
15A
330
1F
100
AcDbEntity
  8
0
  6
Continuous
 62
     7
370
    25
100
AcDbLine
 10
25.9891231518
 20
15.9339448206
 30
0.0
 11
25.9875245581
 21
15.9343112373
 31
0.0
  0
LINE
  5
15B
330
1F
100
AcDbEntity
  8
0
  6
Continuous
 62
     7
370
    25
100
AcDbLine
 10
26.5122507189
 20
16.4588566602
 30
0.0
 11
26.5126166436
 21
16.4572576831
 31
0.0
  0
LINE
  5
15C
330
1F
100
AcDbEntity
  8
0
  6
Continuous
 62
     7
370
    25
100
AcDbLine
 10
24.0041851078
 20
18.9664971123
 30
0.0
 11
24.0057837098
 21
18.9661307317
 31
0.0
  0
LINE
  5
15D
330
1F
100
AcDbEntity
  8
0
  6
Continuous
 62
     7
370
    25
100
AcDbLine
 10
23.4810693836
 20
18.4415734704
 30
0.0
 11
23.4807034227
 21
18.4431724392
 31
0.0
  0
ARC
  5
15E
330
1F
100
AcDbEntity
  8
0
  6
Continuous
 62
     7
370
    25
100
AcDbCircle
 10
24.9966712343
 20
16.8793660204
 30
0.0
 40
0.4928456297554303
100
AcDbArc
 50
314.9518560463
 51
256.7110345185
  0
ARC
  5
15F
330
1F
100
AcDbEntity
  8
0
  6
Continuous
 62
     7
370
    25
100
AcDbCircle
 10
24.9966712343
 20
16.8793660204
 30
0.0
 40
0.4928456297554303
100
AcDbArc
 50
283.253326947
 51
314.9518560463
  0
ARC
  5
160
330
1F
100
AcDbEntity
  8
0
  6
Continuous
 62
     7
370
    25
100
AcDbCircle
 10
24.9966712343
 20
18.2573187763
 30
0.0
 40
0.2517038974719636
100
AcDbArc
 50
108.2297731326
 51
71.77022686739999
  0
CIRCLE
  5
161
330
1F
100
AcDbEntity
  8
0
  6
Continuous
 62
     7
370
    25
100
AcDbCircle
 10
24.9966712343
 20
17.4502321621
 30
0.0
 40
1.781496062992126
  0
ARC
  5
162
330
1F
100
AcDbEntity
  8
0
  6
Continuous
 62
     7
370
    25
100
AcDbCircle
 10
24.9966712343
 20
18.2573187763
 30
0.0
 40
0.2559055118110238
100
AcDbArc
 50
0.0
 51
72.07978686060001
  0
ARC
  5
163
330
1F
100
AcDbEntity
  8
0
  6
Continuous
 62
     7
370
    25
100
AcDbCircle
 10
24.9966712343
 20
18.2573187763
 30
0.0
 40
0.2559055118110238
100
AcDbArc
 50
107.9202131394
 51
0.0
  0
ARC
  5
164
330
1F
100
AcDbEntity
  8
0
  6
Continuous
 62
     7
370
    25
100
AcDbCircle
 10
24.9966712343
 20
16.8793660204
 30
0.0
 40
0.4970472440944893
100
AcDbArc
 50
0.0
 51
257.303087618
  0
ARC
  5
165
330
1F
100
AcDbEntity
  8
0
  6
Continuous
 62
     7
370
    25
100
AcDbCircle
 10
24.9966712343
 20
16.8793660204
 30
0.0
 40
0.497047244094489
100
AcDbArc
 50
282.6957841853
 51
0.0
  0
LINE
  5
166
330
1F
100
AcDbEntity
  8
0
  6
Continuous
 62
     7
370
    25
100
AcDbLine
 10
24.8884035178
 20
15.8379163678
 30
0.0
 11
24.8588674149
 21
15.8379163678
 31
0.0
  0
LINE
  5
167
330
1F
100
AcDbEntity
  8
0
  6
Continuous
 62
     7
370
    25
100
AcDbLine
 10
24.8588674149
 20
15.8379163678
 30
0.0
 11
24.8588674149
 21
15.8161878522
 31
0.0
  0
LINE
  5
168
330
1F
100
AcDbEntity
  8
0
  6
Continuous
 62
     7
370
    25
100
AcDbLine
 10
24.8588674149
 20
15.8161878522
 30
0.0
 11
24.8666053164
 21
15.8161878522
 31
0.0
  0
LINE
  5
169
330
1F
100
AcDbEntity
  8
0
  6
Continuous
 62
     7
370
    25
100
AcDbLine
 10
24.8666053164
 20
15.8161878522
 30
0.0
 11
24.8666053164
 21
15.818575005
 31
0.0
  0
SPLINE
  5
16A
330
1F
100
AcDbEntity
  8
0
  6
Continuous
 62
     7
370
    25
100
AcDbSpline
210
0.0
220
0.0
230
1.0
 70
     8
 71
     3
 72
    13
 73
     9
 74
     0
 42
0.00000001
 43
0.0000000001
 40
0.0
 40
0.0
 40
0.0
 40
0.0
 40
0.2038941221625809
 40
0.3758799226279306
 40
0.5257788957169321
 40
0.660494325800282
 40
0.8474514235922484
 40
1.0
 40
1.0
 40
1.0
 40
1.0
 10
24.86660531641279
 20
15.81857500500304
 30
0.0
 10
24.86666437706593
 20
15.81975583099016
 30
0.0
 10
24.86677325570106
 20
15.82193269011669
 30
0.0
 10
24.86775067533357
 20
15.82484666290794
 30
0.0
 10
24.86916528063591
 20
15.82710436000109
 30
0.0
 10
24.87114902385068
 20
15.82899197512821
 30
0.0
 10
24.87360983253977
 20
15.83036272332461
 30
0.0
 10
24.87557108207667
 20
15.83058653042391
 30
0.0
 10
24.87645232161866
 20
15.83068709267362
 30
0.0
  0
LINE
  5
16B
330
1F
100
AcDbEntity
  8
0
  6
Continuous
 62
     7
370
    25
100
AcDbLine
 10
24.8764523216
 20
15.8306870927
 30
0.0
 11
24.8830441185
 21
15.8306870927
 31
0.0
  0
LINE
  5
16C
330
1F
100
AcDbEntity
  8
0
  6
Continuous
 62
     7
370
    25
100
AcDbLine
 10
24.8830441185
 20
15.8306870927
 30
0.0
 11
24.8830441185
 21
15.7910278045
 31
0.0
  0
SPLINE
  5
16D
330
1F
100
AcDbEntity
  8
0
  6
Continuous
 62
     7
370
    25
100
AcDbSpline
210
0.0
220
0.0
230
1.0
 70
     8
 71
     3
 72
    11
 73
     7
 74
     0
 42
0.00000001
 43
0.0000000001
 40
0.0
 40
0.0
 40
0.0
 40
0.0
 40
0.2834104326915119
 40
0.5585457398125821
 40
0.7759816996465198
 40
1.0
 40
1.0
 40
1.0
 40
1.0
 10
24.88304411849203
 20
15.79102780448909
 30
0.0
 10
24.88296821465758
 20
15.79045168611263
 30
0.0
 10
24.88281862325774
 20
15.78931627108311
 30
0.0
 10
24.88178200776893
 20
15.78805729059358
 30
0.0
 10
24.88052101435425
 20
15.78728877688964
 30
0.0
 10
24.87962597126501
 20
15.78719584168669
 30
0.0
 10
24.87917177691312
 20
15.78714868122617
 30
0.0
  0
LINE
  5
16E
330
1F
100
AcDbEntity
  8
0
  6
Continuous
 62
     7
370
    25
100
AcDbLine
 10
24.8791717769
 20
15.7871486812
 30
0.0
 11
24.8709591576
 21
15.7871486812
 31
0.0
  0
LINE
  5
16F
330
1F
100
AcDbEntity
  8
0
  6
Continuous
 62
     7
370
    25
100
AcDbLine
 10
24.8709591576
 20
15.7871486812
 30
0.0
 11
24.8709591576
 21
15.7799194061
 31
0.0
  0
LINE
  5
170
330
1F
100
AcDbEntity
  8
0
  6
Continuous
 62
     7
370
    25
100
AcDbLine
 10
24.36804303360001
 20
18.3089721398
 30
0.0
 11
24.3698198348
 21
18.2946695682
 31
0.0
  0
SPLINE
  5
171
330
1F
100
AcDbEntity
  8
0
  6
Continuous
 62
     7
370
    25
100
AcDbSpline
210
0.0
220
0.0
230
1.0
 70
     8
 71
     3
 72
     9
 73
     5
 74
     0
 42
0.00000001
 43
0.0000000001
 40
0.0
 40
0.0
 40
0.0
 40
0.0
 40
0.5918583285501892
 40
1.0
 40
1.0
 40
1.0
 40
1.0
 10
24.36981983476615
 20
18.2946695681861
 30
0.0
 10
24.37465514704562
 20
18.29717073719814
 30
0.0
 10
24.38282485936732
 20
18.30139669616739
 30
0.0
 10
24.39194805710142
 20
18.30215784731463
 30
0.0
 10
24.39567161427358
 20
18.30246850481609
 30
0.0
  0
SPLINE
  5
172
330
1F
100
AcDbEntity
  8
0
  6
Continuous
 62
     7
370
    25
100
AcDbSpline
210
0.0
220
0.0
230
1.0
 70
     8
 71
     3
 72
    11
 73
     7
 74
     0
 42
0.00000001
 43
0.0000000001
 40
0.0
 40
0.0
 40
0.0
 40
0.0
 40
0.2982710784670188
 40
0.5615746943513288
 40
0.7660496625146336
 40
1.0
 40
1.0
 40
1.0
 40
1.0
 10
24.39567161427358
 20
18.30246850481609
 30
0.0
 10
24.39904586737933
 20
18.30223999530163
 30
0.0
 10
24.40539879695688
 20
18.30180976531955
 30
0.0
 10
24.4132086741655
 20
18.2974115176106
 30
0.0
 10
24.41778240804695
 20
18.29060834026931
 30
0.0
 10
24.41820086777572
 20
18.28562627654044
 30
0.0
 10
24.41842416418109
 20
18.28296777239909
 30
0.0
  0
SPLINE
  5
173
330
1F
100
AcDbEntity
  8
0
  6
Continuous
 62
     7
370
    25
100
AcDbSpline
210
0.0
220
0.0
230
1.0
 70
     8
 71
     3
 72
    12
 73
     8
 74
     0
 42
0.00000001
 43
0.0000000001
 40
0.0
 40
0.0
 40
0.0
 40
0.0
 40
0.1106474513088771
 40
0.2409948852239819
 40
0.4068731186195059
 40
0.6634803617231936
 40
1.0
 40
1.0
 40
1.0
 40
1.0
 10
24.41842416418109
 20
18.28296777239909
 30
0.0
 10
24.41807355150577
 20
18.27974557841337
 30
0.0
 10
24.41730990209094
 20
18.27272750198618
 30
0.0
 10
24.41138719245733
 20
18.26222103896694
 30
0.0
 10
24.40136113785068
 20
18.24971528216305
 30
0.0
 10
24.3855926446191
 20
18.23422922178358
 30
0.0
 10
24.37262609544388
 20
18.22290507223448
 30
0.0
 10
24.36526932478465
 20
18.21648014220738
 30
0.0
  0
LINE
  5
174
330
1F
100
AcDbEntity
  8
0
  6
Continuous
 62
     7
370
    25
100
AcDbLine
 10
24.3652693248
 20
18.2164801422
 30
0.0
 11
24.3652693248
 21
18.2002244456
 31
0.0
  0
LINE
  5
175
330
1F
100
AcDbEntity
  8
0
  6
Continuous
 62
     7
370
    25
100
AcDbLine
 10
24.3652693248
 20
18.2002244456
 30
0.0
 11
24.4377723087
 21
18.2002244456
 31
0.0
  0
LINE
  5
176
330
1F
100
AcDbEntity
  8
0
  6
Continuous
 62
     7
370
    25
100
AcDbLine
 10
24.4377723087
 20
18.2002244456
 30
0.0
 11
24.4377723087
 21
18.2135572364
 31
0.0
  0
SPLINE
  5
177
330
1F
100
AcDbEntity
  8
0
  6
Continuous
 62
     7
370
    25
100
AcDbSpline
210
0.0
220
0.0
230
1.0
 70
     8
 71
     3
 72
     9
 73
     5
 74
     0
 42
0.00000001
 43
0.0000000001
 40
0.0
 40
0.0
 40
0.0
 40
0.0
 40
0.5110082893191078
 40
1.0
 40
1.0
 40
1.0
 40
1.0
 10
24.38022971974619
 20
18.2133910851335
 30
0.0
 10
24.38472766746361
 20
18.21668571912784
 30
0.0
 10
24.39352977070036
 20
18.22313303918742
 30
0.0
 10
24.40141290825306
 20
18.23067532684166
 30
0.0
 10
24.40526769717048
 20
18.23436344298416
 30
0.0
  0
SPLINE
  5
178
330
1F
100
AcDbEntity
  8
0
  6
Continuous
 62
     7
370
    25
100
AcDbSpline
210
0.0
220
0.0
230
1.0
 70
     8
 71
     3
 72
    11
 73
     7
 74
     0
 42
0.00000001
 43
0.0000000001
 40
0.0
 40
0.0
 40
0.0
 40
0.0
 40
0.3798595222888574
 40
0.6630962781396267
 40
0.8403299752163979
 40
1.0
 40
1.0
 40
1.0
 40
1.0
 10
24.40526769717048
 20
18.23436344298416
 30
0.0
 10
24.41052931474621
 20
18.23977335755649
 30
0.0
 10
24.41971418132647
 20
18.24921709664287
 30
0.0
 10
24.42949835586836
 20
18.26279532135447
 30
0.0
 10
24.43456514528251
 20
18.27421749345987
 30
0.0
 10
24.4350846782708
 20
18.28092485829356
 30
0.0
 10
24.43533090245811
 20
18.28410370447346
 30
0.0
  0
SPLINE
  5
179
330
1F
100
AcDbEntity
  8
0
  6
Continuous
 62
     7
370
    25
100
AcDbSpline
210
0.0
220
0.0
230
1.0
 70
     8
 71
     3
 72
    12
 73
     8
 74
     0
 42
0.00000001
 43
0.0000000001
 40
0.0
 40
0.0
 40
0.0
 40
0.0
 40
0.190245218712477
 40
0.3638712794646319
 40
0.53596582020516
 40
0.7535010768093474
 40
1.0
 40
1.0
 40
1.0
 40
1.0
 10
24.43533090245811
 20
18.28410370447346
 30
0.0
 10
24.43506813871447
 20
18.28757120070191
 30
0.0
 10
24.43456556535024
 20
18.29420328479697
 30
0.0
 10
24.4299381535541
 20
18.3030535694645
 30
0.0
 10
24.42235080736614
 20
18.31009765197739
 30
0.0
 10
24.41152567320195
 20
18.31483790580316
 30
0.0
 10
24.40308503888066
 20
18.31536077996832
 30
0.0
 10
24.39860130177285
 20
18.31563853519473
 30
0.0
  0
SPLINE
  5
17A
330
1F
100
AcDbEntity
  8
0
  6
Continuous
 62
     7
370
    25
100
AcDbSpline
210
0.0
220
0.0
230
1.0
 70
     8
 71
     3
 72
     9
 73
     5
 74
     0
 42
0.00000001
 43
0.0000000001
 40
0.0
 40
0.0
 40
0.0
 40
0.0
 40
0.5805151281774361
 40
1.0
 40
1.0
 40
1.0
 40
1.0
 10
24.39860130177285
 20
18.31563853519473
 30
0.0
 10
24.39246198791546
 20
18.31530088549998
 30
0.0
 10
24.38188635679166
 20
18.31471924743686
 30
0.0
 10
24.37213399978164
 20
18.31067051979359
 30
0.0
 10
24.36804303355132
 20
18.30897213979711
 30
0.0
  0
LINE
  5
17B
330
1F
100
AcDbEntity
  8
0
  6
Continuous
 62
     7
370
    25
100
AcDbLine
 10
25.929580034
 20
16.44037405
 30
0.0
 11
25.9427704095
 21
16.4341552457
 31
0.0
  0
SPLINE
  5
17C
330
1F
100
AcDbEntity
  8
0
  6
Continuous
 62
     7
370
    25
100
AcDbSpline
210
0.0
220
0.0
230
1.0
 70
     8
 71
     3
 72
    11
 73
     7
 74
     0
 42
0.00000001
 43
0.0000000001
 40
0.0
 40
0.0
 40
0.0
 40
0.0
 40
0.2803531352861811
 40
0.5587873545282696
 40
0.7782848956882522
 40
1.0
 40
1.0
 40
1.0
 40
1.0
 10
25.94277040945973
 20
16.43415524573456
 30
0.0
 10
25.95979359591145
 20
16.47372263961972
 30
0.0
 10
25.99372345124653
 20
16.55258660285701
 30
0.0
 10
26.02302824273893
 20
16.66879695726183
 30
0.0
 10
26.0396150747396
 20
16.77816038660118
 30
0.0
 10
26.04143707754456
 20
16.8458925868259
 30
0.0
 10
26.04235265769871
 20
16.87992890013701
 30
0.0
  0
LINE
  5
17D
330
1F
100
AcDbEntity
  8
0
  6
Continuous
 62
     7
370
    25
100
AcDbLine
 10
25.9254771152
 20
16.2713202306
 30
0.0
 11
25.9025346781
 21
16.2860907384
 31
0.0
  0
SPLINE
  5
17E
330
1F
100
AcDbEntity
  8
0
  6
Continuous
 62
     7
370
    25
100
AcDbSpline
210
0.0
220
0.0
230
1.0
 70
     8
 71
     3
 72
     9
 73
     5
 74
     0
 42
0.00000001
 43
0.0000000001
 40
0.0
 40
0.0
 40
0.0
 40
0.0
 40
0.5647717035130776
 40
1.0
 40
1.0
 40
1.0
 40
1.0
 10
25.90253467813297
 20
16.2860907383931
 30
0.0
 10
25.89739843169152
 20
16.28200878841562
 30
0.0
 10
25.88830405530988
 20
16.27478117776855
 30
0.0
 10
25.87680958607494
 20
16.27385345191244
 30
0.0
 10
25.8718068678108
 20
16.27344967936849
 30
0.0
  0
SPLINE
  5
17F
330
1F
100
AcDbEntity
  8
0
  6
Continuous
 62
     7
370
    25
100
AcDbSpline
210
0.0
220
0.0
230
1.0
 70
     8
 71
     3
 72
    11
 73
     7
 74
     0
 42
0.00000001
 43
0.0000000001
 40
0.0
 40
0.0
 40
0.0
 40
0.0
 40
0.2835932590148292
 40
0.5578446460012897
 40
0.7750085629910359
 40
1.0
 40
1.0
 40
1.0
 40
1.0
 10
25.8718068678108
 20
16.27344967936849
 30
0.0
 10
25.86624692020254
 20
16.27417073902958
 30
0.0
 10
25.8553101757394
 20
16.27558910585815
 30
0.0
 10
25.8431684511482
 20
16.28556152261949
 30
0.0
 10
25.83580794523295
 20
16.29774678131719
 30
0.0
 10
25.83492815934405
 20
16.30639100500049
 30
0.0
 10
25.83448047893124
 20
16.3107896316161
 30
0.0
  0
SPLINE
  5
180
330
1F
100
AcDbEntity
  8
0
  6
Continuous
 62
     7
370
    25
100
AcDbSpline
210
0.0
220
0.0
230
1.0
 70
     8
 71
     3
 72
    11
 73
     7
 74
     0
 42
0.00000001
 43
0.0000000001
 40
0.0
 40
0.0
 40
0.0
 40
0.0
 40
0.2835988239505534
 40
0.558359439218277
 40
0.7755219170280754
 40
1.0
 40
1.0
 40
1.0
 40
1.0
 10
25.83448047893124
 20
16.3107896316161
 30
0.0
 10
25.83520396213519
 20
16.31635987981445
 30
0.0
 10
25.83662838156829
 20
16.32732678234605
 30
0.0
 10
25.84658031973088
 20
16.33952898614051
 30
0.0
 10
25.85875615724596
 20
16.34697112119223
 30
0.0
 10
25.86740885475939
 20
16.34786508501996
 30
0.0
 10
25.8718068678108
 20
16.34831947101643
 30
0.0
  0
SPLINE
  5
181
330
1F
100
AcDbEntity
  8
0
  6
Continuous
 62
     7
370
    25
100
AcDbSpline
210
0.0
220
0.0
230
1.0
 70
     8
 71
     3
 72
    10
 73
     6
 74
     0
 42
0.00000001
 43
0.0000000001
 40
0.0
 40
0.0
 40
0.0
 40
0.0
 40
0.2936027719417765
 40
0.5673552465097461
 40
1.0
 40
1.0
 40
1.0
 40
1.0
 10
25.8718068678108
 20
16.34831947101643
 30
0.0
 10
25.87514652138715
 20
16.34810781194209
 30
0.0
 10
25.88160003667767
 20
16.34769880392931
 30
0.0
 10
25.89241922585928
 20
16.34366259357989
 30
0.0
 10
25.898692504248
 20
16.33858488729711
 30
0.0
 10
25.90253467813297
 20
16.33547496147104
 30
0.0
  0
LINE
  5
182
330
1F
100
AcDbEntity
  8
0
  6
Continuous
 62
     7
370
    25
100
AcDbLine
 10
25.9025346781
 20
16.3354749615
 30
0.0
 11
25.9254771152
 21
16.3502590326
 31
0.0
  0
SPLINE
  5
183
330
1F
100
AcDbEntity
  8
0
  6
Continuous
 62
     7
370
    25
100
AcDbSpline
210
0.0
220
0.0
230
1.0
 70
     8
 71
     3
 72
    10
 73
     6
 74
     0
 42
0.00000001
 43
0.0000000001
 40
0.0
 40
0.0
 40
0.0
 40
0.0
 40
0.2891340914145879
 40
0.5687497817462514
 40
1.0
 40
1.0
 40
1.0
 40
1.0
 10
25.8718068678108
 20
16.2442816563723
 30
0.0
 10
25.87779217888511
 20
16.24475351782983
 30
0.0
 10
25.88956576238244
 20
16.24568170689142
 30
0.0
 10
25.9091588115473
 20
16.25382378472201
 30
0.0
 10
25.91931550706646
 20
16.26471376919262
 30
0.0
 10
25.92547711519321
 20
16.27132023058429
 30
0.0
  0
LINE
  5
184
330
1F
100
AcDbEntity
  8
0
  6
Continuous
 62
     7
370
    25
100
AcDbLine
 10
25.8912160475
 20
17.5148945847
 30
0.0
 11
25.8912160475
 21
17.4620076218
 31
0.0
  0
LINE
  5
185
330
1F
100
AcDbEntity
  8
0
  6
Continuous
 62
     7
370
    25
100
AcDbLine
 10
25.8912160475
 20
17.4620076218
 30
0.0
 11
25.8359995762
 21
17.4620076218
 31
0.0
  0
LINE
  5
186
330
1F
100
AcDbEntity
  8
0
  6
Continuous
 62
     7
370
    25
100
AcDbLine
 10
25.8359995762
 20
17.4620076218
 30
0.0
 11
25.8359995762
 21
17.5148945847
 31
0.0
  0
LINE
  5
187
330
1F
100
AcDbEntity
  8
0
  6
Continuous
 62
     7
370
    25
100
AcDbLine
 10
25.8359995762
 20
17.5148945847
 30
0.0
 11
25.8056583218
 21
17.5148945847
 31
0.0
  0
LINE
  5
188
330
1F
100
AcDbEntity
  8
0
  6
Continuous
 62
     7
370
    25
100
AcDbLine
 10
25.8056583218
 20
17.5148945847
 30
0.0
 11
25.8056583218
 21
17.3885077303
 31
0.0
  0
LINE
  5
189
330
1F
100
AcDbEntity
  8
0
  6
Continuous
 62
     7
370
    25
100
AcDbLine
 10
25.8056583218
 20
17.3885077303
 30
0.0
 11
25.8359995762
 21
17.3885077303
 31
0.0
  0
LINE
  5
18A
330
1F
100
AcDbEntity
  8
0
  6
Continuous
 62
     7
370
    25
100
AcDbLine
 10
25.8359995762
 20
17.3885077303
 30
0.0
 11
25.8359995762
 21
17.4347859421
 31
0.0
  0
LINE
  5
18B
330
1F
100
AcDbEntity
  8
0
  6
Continuous
 62
     7
370
    25
100
AcDbLine
 10
25.8359995762
 20
17.4347859421
 30
0.0
 11
25.8912160475
 21
17.4347859421
 31
0.0
  0
LINE
  5
18C
330
1F
100
AcDbEntity
  8
0
  6
Continuous
 62
     7
370
    25
100
AcDbLine
 10
25.8912160475
 20
17.4347859421
 30
0.0
 11
25.8912160475
 21
17.3885077303
 31
0.0
  0
LINE
  5
18D
330
1F
100
AcDbEntity
  8
0
  6
Continuous
 62
     7
370
    25
100
AcDbLine
 10
25.8912160475
 20
17.3885077303
 30
0.0
 11
25.9215573018
 21
17.3885077303
 31
0.0
  0
LINE
  5
18E
330
1F
100
AcDbEntity
  8
0
  6
Continuous
 62
     7
370
    25
100
AcDbLine
 10
25.9215573018
 20
17.3885077303
 30
0.0
 11
25.9215573018
 21
17.5148945847
 31
0.0
  0
LINE
  5
18F
330
1F
100
AcDbEntity
  8
0
  6
Continuous
 62
     7
370
    25
100
AcDbLine
 10
25.9215573018
 20
17.5148945847
 30
0.0
 11
25.8912160475
 21
17.5148945847
 31
0.0
  0
LINE
  5
190
330
1F
100
AcDbEntity
  8
0
  6
Continuous
 62
     7
370
    25
100
AcDbLine
 10
25.1344750538
 20
15.8072360293
 30
0.0
 11
25.1344750538
 21
15.8106268713
 31
0.0
  0
SPLINE
  5
191
330
1F
100
AcDbEntity
  8
0
  6
Continuous
 62
     7
370
    25
100
AcDbSpline
210
0.0
220
0.0
230
1.0
 70
     8
 71
     3
 72
    10
 73
     6
 74
     0
 42
0.00000001
 43
0.0000000001
 40
0.0
 40
0.0
 40
0.0
 40
0.0
 40
0.2951186303478632
 40
0.5769563327532797
 40
1.0
 40
1.0
 40
1.0
 40
1.0
 10
25.13447505375902
 20
15.81062687132447
 30
0.0
 10
25.13428964041121
 20
15.81307799089317
 30
0.0
 10
25.13392715768665
 20
15.81786992475322
 30
0.0
 10
25.13083152822179
 20
15.82576570214515
 30
0.0
 10
25.12677674712352
 20
15.83006183687267
 30
0.0
 10
25.12434321782405
 20
15.83264021767313
 30
0.0
  0
SPLINE
  5
192
330
1F
100
AcDbEntity
  8
0
  6
Continuous
 62
     7
370
    25
100
AcDbSpline
210
0.0
220
0.0
230
1.0
 70
     8
 71
     3
 72
     9
 73
     5
 74
     0
 42
0.00000001
 43
0.0000000001
 40
0.0
 40
0.0
 40
0.0
 40
0.0
 40
0.6524392538413836
 40
1.0
 40
1.0
 40
1.0
 40
1.0
 10
25.12434321782405
 20
15.83264021767313
 30
0.0
 10
25.1204418307902
 20
15.83519852457634
 30
0.0
 10
25.11446213687865
 20
15.83911966648823
 30
0.0
 10
25.10742093039741
 20
15.83961813808959
 30
0.0
 10
25.10497368341893
 20
15.83979138725129
 30
0.0
  0
SPLINE
  5
193
330
1F
100
AcDbEntity
  8
0
  6
Continuous
 62
     7
370
    25
100
AcDbSpline
210
0.0
220
0.0
230
1.0
 70
     8
 71
     3
 72
     9
 73
     5
 74
     0
 42
0.00000001
 43
0.0000000001
 40
0.0
 40
0.0
 40
0.0
 40
0.0
 40
0.4907197087699294
 40
1.0
 40
1.0
 40
1.0
 40
1.0
 10
25.10497368341893
 20
15.77827594862549
 30
0.0
 10
25.10844147090829
 20
15.77856472105386
 30
0.0
 10
25.1155082086557
 20
15.77915318820366
 30
0.0
 10
25.12136199818683
 20
15.7831656512473
 30
0.0
 10
25.12434321782405
 20
15.78520911959471
 30
0.0
  0
SPLINE
  5
194
330
1F
100
AcDbEntity
  8
0
  6
Continuous
 62
     7
370
    25
100
AcDbSpline
210
0.0
220
0.0
230
1.0
 70
     8
 71
     3
 72
     9
 73
     5
 74
     0
 42
0.00000001
 43
0.0000000001
 40
0.0
 40
0.0
 40
0.0
 40
0.0
 40
0.5433109202701115
 40
1.0
 40
1.0
 40
1.0
 40
1.0
 10
25.12434321782405
 20
15.78520911959471
 30
0.0
 10
25.12745798940638
 20
15.78863865542018
 30
0.0
 10
25.13319093433002
 20
15.7949509449353
 30
0.0
 10
25.13407246728504
 20
15.80338451153992
 30
0.0
 10
25.13447505375902
 20
15.80723602931143
 30
0.0
  0
SPLINE
  5
195
330
1F
100
AcDbEntity
  8
0
  6
Continuous
 62
     7
370
    25
100
AcDbSpline
210
0.0
220
0.0
230
1.0
 70
     8
 71
     3
 72
    11
 73
     7
 74
     0
 42
0.00000001
 43
0.0000000001
 40
0.0
 40
0.0
 40
0.0
 40
0.0
 40
0.2838014945915304
 40
0.5579454528142391
 40
0.7749992199804973
 40
1.0
 40
1.0
 40
1.0
 40
1.0
 10
25.80531245593506
 20
16.3107896316161
 30
0.0
 10
25.80659324492081
 20
16.30087639491894
 30
0.0
 10
25.8091112386743
 20
16.28138726098816
 30
0.0
 10
25.82686526685533
 20
16.25974442552846
 30
0.0
 10
25.8485730095161
 20
16.24664101019593
 30
0.0
 10
25.86396998228427
 20
16.24507747709213
 30
0.0
 10
25.8718068678108
 20
16.2442816563723
 30
0.0
  0
SPLINE
  5
196
330
1F
100
AcDbEntity
  8
0
  6
Continuous
 62
     7
370
    25
100
AcDbSpline
210
0.0
220
0.0
230
1.0
 70
     8
 71
     3
 72
    10
 73
     6
 74
     0
 42
0.00000001
 43
0.0000000001
 40
0.0
 40
0.0
 40
0.0
 40
0.0
 40
0.2754425198515846
 40
0.5525321742237456
 40
1.0
 40
1.0
 40
1.0
 40
1.0
 10
25.92547711519321
 20
16.35025903264789
 30
0.0
 10
25.92175217134552
 20
16.3546049659147
 30
0.0
 10
25.91428000864482
 20
16.36332282094389
 30
0.0
 10
25.89622817034195
 20
16.37450771927139
 30
0.0
 10
25.88113068282658
 20
16.3763456525883
 30
0.0
 10
25.8718068678108
 20
16.37748071232859
 30
0.0
  0
SPLINE
  5
197
330
1F
100
AcDbEntity
  8
0
  6
Continuous
 62
     7
370
    25
100
AcDbSpline
210
0.0
220
0.0
230
1.0
 70
     8
 71
     3
 72
    11
 73
     7
 74
     0
 42
0.00000001
 43
0.0000000001
 40
0.0
 40
0.0
 40
0.0
 40
0.0
 40
0.2816740375996852
 40
0.560408081564746
 40
0.7794110876774866
 40
1.0
 40
1.0
 40
1.0
 40
1.0
 10
26.02777881872666
 20
16.87992890013701
 30
0.0
 10
26.02631970161771
 20
16.83728137978136
 30
0.0
 10
26.02341669704272
 20
16.75243147572324
 30
0.0
 10
26.00080094853658
 20
16.63627064948709
 30
0.0
 10
25.96976824448158
 20
16.53191105256749
 30
0.0
 10
25.94300828462171
 20
16.47095968182531
 30
0.0
 10
25.92958003402899
 20
16.44037404998648
 30
0.0
  0
LINE
  5
198
330
1F
100
AcDbEntity
  8
0
  6
Continuous
 62
     7
370
    25
100
AcDbLine
 10
24.3802297197
 20
18.213072346
 30
0.0
 11
24.3802297197
 21
18.2133910851
 31
0.0
  0
LINE
  5
199
330
1F
100
AcDbEntity
  8
0
  6
Continuous
 62
     7
370
    25
100
AcDbLine
 10
24.8709591576
 20
15.7799194061
 30
0.0
 11
24.8884035178
 21
15.7799194061
 31
0.0
  0
LINE
  5
19A
330
1F
100
AcDbEntity
  8
0
  6
Continuous
 62
     7
370
    25
100
AcDbLine
 10
24.4377723087
 20
18.2135572364
 30
0.0
 11
24.414199175
 21
18.2135572364
 31
0.0
  0
LINE
  5
19B
330
1F
100
AcDbEntity
  8
0
  6
Continuous
 62
     7
370
    25
100
AcDbLine
 10
25.9414140727
 20
17.328611897
 30
0.0
 11
25.928250824
 21
17.3223388393
 31
0.0
  0
SPLINE
  5
19C
330
1F
100
AcDbEntity
  8
0
  6
Continuous
 62
     7
370
    25
100
AcDbSpline
210
0.0
220
0.0
230
1.0
 70
     8
 71
     3
 72
     9
 73
     5
 74
     0
 42
0.00000001
 43
0.0000000001
 40
0.0
 40
0.0
 40
0.0
 40
0.0
 40
0.5588854353337812
 40
1.0
 40
1.0
 40
1.0
 40
1.0
 10
24.41419917503283
 20
18.21355723639214
 30
0.0
 10
24.40786986808354
 20
18.2135306452733
 30
0.0
 10
24.39654499441687
 20
18.21348306643664
 30
0.0
 10
24.38522370527672
 20
18.2131980644927
 30
0.0
 10
24.38022971974619
 20
18.21307234598428
 30
0.0
  0
SPLINE
  5
19D
330
1F
100
AcDbEntity
  8
0
  6
Continuous
 62
     7
370
    25
100
AcDbSpline
210
0.0
220
0.0
230
1.0
 70
     8
 71
     3
 72
    11
 73
     7
 74
     0
 42
0.00000001
 43
0.0000000001
 40
0.0
 40
0.0
 40
0.0
 40
0.0
 40
0.2834809550704038
 40
0.5577495588286085
 40
0.7750229169599903
 40
1.0
 40
1.0
 40
1.0
 40
1.0
 10
25.8718068678108
 20
16.37748071232859
 30
0.0
 10
25.86189365680785
 20
16.3761889009654
 30
0.0
 10
25.8423893868928
 20
16.37364725855515
 30
0.0
 10
25.82077103363362
 20
16.35580685463892
 30
0.0
 10
25.80767670383397
 20
16.33405438394998
 30
0.0
 10
25.80610963767079
 20
16.31863408636024
 30
0.0
 10
25.80531245593506
 20
16.3107896316161
 30
0.0
  0
SPLINE
  5
19E
330
1F
100
AcDbEntity
  8
0
  6
Continuous
 62
     7
370
    25
100
AcDbSpline
210
0.0
220
0.0
230
1.0
 70
     8
 71
     3
 72
    11
 73
     7
 74
     0
 42
0.00000001
 43
0.0000000001
 40
0.0
 40
0.0
 40
0.0
 40
0.0
 40
0.2817262452569302
 40
0.5604351511541868
 40
0.7794096087717536
 40
1.0
 40
1.0
 40
1.0
 40
1.0
 10
26.04235265769871
 20
16.87992890013701
 30
0.0
 10
26.04085400806559
 20
16.92349004375956
 30
0.0
 10
26.03787275960964
 20
17.01014578322852
 30
0.0
 10
26.01462918604996
 20
17.1287486983078
 30
0.0
 10
25.98272711370396
 20
17.23525502001146
 30
0.0
 10
25.95521879514206
 20
17.29741676474245
 30
0.0
 10
25.9414140726545
 20
17.32861189698664
 30
0.0
  0
SPLINE
  5
19F
330
1F
100
AcDbEntity
  8
0
  6
Continuous
 62
     7
370
    25
100
AcDbSpline
210
0.0
220
0.0
230
1.0
 70
     8
 71
     3
 72
    11
 73
     7
 74
     0
 42
0.00000001
 43
0.0000000001
 40
0.0
 40
0.0
 40
0.0
 40
0.0
 40
0.2803194334060571
 40
0.5587146735856319
 40
0.778217274821393
 40
1.0
 40
1.0
 40
1.0
 40
1.0
 10
25.92825082395988
 20
17.32233883926251
 30
0.0
 10
25.94526243083831
 20
17.28310444210686
 30
0.0
 10
25.97916887203205
 20
17.20490496398364
 30
0.0
 10
26.00846307919722
 20
17.08957439830042
 30
0.0
 10
26.02504296125027
 20
16.98099669436884
 30
0.0
 10
26.02686373025971
 20
16.91373401377304
 30
0.0
 10
26.02777881872666
 20
16.87992890013701
 30
0.0
  0
CIRCLE
  5
1A0
330
1F
100
AcDbEntity
  8
0
  6
Continuous
 62
     7
370
    25
100
AcDbCircle
 10
24.9966712343
 20
17.4502321621
 30
0.0
 40
1.811023622047241
  0
SPLINE
  5
1A1
330
1F
100
AcDbEntity
  8
0
  6
Continuous
 62
     7
370
    25
100
AcDbSpline
210
0.0
220
0.0
230
1.0
 70
     8
 71
     3
 72
     9
 73
     5
 74
     0
 42
0.00000001
 43
0.0000000001
 40
0.0
 40
0.0
 40
0.0
 40
0.0
 40
0.5700793474812339
 40
1.0
 40
1.0
 40
1.0
 40
1.0
 10
25.11321447433725
 20
15.82687578625096
 30
0.0
 10
25.11186596171709
 20
15.82822351790059
 30
0.0
 10
25.10950047939235
 20
15.83058763029229
 30
0.0
 10
25.10633471214125
 20
15.83161165639639
 30
0.0
 10
25.10497368341893
 20
15.83205190636727
 30
0.0
  0
SPLINE
  5
1A2
330
1F
100
AcDbEntity
  8
0
  6
Continuous
 62
     7
370
    25
100
AcDbSpline
210
0.0
220
0.0
230
1.0
 70
     8
 71
     3
 72
    10
 73
     6
 74
     0
 42
0.00000001
 43
0.0000000001
 40
0.0
 40
0.0
 40
0.0
 40
0.0
 40
0.2135305112163455
 40
0.4716889100456187
 40
1.0
 40
1.0
 40
1.0
 40
1.0
 10
25.11321447433725
 20
15.79102780448909
 30
0.0
 10
25.11396565782214
 20
15.79208349770001
 30
0.0
 10
25.11562502217815
 20
15.79441552405618
 30
0.0
 10
25.11764575005392
 20
15.80020752273585
 30
0.0
 10
25.11789556509504
 20
15.80497973213302
 30
0.0
 10
25.11806337841589
 20
15.80818546507508
 30
0.0
  0
SPLINE
  5
1A3
330
1F
100
AcDbEntity
  8
0
  6
Continuous
 62
     7
370
    25
100
AcDbSpline
210
0.0
220
0.0
230
1.0
 70
     8
 71
     3
 72
    10
 73
     6
 74
     0
 42
0.00000001
 43
0.0000000001
 40
0.0
 40
0.0
 40
0.0
 40
0.0
 40
0.1540191568683686
 40
0.5392758576298706
 40
1.0
 40
1.0
 40
1.0
 40
1.0
 10
25.10497368341893
 20
15.78589315544082
 30
0.0
 10
25.1054703786216
 20
15.78599779732529
 30
0.0
 10
25.10720948521616
 20
15.7863641857872
 30
0.0
 10
25.11017898412615
 20
15.78796640904297
 30
0.0
 10
25.11214420703155
 20
15.78994840339472
 30
0.0
 10
25.11321447433725
 20
15.79102780448909
 30
0.0
  0
LINE
  5
1A4
330
1F
100
AcDbEntity
  8
0
  6
Continuous
 62
     7
370
    25
100
AcDbLine
 10
25.1180633784
 20
15.8081854651
 30
0.0
 11
25.1180633784
 21
15.8096977806
 31
0.0
  0
SPLINE
  5
1A5
330
1F
100
AcDbEntity
  8
0
  6
Continuous
 62
     7
370
    25
100
AcDbSpline
210
0.0
220
0.0
230
1.0
 70
     8
 71
     3
 72
     9
 73
     5
 74
     0
 42
0.00000001
 43
0.0000000001
 40
0.0
 40
0.0
 40
0.0
 40
0.0
 40
0.6450820355909621
 40
1.0
 40
1.0
 40
1.0
 40
1.0
 10
25.11806337841589
 20
15.8096977806129
 30
0.0
 10
25.1179064665521
 20
15.81369227106476
 30
0.0
 10
25.11766322328202
 20
15.81988449194748
 30
0.0
 10
25.11437981494172
 20
15.82504443113725
 30
0.0
 10
25.11321447433725
 20
15.82687578625096
 30
0.0
  0
SPLINE
  5
1A6
330
1F
100
AcDbEntity
  8
0
  6
Continuous
 62
     7
370
    25
100
AcDbSpline
210
0.0
220
0.0
230
1.0
 70
     8
 71
     3
 72
    25
 73
    21
 74
     0
 42
0.00000001
 43
0.0000000001
 40
0.0
 40
0.0
 40
0.0
 40
0.0
 40
0.0582483966321614
 40
0.1199858494981021
 40
0.1521827023030409
 40
0.1843725319776446
 40
0.2500412800648135
 40
0.3157100281519822
 40
0.3800141505018972
 40
0.441751603367838
 40
0.4999999999999992
 40
0.5582483966321607
 40
0.6199858494981012
 40
0.6521827023031834
 40
0.6843725319776454
 40
0.7500412800648143
 40
0.8157100281519829
 40
0.8800141505018981
 40
0.9417516033678385
 40
1.0
 40
1.0
 40
1.0
 40
1.0
 10
25.46714367529391
 20
16.87936602036284
 30
0.0
 10
25.46562449800513
 20
16.85067366189941
 30
0.0
 10
25.46249514530066
 20
16.79157028389437
 30
0.0
 10
25.44078318190689
 20
16.71912841144574
 30
0.0
 10
25.41514998604138
 20
16.66257559092849
 30
0.0
 10
25.38280167455314
 20
16.60724674317002
 30
0.0
 10
25.33171532086436
 20
16.54430957759498
 30
0.0
 10
25.25647587363231
 20
16.48320663550121
 30
0.0
 10
25.17215874711413
 20
16.43952312273514
 30
0.0
 10
25.08447530875801
 20
16.41431516295253
 30
0.0
 10
24.996669040864
 20
16.40626307972241
 30
0.0
 10
24.90887619665797
 20
16.4143091264766
 30
0.0
 10
24.83643333775313
 20
16.43515201546431
 30
0.0
 10
24.77988118908045
 20
16.46090654451445
 30
0.0
 10
24.72454993055807
 20
16.49322420851005
 30
0.0
 10
24.66163144792076
 20
16.54432580765179
 30
0.0
 10
24.60045161202565
 20
16.61956041248622
 30
0.0
 10
24.55704390422816
 20
16.70387858564645
 30
0.0
 10
24.53086939542045
 20
16.79156251298429
 30
0.0
 10
24.527725184009
 20
16.85067112230299
 30
0.0
 10
24.52619879340414
 20
16.87936602036284
 30
0.0
  0
SPLINE
  5
1A7
330
1F
100
AcDbEntity
  8
0
  6
Continuous
 62
     7
370
    25
100
AcDbSpline
210
0.0
220
0.0
230
1.0
 70
     8
 71
     3
 72
    25
 73
    21
 74
     0
 42
0.00000001
 43
0.0000000001
 40
0.0
 40
0.0
 40
0.0
 40
0.0
 40
0.0582483966321618
 40
0.1199858494981027
 40
0.152182702303448
 40
0.1843725319776452
 40
0.2500412800648145
 40
0.3157100281519837
 40
0.3800141505018993
 40
0.4417516033678404
 40
0.500000000000002
 40
0.5582483966321638
 40
0.6199858494981049
 40
0.6521827023039031
 40
0.6843725319776432
 40
0.7500412800648125
 40
0.8157100281519815
 40
0.8800141505018972
 40
0.941751603367838
 40
1.0
 40
1.0
 40
1.0
 40
1.0
 10
24.52619879340414
 20
16.87936602036284
 30
0.0
 10
24.52771797069292
 20
16.90805837882627
 30
0.0
 10
24.53084732339739
 20
16.96716175683131
 30
0.0
 10
24.55255928679122
 20
17.03960362928014
 30
0.0
 10
24.57819248265678
 20
17.09615644979736
 30
0.0
 10
24.61054079414503
 20
17.15148529755582
 30
0.0
 10
24.6616271478337
 20
17.2144224631307
 30
0.0
 10
24.73686659506573
 20
17.27552540522447
 30
0.0
 10
24.82118372158392
 20
17.31920891799054
 30
0.0
 10
24.90886715994004
 20
17.34441687777315
 30
0.0
 10
24.99667342783406
 20
17.35246896100327
 30
0.0
 10
25.08446627204007
 20
17.34442291424905
 30
0.0
 10
25.1569091309453
 20
17.32358002526134
 30
0.0
 10
25.21346127961786
 20
17.29782549621093
 30
0.0
 10
25.26879253814031
 20
17.26550783221548
 30
0.0
 10
25.33171102077727
 20
17.21440623307386
 30
0.0
 10
25.3928908566724
 20
17.13917162823947
 30
0.0
 10
25.43629856446989
 20
17.05485345507923
 30
0.0
 10
25.46247307327761
 20
16.96716952774139
 30
0.0
 10
25.46561728468905
 20
16.90806091842268
 30
0.0
 10
25.46714367529391
 20
16.87936602036284
 30
0.0
  0
CIRCLE
  5
1A8
330
1F
100
AcDbEntity
  8
0
  6
Continuous
 62
     7
370
    25
100
AcDbCircle
 10
24.9966712343
 20
16.8793660204
 30
0.0
 40
0.4862204724409446
  0
ARC
  5
1A9
330
1F
100
AcDbEntity
  8
0
  6
Continuous
 62
     7
370
    25
100
AcDbCircle
 10
26.082811475
 20
16.3796266996
 30
0.0
 40
1.085666946810754
100
AcDbArc
 50
179.2865111316
 51
180.3254032673
  0
LINE
  5
1AA
330
1F
100
AcDbEntity
  8
0
  6
Continuous
 62
     7
370
    25
100
AcDbLine
 10
24.9971620373
 20
16.37346084109999
 30
0.0
 11
24.9966712343
 21
16.37346050859999
 31
0.0
  0
LINE
  5
1AB
330
1F
100
AcDbEntity
  8
0
  6
Continuous
 62
     7
370
    25
100
AcDbLine
 10
25.0891909194
 20
15.7081061778
 30
0.0
 11
24.9041515493
 21
15.7081061778
 31
0.0
  0
CIRCLE
  5
1AC
330
1F
100
AcDbEntity
  8
0
  6
Continuous
 62
     7
370
    25
100
AcDbCircle
 10
24.9966712343
 20
18.2573187763
 30
0.0
 40
0.2303149606299222
  0
CIRCLE
  5
1AD
330
1F
100
AcDbEntity
  8
0
  6
Continuous
 62
     7
370
    25
100
AcDbCircle
 10
24.9966712343
 20
18.2573187763
 30
0.0
 40
0.2460629921259851
  0
LINE
  5
1AE
330
1F
100
AcDbEntity
  8
0
  6
Continuous
 62
     7
370
    25
100
AcDbLine
 10
24.9336791084
 20
19.1923581463
 30
0.0
 11
25.05966336030001
 21
19.1923581463
 31
0.0
  0
SPLINE
  5
1AF
330
1F
100
AcDbEntity
  8
0
  6
Continuous
 62
     7
370
    25
100
AcDbSpline
210
0.0
220
0.0
230
1.0
 70
     8
 71
     3
 72
    14
 73
    10
 74
     0
 42
0.00000001
 43
0.0000000001
 40
0.0
 40
0.0
 40
0.0
 40
0.0
 40
0.1217990498149735
 40
0.2505380251541491
 40
0.4996739138780823
 40
0.7488357633797814
 40
0.8777932299884506
 40
0.9990775137096324
 40
1.0
 40
1.0
 40
1.0
 40
1.0
 10
24.99667123434903
 20
16.37346050855182
 30
0.0
 10
24.98974859844595
 20
16.37358229669252
 30
0.0
 10
24.97550888532297
 20
16.37383281227785
 30
0.0
 10
24.94827432823127
 20
16.37628680263984
 30
0.0
 10
24.91828043910232
 20
16.38155135085593
 30
0.0
 10
24.89790186631406
 20
16.3870624899666
 30
0.0
 10
24.89013886803461
 20
16.38934843503331
 30
0.0
 10
24.88776597768578
 20
16.39010722257945
 30
0.0
 10
24.88841356852214
 20
16.38990556074285
 30
0.0
 10
24.88841845690654
 20
16.38990403848447
 30
0.0
  0
SPLINE
  5
1B0
330
1F
100
AcDbEntity
  8
0
  6
Continuous
 62
     7
370
    25
100
AcDbSpline
210
0.0
220
0.0
230
1.0
 70
     8
 71
     3
 72
    13
 73
     9
 74
     0
 42
0.00000001
 43
0.0000000001
 40
0.0
 40
0.0
 40
0.0
 40
0.0
 40
0.1209896625792955
 40
0.2500125062274972
 40
0.4994550947077668
 40
0.7490890564258692
 40
0.8781038233682968
 40
1.0
 40
1.0
 40
1.0
 40
1.0
 10
25.10493043622708
 20
16.38990603894189
 30
0.0
 10
25.10455725542002
 20
16.38978422080618
 30
0.0
 10
25.10378611624284
 20
16.38953249634674
 30
0.0
 10
25.09536638067154
 20
16.38703287433503
 30
0.0
 10
25.07550995590043
 20
16.38166382399792
 30
0.0
 10
25.04549570464833
 20
16.37634343101053
 30
0.0
 10
25.0183128642961
 20
16.37386212071099
 30
0.0
 10
25.00407769099574
 20
16.37359204686391
 30
0.0
 10
24.99716203728097
 20
16.37346084107074
 30
0.0
  0
LINE
  5
1B1
330
1F
100
AcDbEntity
  8
0
  6
Continuous
 62
     7
370
    25
100
AcDbLine
 10
24.8884035178
 20
15.7238542093
 30
0.0
 11
25.10493895090001
 21
15.7238542093
 31
0.0
  0
LINE
  5
1B2
330
1F
100
AcDbEntity
  8
0
  6
Continuous
 62
     7
370
    25
100
AcDbLine
 10
25.0754113918
 20
19.1766101149
 30
0.0
 11
24.9179310769
 21
19.1766101149
 31
0.0
  0
ARC
  5
1B3
330
1F
100
AcDbEntity
  8
0
  6
Continuous
 62
     7
370
    25
100
AcDbCircle
 10
18.6015505176
 20
18.4935392487
 30
0.0
 40
0.0196850393700778
100
AcDbArc
 50
0.0
 51
180.0
  0
ARC
  5
1B4
330
1F
100
AcDbEntity
  8
0
  6
Continuous
 62
     7
370
    25
100
AcDbCircle
 10
18.6015505176
 20
18.0210983038
 30
0.0
 40
0.0196850393700778
100
AcDbArc
 50
180.0
 51
0.0
  0
LINE
  5
1B5
330
1F
100
AcDbEntity
  8
0
  6
Continuous
 62
     7
370
    25
100
AcDbLine
 10
18.5818654783
 20
18.4935392487
 30
0.0
 11
18.5818654783
 21
18.0210983038
 31
0.0
  0
LINE
  5
1B6
330
1F
100
AcDbEntity
  8
0
  6
Continuous
 62
     7
370
    25
100
AcDbLine
 10
18.621235557
 20
18.0210983038
 30
0.0
 11
18.621235557
 21
18.4935392487
 31
0.0
  0
LINE
  5
1B7
330
1F
100
AcDbEntity
  8
0
  6
Continuous
 62
     7
370
    25
100
AcDbLine
 10
18.2290876459
 20
16.3675549967
 30
0.0
 11
18.2216292578
 21
16.3600966087
 31
0.0
  0
LINE
  5
1B8
330
1F
100
AcDbEntity
  8
0
  6
Continuous
 62
     7
370
    25
100
AcDbLine
 10
18.2216292578
 20
16.2962732273
 30
0.0
 11
18.2290876459
 21
16.2888148393
 31
0.0
  0
LINE
  5
1B9
330
1F
100
AcDbEntity
  8
0
  6
Continuous
 62
     7
370
    25
100
AcDbLine
 10
19.0188733523
 20
16.3675549967
 30
0.0
 11
18.5405268956
 21
16.3675549967
 31
0.0
  0
LINE
  5
1BA
330
1F
100
AcDbEntity
  8
0
  6
Continuous
 62
     7
370
    25
100
AcDbLine
 10
18.40273162
 20
16.3675549967
 30
0.0
 11
18.2290876459
 21
16.3675549967
 31
0.0
  0
LINE
  5
1BB
330
1F
100
AcDbEntity
  8
0
  6
Continuous
 62
     7
370
    25
100
AcDbLine
 10
18.2290876459
 20
16.2888148393
 30
0.0
 11
18.40273162
 21
16.2888148393
 31
0.0
  0
LINE
  5
1BC
330
1F
100
AcDbEntity
  8
0
  6
Continuous
 62
     7
370
    25
100
AcDbLine
 10
18.5405268956
 20
16.2888148393
 30
0.0
 11
19.0188733523
 21
16.2888148393
 31
0.0
  0
LINE
  5
1BD
330
1F
100
AcDbEntity
  8
0
  6
Continuous
 62
     7
370
    25
100
AcDbLine
 10
18.2290876459
 20
18.6116494849
 30
0.0
 11
18.2216292578
 21
18.6041910969
 31
0.0
  0
LINE
  5
1BE
330
1F
100
AcDbEntity
  8
0
  6
Continuous
 62
     7
370
    25
100
AcDbLine
 10
18.2216292578
 20
18.5403677155
 30
0.0
 11
18.2290876459
 21
18.5329093274
 31
0.0
  0
LINE
  5
1BF
330
1F
100
AcDbEntity
  8
0
  6
Continuous
 62
     7
370
    25
100
AcDbLine
 10
19.0188733523
 20
18.6116494849
 30
0.0
 11
18.2290876459
 21
18.6116494849
 31
0.0
  0
LINE
  5
1C0
330
1F
100
AcDbEntity
  8
0
  6
Continuous
 62
     7
370
    25
100
AcDbLine
 10
18.2290876459
 20
18.5329093274
 30
0.0
 11
19.0188733523
 21
18.5329093274
 31
0.0
  0
LINE
  5
1C1
330
1F
100
AcDbEntity
  8
0
  6
Continuous
 62
     7
370
    25
100
AcDbLine
 10
19.2590308326
 20
19.2612557841
 30
0.0
 11
19.0976135098
 21
19.2612557841
 31
0.0
  0
LINE
  5
1C2
330
1F
100
AcDbEntity
  8
0
  6
Continuous
 62
     7
370
    25
100
AcDbLine
 10
19.1753459412
 20
15.63920854
 30
0.0
 11
19.2590308326
 21
15.63920854
 31
0.0
  0
ARC
  5
1C3
330
1F
100
AcDbEntity
  8
0
  6
Continuous
 62
     7
370
    25
100
AcDbCircle
 10
19.2590308326
 20
19.2317282251
 30
0.0
 40
0.0295275590551185
100
AcDbArc
 50
0.0
 51
90.0
  0
ARC
  5
1C4
330
1F
100
AcDbEntity
  8
0
  6
Continuous
 62
     7
370
    25
100
AcDbCircle
 10
19.2590308326
 20
15.6687360991
 30
0.0
 40
0.0295275590551203
100
AcDbArc
 50
270.0
 51
0.0
  0
LINE
  5
1C5
330
1F
100
AcDbEntity
  8
0
  6
Continuous
 62
     7
370
    25
100
AcDbLine
 10
18.5588045911
 20
17.4131724474
 30
0.0
 11
18.5405268956
 21
17.4131724474
 31
0.0
  0
ARC
  5
1C6
330
1F
100
AcDbEntity
  8
0
  6
Continuous
 62
     7
370
    25
100
AcDbCircle
 10
18.5588045911
 20
17.3875818962
 30
0.0
 40
0.0255905511811036
100
AcDbArc
 50
19.1691557189
 51
90.0
  0
ARC
  5
1C7
330
1F
100
AcDbEntity
  8
0
  6
Continuous
 62
     7
370
    25
100
AcDbCircle
 10
18.434227683
 20
17.3442748096
 30
0.0
 40
0.1574803149606303
100
AcDbArc
 50
15.938250607
 51
19.1691557189
  0
LINE
  5
1C8
330
1F
100
AcDbEntity
  8
0
  6
Continuous
 62
     7
370
    25
100
AcDbLine
 10
17.6606056357
 20
17.3787236285
 30
0.0
 11
17.6547001239
 21
17.3728181167
 31
0.0
  0
LINE
  5
1C9
330
1F
100
AcDbEntity
  8
0
  6
Continuous
 62
     7
370
    25
100
AcDbLine
 10
17.6547001239
 20
17.3157315025
 30
0.0
 11
17.6606056357
 21
17.3098259907
 31
0.0
  0
LINE
  5
1CA
330
1F
100
AcDbEntity
  8
0
  6
Continuous
 62
     7
370
    25
100
AcDbLine
 10
17.6606056357
 20
17.3098259907
 30
0.0
 11
18.4617867381
 21
17.3098259907
 31
0.0
  0
LINE
  5
1CB
330
1F
100
AcDbEntity
  8
0
  6
Continuous
 62
     7
370
    25
100
AcDbLine
 10
18.4617867381
 20
17.3787236285
 30
0.0
 11
17.6606056357
 21
17.3787236285
 31
0.0
  0
LINE
  5
1CC
330
1F
100
AcDbEntity
  8
0
  6
Continuous
 62
     7
370
    25
100
AcDbLine
 10
18.5588045911
 20
16.483354869
 30
0.0
 11
18.5405268956
 21
16.483354869
 31
0.0
  0
ARC
  5
1CD
330
1F
100
AcDbEntity
  8
0
  6
Continuous
 62
     7
370
    25
100
AcDbCircle
 10
18.5588045911
 20
16.4577643178
 30
0.0
 40
0.0255905511811007
100
AcDbArc
 50
19.1691557189
 51
90.0
  0
ARC
  5
1CE
330
1F
100
AcDbEntity
  8
0
  6
Continuous
 62
     7
370
    25
100
AcDbCircle
 10
18.434227683
 20
16.4144572312
 30
0.0
 40
0.1574803149606304
100
AcDbArc
 50
5.997539211
 51
19.1691557189
  0
ARC
  5
1CF
330
1F
100
AcDbEntity
  8
0
  6
Continuous
 62
     7
370
    25
100
AcDbCircle
 10
18.434227683
 20
16.4144572312
 30
0.0
 40
0.1574803149606304
100
AcDbArc
 50
342.6727342892
 51
354.002460789
  0
LINE
  5
1D0
330
1F
100
AcDbEntity
  8
0
  6
Continuous
 62
     7
370
    25
100
AcDbLine
 10
17.6606056357
 20
16.4489060501
 30
0.0
 11
17.6547001239
 21
16.4430005382
 31
0.0
  0
LINE
  5
1D1
330
1F
100
AcDbEntity
  8
0
  6
Continuous
 62
     7
370
    25
100
AcDbLine
 10
17.6547001239
 20
16.3859139241
 30
0.0
 11
17.6606056357
 21
16.3800084123
 31
0.0
  0
LINE
  5
1D2
330
1F
100
AcDbEntity
  8
0
  6
Continuous
 62
     7
370
    25
100
AcDbLine
 10
17.6606056357
 20
16.3800084123
 30
0.0
 11
18.40273162
 21
16.3800084123
 31
0.0
  0
LINE
  5
1D3
330
1F
100
AcDbEntity
  8
0
  6
Continuous
 62
     7
370
    25
100
AcDbLine
 10
18.4617867381
 20
16.4489060501
 30
0.0
 11
17.6606056357
 21
16.4489060501
 31
0.0
  0
ARC
  5
1D4
330
1F
100
AcDbEntity
  8
0
  6
Continuous
 62
     7
370
    25
100
AcDbCircle
 10
19.4834402814
 20
17.3557439731
 30
0.0
 40
0.0098425196850407
100
AcDbArc
 50
90.0
 51
180.0
  0
ARC
  5
1D5
330
1F
100
AcDbEntity
  8
0
  6
Continuous
 62
     7
370
    25
100
AcDbCircle
 10
19.4834402814
 20
16.4029880676
 30
0.0
 40
0.0098425196850407
100
AcDbArc
 50
180.0
 51
270.0
  0
ARC
  5
1D6
330
1F
100
AcDbEntity
  8
0
  6
Continuous
 62
     7
370
    25
100
AcDbCircle
 10
20.0877709901
 20
17.3498384613
 30
0.0
 40
0.015748031496063
100
AcDbArc
 50
0.0
 51
90.0
  0
ARC
  5
1D7
330
1F
100
AcDbEntity
  8
0
  6
Continuous
 62
     7
370
    25
100
AcDbCircle
 10
20.0877709901
 20
16.4088935794
 30
0.0
 40
0.0157480314960665
100
AcDbArc
 50
270.0
 51
0.0
  0
LINE
  5
1D8
330
1F
100
AcDbEntity
  8
0
  6
Continuous
 62
     7
370
    25
100
AcDbLine
 10
20.0051535345
 20
16.3931455479
 30
0.0
 11
20.0877709901
 21
16.3931455479
 31
0.0
  0
LINE
  5
1D9
330
1F
100
AcDbEntity
  8
0
  6
Continuous
 62
     7
370
    25
100
AcDbLine
 10
19.7048969743
 20
16.3931455479
 30
0.0
 11
19.7492459713
 21
16.3931455479
 31
0.0
  0
LINE
  5
1DA
330
1F
100
AcDbEntity
  8
0
  6
Continuous
 62
     7
370
    25
100
AcDbLine
 10
19.4834402814
 20
16.3931455479
 30
0.0
 11
19.5966292578
 21
16.3931455479
 31
0.0
  0
LINE
  5
1DB
330
1F
100
AcDbEntity
  8
0
  6
Continuous
 62
     7
370
    25
100
AcDbLine
 10
20.0877709901
 20
17.3655864928
 30
0.0
 11
19.4834402814
 21
17.3655864928
 31
0.0
  0
SPLINE
  5
1DC
330
1F
100
AcDbEntity
  8
0
  6
Continuous
 62
     7
370
    25
100
AcDbSpline
210
0.0
220
0.0
230
1.0
 70
     8
 71
     3
 72
    13
 73
     9
 74
     0
 42
0.00000001
 43
0.0000000001
 40
0.0
 40
0.0
 40
0.0
 40
0.0
 40
0.239586287045413
 40
0.3684436530493892
 40
0.4999997215528157
 40
0.6315558306622651
 40
0.7604133135872459
 40
1.0
 40
1.0
 40
1.0
 40
1.0
 10
19.98337472896525
 20
16.37406314282794
 30
0.0
 10
19.98365263525575
 20
16.37652303253411
 30
0.0
 10
19.9840800086674
 20
16.38030593163331
 30
0.0
 10
19.98650366175844
 20
16.38486246085046
 30
0.0
 10
19.98899688192274
 20
16.38800191005328
 30
0.0
 10
19.99208109094517
 20
16.39053977640284
 30
0.0
 10
19.99655744249312
 20
16.39300681267987
 30
0.0
 10
20.00027378422368
 20
16.39344178023557
 30
0.0
 10
20.0026903945948
 20
16.39372462481295
 30
0.0
  0
LINE
  5
1DD
330
1F
100
AcDbEntity
  8
0
  6
Continuous
 62
     7
370
    25
100
AcDbLine
 10
19.7688733523
 20
16.370015429
 30
0.0
 11
19.7688733523
 21
15.7238542093
 31
0.0
  0
LINE
  5
1DE
330
1F
100
AcDbEntity
  8
0
  6
Continuous
 62
     7
370
    25
100
AcDbLine
 10
19.9854087853
 20
15.7238542093
 30
0.0
 11
19.9854087853
 21
16.3734461353
 31
0.0
  0
ARC
  5
1DF
330
1F
100
AcDbEntity
  8
0
  6
Continuous
 62
     7
370
    25
100
AcDbCircle
 10
19.9696607538
 20
15.7238542093
 30
0.0
 40
0.0157480314960665
100
AcDbArc
 50
270.0
 51
0.0
  0
ARC
  5
1E0
330
1F
100
AcDbEntity
  8
0
  6
Continuous
 62
     7
370
    25
100
AcDbCircle
 10
19.7846213838
 20
15.7238542093
 30
0.0
 40
0.015748031496063
100
AcDbArc
 50
180.0
 51
270.0
  0
ARC
  5
1E1
330
1F
100
AcDbEntity
  8
0
  6
Continuous
 62
     7
370
    25
100
AcDbCircle
 10
19.4814717775
 20
18.0210983038
 30
0.0
 40
0.0098425196850407
100
AcDbArc
 50
180.0
 51
270.0
  0
ARC
  5
1E2
330
1F
100
AcDbEntity
  8
0
  6
Continuous
 62
     7
370
    25
100
AcDbCircle
 10
19.4814717775
 20
18.4935392487
 30
0.0
 40
0.0098425196850407
100
AcDbArc
 50
90.0
 51
180.0
  0
LINE
  5
1E3
330
1F
100
AcDbEntity
  8
0
  6
Continuous
 62
     7
370
    25
100
AcDbLine
 10
19.8505662657
 20
18.0112557841
 30
0.0
 11
19.9480072105
 21
18.0112557841
 31
0.0
  0
LINE
  5
1E4
330
1F
100
AcDbEntity
  8
0
  6
Continuous
 62
     7
370
    25
100
AcDbLine
 10
19.4814717775
 20
18.0112557841
 30
0.0
 11
19.7422985491
 21
18.0112557841
 31
0.0
  0
LINE
  5
1E5
330
1F
100
AcDbEntity
  8
0
  6
Continuous
 62
     7
370
    25
100
AcDbLine
 10
19.717592333
 20
18.5033817684
 30
0.0
 11
19.4814717775
 21
18.5033817684
 31
0.0
  0
LINE
  5
1E6
330
1F
100
AcDbEntity
  8
0
  6
Continuous
 62
     7
370
    25
100
AcDbLine
 10
19.9480072105
 20
18.5033817684
 30
0.0
 11
19.8754374774
 21
18.5033817684
 31
0.0
  0
ARC
  5
1E7
330
1F
100
AcDbEntity
  8
0
  6
Continuous
 62
     7
370
    25
100
AcDbCircle
 10
19.9480072105
 20
18.4876337369
 30
0.0
 40
0.015748031496063
100
AcDbArc
 50
0.0
 51
90.0
  0
ARC
  5
1E8
330
1F
100
AcDbEntity
  8
0
  6
Continuous
 62
     7
370
    25
100
AcDbCircle
 10
19.9480072105
 20
18.0270038156
 30
0.0
 40
0.015748031496063
100
AcDbArc
 50
270.0
 51
0.0
  0
LINE
  5
1E9
330
1F
100
AcDbEntity
  8
0
  6
Continuous
 62
     7
370
    25
100
AcDbLine
 10
19.8751725649
 20
18.5030669564
 30
0.0
 11
19.8751725649
 21
19.1766101149
 31
0.0
  0
LINE
  5
1EA
330
1F
100
AcDbEntity
  8
0
  6
Continuous
 62
     7
370
    25
100
AcDbLine
 10
19.7176922499
 20
19.1766101149
 30
0.0
 11
19.7176922499
 21
18.5030662556
 31
0.0
  0
ARC
  5
1EB
330
1F
100
AcDbEntity
  8
0
  6
Continuous
 62
     7
370
    25
100
AcDbCircle
 10
19.7334402814
 20
19.1766101149
 30
0.0
 40
0.015748031496063
100
AcDbArc
 50
90.0
 51
180.0
  0
ARC
  5
1EC
330
1F
100
AcDbEntity
  8
0
  6
Continuous
 62
     7
370
    25
100
AcDbCircle
 10
19.8594245334
 20
19.1766101149
 30
0.0
 40
0.015748031496063
100
AcDbArc
 50
0.0
 51
90.0
  0
LINE
  5
1ED
330
1F
100
AcDbEntity
  8
0
  6
Continuous
 62
     7
370
    25
100
AcDbLine
 10
18.4617867381
 20
16.446109933
 30
0.0
 11
18.40273162
 21
16.446109933
 31
0.0
  0
ARC
  5
1EE
330
1F
100
AcDbEntity
  8
0
  6
Continuous
 62
     7
370
    25
100
AcDbCircle
 10
18.5700544546
 20
17.4049565715
 30
0.0
 40
0.0295275590551185
100
AcDbArc
 50
180.0
 51
270.0
  0
LINE
  5
1EF
330
1F
100
AcDbEntity
  8
0
  6
Continuous
 62
     7
370
    25
100
AcDbLine
 10
18.588595637
 20
16.3833030282
 30
0.0
 11
18.5995820137
 21
16.3833030282
 31
0.0
  0
LINE
  5
1F0
330
1F
100
AcDbEntity
  8
0
  6
Continuous
 62
     7
370
    25
100
AcDbLine
 10
18.5995820137
 20
17.3754290125
 30
0.0
 11
18.5700544546
 21
17.3754290125
 31
0.0
  0
LINE
  5
1F1
330
1F
100
AcDbEntity
  8
0
  6
Continuous
 62
     7
370
    25
100
AcDbLine
 10
18.5995820137
 20
16.3833030282
 30
0.0
 11
18.6291095727
 21
16.3931455479
 31
0.0
  0
LINE
  5
1F2
330
1F
100
AcDbEntity
  8
0
  6
Continuous
 62
     7
370
    25
100
AcDbLine
 10
18.6291095727
 20
17.3655864928
 30
0.0
 11
18.5995820137
 21
17.3754290125
 31
0.0
  0
LINE
  5
1F3
330
1F
100
AcDbEntity
  8
0
  6
Continuous
 62
     7
370
    25
100
AcDbLine
 10
18.6291095727
 20
16.3931455479
 30
0.0
 11
19.0188733523
 21
16.3931455479
 31
0.0
  0
LINE
  5
1F4
330
1F
100
AcDbEntity
  8
0
  6
Continuous
 62
     7
370
    25
100
AcDbLine
 10
19.2885583916
 20
16.3931455479
 30
0.0
 11
19.4361961869
 21
16.3931455479
 31
0.0
  0
LINE
  5
1F5
330
1F
100
AcDbEntity
  8
0
  6
Continuous
 62
     7
370
    25
100
AcDbLine
 10
19.4361961869
 20
17.3655864928
 30
0.0
 11
19.2885583916
 21
17.3655864928
 31
0.0
  0
LINE
  5
1F6
330
1F
100
AcDbEntity
  8
0
  6
Continuous
 62
     7
370
    25
100
AcDbLine
 10
19.0188733523
 20
17.3655864928
 30
0.0
 11
18.6291095727
 21
17.3655864928
 31
0.0
  0
LINE
  5
1F7
330
1F
100
AcDbEntity
  8
0
  6
Continuous
 62
     7
370
    25
100
AcDbLine
 10
19.4361961869
 20
16.3931455479
 30
0.0
 11
19.4460387066
 21
16.4029880676
 31
0.0
  0
LINE
  5
1F8
330
1F
100
AcDbEntity
  8
0
  6
Continuous
 62
     7
370
    25
100
AcDbLine
 10
19.4460387066
 20
17.3557439731
 30
0.0
 11
19.4361961869
 21
17.3655864928
 31
0.0
  0
ARC
  5
1F9
330
1F
100
AcDbEntity
  8
0
  6
Continuous
 62
     7
370
    25
100
AcDbCircle
 10
19.465723746
 20
17.2435392487
 30
0.0
 40
0.0196850393700778
100
AcDbArc
 50
180.0
 51
270.0
  0
ARC
  5
1FA
330
1F
100
AcDbEntity
  8
0
  6
Continuous
 62
     7
370
    25
100
AcDbCircle
 10
19.465723746
 20
16.515192792
 30
0.0
 40
0.0196850393700778
100
AcDbArc
 50
90.0
 51
180.0
  0
LINE
  5
1FB
330
1F
100
AcDbEntity
  8
0
  6
Continuous
 62
     7
370
    25
100
AcDbLine
 10
19.4735977617
 20
17.2238542093
 30
0.0
 11
19.465723746
 21
17.2238542093
 31
0.0
  0
LINE
  5
1FC
330
1F
100
AcDbEntity
  8
0
  6
Continuous
 62
     7
370
    25
100
AcDbLine
 10
19.465723746
 20
16.5348778314
 30
0.0
 11
19.4735977617
 21
16.5348778314
 31
0.0
  0
LINE
  5
1FD
330
1F
100
AcDbEntity
  8
0
  6
Continuous
 62
     7
370
    25
100
AcDbLine
 10
19.4361961869
 20
18.5033817684
 30
0.0
 11
19.2885583916
 21
18.5033817684
 31
0.0
  0
LINE
  5
1FE
330
1F
100
AcDbEntity
  8
0
  6
Continuous
 62
     7
370
    25
100
AcDbLine
 10
19.0188733523
 20
18.5033817684
 30
0.0
 11
18.6271410688
 21
18.5033817684
 31
0.0
  0
LINE
  5
1FF
330
1F
100
AcDbEntity
  8
0
  6
Continuous
 62
     7
370
    25
100
AcDbLine
 10
18.6271410688
 20
18.0112557841
 30
0.0
 11
19.0188733523
 21
18.0112557841
 31
0.0
  0
LINE
  5
200
330
1F
100
AcDbEntity
  8
0
  6
Continuous
 62
     7
370
    25
100
AcDbLine
 10
19.2885583916
 20
18.0112557841
 30
0.0
 11
19.4361961869
 21
18.0112557841
 31
0.0
  0
LINE
  5
201
330
1F
100
AcDbEntity
  8
0
  6
Continuous
 62
     7
370
    25
100
AcDbLine
 10
19.4361961869
 20
18.0112557841
 30
0.0
 11
19.4460387066
 21
18.0210983038
 31
0.0
  0
LINE
  5
202
330
1F
100
AcDbEntity
  8
0
  6
Continuous
 62
     7
370
    25
100
AcDbLine
 10
19.4460387066
 20
18.4935392487
 30
0.0
 11
19.4361961869
 21
18.5033817684
 31
0.0
  0
ARC
  5
203
330
1F
100
AcDbEntity
  8
0
  6
Continuous
 62
     7
370
    25
100
AcDbCircle
 10
18.5838339822
 20
18.0279880676
 30
0.0
 40
0.0059055118110245
100
AcDbArc
 50
109.4712206345
 51
180.0
  0
ARC
  5
204
330
1F
100
AcDbEntity
  8
0
  6
Continuous
 62
     7
370
    25
100
AcDbCircle
 10
18.5838339822
 20
18.4866494849
 30
0.0
 40
0.0059055118110245
100
AcDbArc
 50
180.0
 51
250.5287793655
  0
ARC
  5
205
330
1F
100
AcDbEntity
  8
0
  6
Continuous
 62
     7
370
    25
100
AcDbCircle
 10
18.621235557
 20
18.0279880676
 30
0.0
 40
0.0059055118110258
100
AcDbArc
 50
0.0
 51
90.0
  0
ARC
  5
206
330
1F
100
AcDbEntity
  8
0
  6
Continuous
 62
     7
370
    25
100
AcDbCircle
 10
18.621235557
 20
18.4866494849
 30
0.0
 40
0.0059055118110223
100
AcDbArc
 50
270.0
 51
0.0
  0
LINE
  5
207
330
1F
100
AcDbEntity
  8
0
  6
Continuous
 62
     7
370
    25
100
AcDbLine
 10
19.4716292578
 20
18.4443266503
 30
0.0
 11
19.4460387066
 21
18.4443266503
 31
0.0
  0
LINE
  5
208
330
1F
100
AcDbEntity
  8
0
  6
Continuous
 62
     7
370
    25
100
AcDbLine
 10
19.4460387066
 20
18.0703109023
 30
0.0
 11
19.4716292578
 21
18.0703109023
 31
0.0
  0
LINE
  5
209
330
1F
100
AcDbEntity
  8
0
  6
Continuous
 62
     7
370
    25
100
AcDbLine
 10
18.5247788641
 20
18.5033817684
 30
0.0
 11
18.5149363444
 21
18.4935392487
 31
0.0
  0
LINE
  5
20A
330
1F
100
AcDbEntity
  8
0
  6
Continuous
 62
     7
370
    25
100
AcDbLine
 10
18.5149363444
 20
18.0210983038
 30
0.0
 11
18.5247788641
 21
18.0112557841
 31
0.0
  0
LINE
  5
20B
330
1F
100
AcDbEntity
  8
0
  6
Continuous
 62
     7
370
    25
100
AcDbLine
 10
18.5247788641
 20
18.0112557841
 30
0.0
 11
18.5680859507
 21
18.0112557841
 31
0.0
  0
LINE
  5
20C
330
1F
100
AcDbEntity
  8
0
  6
Continuous
 62
     7
370
    25
100
AcDbLine
 10
18.5680859507
 20
18.5033817684
 30
0.0
 11
18.5247788641
 21
18.5033817684
 31
0.0
  0
LINE
  5
20D
330
1F
100
AcDbEntity
  8
0
  6
Continuous
 62
     7
370
    25
100
AcDbLine
 10
18.5680859507
 20
18.0112557841
 30
0.0
 11
18.5779284704
 21
18.0210983038
 31
0.0
  0
LINE
  5
20E
330
1F
100
AcDbEntity
  8
0
  6
Continuous
 62
     7
370
    25
100
AcDbLine
 10
18.5779284704
 20
18.4935392487
 30
0.0
 11
18.5680859507
 21
18.5033817684
 31
0.0
  0
LINE
  5
20F
330
1F
100
AcDbEntity
  8
0
  6
Continuous
 62
     7
370
    25
100
AcDbLine
 10
18.4125741397
 20
18.392161296
 30
0.0
 11
18.4066686279
 21
18.3862557841
 31
0.0
  0
LINE
  5
210
330
1F
100
AcDbEntity
  8
0
  6
Continuous
 62
     7
370
    25
100
AcDbLine
 10
18.5070623287
 20
18.1224762566
 30
0.0
 11
18.5149363444
 21
18.1224762566
 31
0.0
  0
LINE
  5
211
330
1F
100
AcDbEntity
  8
0
  6
Continuous
 62
     7
370
    25
100
AcDbLine
 10
18.5149363444
 20
18.392161296
 30
0.0
 11
18.4125741397
 21
18.392161296
 31
0.0
  0
LINE
  5
212
330
1F
100
AcDbEntity
  8
0
  6
Continuous
 62
     7
370
    25
100
AcDbLine
 10
18.5011568168
 20
18.1283817684
 30
0.0
 11
18.5070623287
 21
18.1224762566
 31
0.0
  0
LINE
  5
213
330
1F
100
AcDbEntity
  8
0
  6
Continuous
 62
     7
370
    25
100
AcDbLine
 10
19.1720808383
 20
16.4577944011
 30
0.0
 11
19.1720808383
 21
15.9342956612
 31
0.0
  0
SPLINE
  5
214
330
1F
100
AcDbEntity
  8
0
  6
Continuous
 62
     7
370
    25
100
AcDbSpline
210
0.0
220
0.0
230
1.0
 70
     8
 71
     3
 72
    11
 73
     7
 74
     0
 42
0.00000001
 43
0.0000000001
 40
0.0
 40
0.0
 40
0.0
 40
0.0
 40
0.50540428017129
 40
0.7379081210079263
 40
0.8723100251294294
 40
1.0
 40
1.0
 40
1.0
 40
1.0
 10
19.17208083830666
 20
15.93429610967226
 30
0.0
 10
19.16938196043747
 20
15.93430723902515
 30
0.0
 10
19.16544150331152
 20
15.93432348827393
 30
0.0
 10
19.16079331387773
 20
15.93425856024897
 30
0.0
 10
19.15814000277668
 20
15.93438003763372
 30
0.0
 10
19.15701402309631
 20
15.93457118516621
 30
0.0
 10
19.15646545090231
 20
15.9346643113772
 30
0.0
  0
SPLINE
  5
215
330
1F
100
AcDbEntity
  8
0
  6
Continuous
 62
     7
370
    25
100
AcDbSpline
210
0.0
220
0.0
230
1.0
 70
     8
 71
     3
 72
    11
 73
     7
 74
     0
 42
0.00000001
 43
0.0000000001
 40
0.0
 40
0.0
 40
0.0
 40
0.0
 40
0.0893343856194573
 40
0.2186234477520545
 40
0.6366138494832824
 40
1.0
 40
1.0
 40
1.0
 40
1.0
 10
19.15651969624603
 20
16.45946648680639
 30
0.0
 10
19.15687352729532
 20
16.45914884130668
 30
0.0
 10
19.15773943982588
 20
16.45837148381072
 30
0.0
 10
19.1610839278562
 20
16.45736513648497
 30
0.0
 10
19.16597939152737
 20
16.45792380370065
 30
0.0
 10
19.17014403406561
 20
16.45783586202163
 30
0.0
 10
19.17208083830666
 20
16.45779496395767
 30
0.0
  0
LINE
  5
216
330
1F
100
AcDbEntity
  8
0
  6
Continuous
 62
     7
370
    25
100
AcDbLine
 10
19.1720808383
 20
16.4577941627
 30
0.0
 11
19.1720808383
 21
16.4593927531
 31
0.0
  0
LINE
  5
217
330
1F
100
AcDbEntity
  8
0
  6
Continuous
 62
     7
370
    25
100
AcDbLine
 10
19.1720808383
 20
18.9664972683
 30
0.0
 11
19.1720808383
 21
18.4431721244
 31
0.0
  0
SPLINE
  5
218
330
1F
100
AcDbEntity
  8
0
  6
Continuous
 62
     7
370
    25
100
AcDbSpline
210
0.0
220
0.0
230
1.0
 70
     8
 71
     3
 72
    11
 73
     7
 74
     0
 42
0.00000001
 43
0.0000000001
 40
0.0
 40
0.0
 40
0.0
 40
0.0
 40
0.5054042801712184
 40
0.7379081210078212
 40
0.8723100251293063
 40
1.0
 40
1.0
 40
1.0
 40
1.0
 10
19.17208083830666
 20
18.44317138068791
 30
0.0
 10
19.16938196043747
 20
18.44312274718951
 30
0.0
 10
19.16544150331152
 20
18.44305174056207
 30
0.0
 10
19.16079331387773
 20
18.44333546568333
 30
0.0
 10
19.15814000277668
 20
18.44280462887225
 30
0.0
 10
19.15701402309631
 20
18.44196934461904
 30
0.0
 10
19.15646545090231
 20
18.44156239791885
 30
0.0
  0
SPLINE
  5
219
330
1F
100
AcDbEntity
  8
0
  6
Continuous
 62
     7
370
    25
100
AcDbSpline
210
0.0
220
0.0
230
1.0
 70
     8
 71
     3
 72
    11
 73
     7
 74
     0
 42
0.00000001
 43
0.0000000001
 40
0.0
 40
0.0
 40
0.0
 40
0.0
 40
0.0893343856196002
 40
0.2186234477521767
 40
0.6366138494833393
 40
1.0
 40
1.0
 40
1.0
 40
1.0
 10
19.15651969624603
 20
18.9661138326536
 30
0.0
 10
19.15687352729532
 20
18.96618663375847
 30
0.0
 10
19.15773943982588
 20
18.96636479615848
 30
0.0
 10
19.1610839278562
 20
18.96659544068907
 30
0.0
 10
19.16597939152737
 20
18.96646739986822
 30
0.0
 10
19.17014403406561
 20
18.96648755520301
 30
0.0
 10
19.17208083830666
 20
18.96649692862163
 30
0.0
  0
LINE
  5
21A
330
1F
100
AcDbEntity
  8
0
  6
Continuous
 62
     7
370
    25
100
AcDbLine
 10
19.1720808383
 20
18.4415734704
 30
0.0
 11
19.1720808383
 21
18.4431724392
 31
0.0
  0
LINE
  5
21B
330
1F
100
AcDbEntity
  8
0
  6
Continuous
 62
     7
370
    25
100
AcDbLine
 10
18.2216292578
 20
16.3600966087
 30
0.0
 11
18.2216292578
 21
16.2962732273
 31
0.0
  0
LINE
  5
21C
330
1F
100
AcDbEntity
  8
0
  6
Continuous
 62
     7
370
    25
100
AcDbLine
 10
18.2216292578
 20
18.6041910969
 30
0.0
 11
18.2216292578
 21
18.5403677155
 31
0.0
  0
LINE
  5
21D
330
1F
100
AcDbEntity
  8
0
  6
Continuous
 62
     7
370
    25
100
AcDbLine
 10
18.2290876459
 20
16.3675549967
 30
0.0
 11
18.2290876459
 21
16.2888148393
 31
0.0
  0
LINE
  5
21E
330
1F
100
AcDbEntity
  8
0
  6
Continuous
 62
     7
370
    25
100
AcDbLine
 10
18.2290876459
 20
18.6116494849
 30
0.0
 11
18.2290876459
 21
18.5329093274
 31
0.0
  0
LINE
  5
21F
330
1F
100
AcDbEntity
  8
0
  6
Continuous
 62
     7
370
    25
100
AcDbLine
 10
19.0188733523
 20
17.0527750837
 30
0.0
 11
19.0188733523
 21
17.1008351899
 31
0.0
  0
LINE
  5
220
330
1F
100
AcDbEntity
  8
0
  6
Continuous
 62
     7
370
    25
100
AcDbLine
 10
19.0188733523
 20
17.7996291343
 30
0.0
 11
19.0188733523
 21
17.8476892405
 31
0.0
  0
LINE
  5
221
330
1F
100
AcDbEntity
  8
0
  6
Continuous
 62
     7
370
    25
100
AcDbLine
 10
19.0188733523
 20
17.1008351899
 30
0.0
 11
19.0188733523
 21
17.7996291343
 31
0.0
  0
LINE
  5
222
330
1F
100
AcDbEntity
  8
0
  6
Continuous
 62
     7
370
    25
100
AcDbLine
 10
19.0188733523
 20
19.0289208731
 30
0.0
 11
19.0188733523
 21
17.8476892405
 31
0.0
  0
LINE
  5
223
330
1F
100
AcDbEntity
  8
0
  6
Continuous
 62
     7
370
    25
100
AcDbLine
 10
19.0188733523
 20
17.0527750837
 30
0.0
 11
19.0188733523
 21
15.8715434511
 31
0.0
  0
LINE
  5
224
330
1F
100
AcDbEntity
  8
0
  6
Continuous
 62
     7
370
    25
100
AcDbLine
 10
19.0188733523
 20
19.0348778314
 30
0.0
 11
19.0877709901
 21
19.0348778314
 31
0.0
  0
LINE
  5
225
330
1F
100
AcDbEntity
  8
0
  6
Continuous
 62
     7
370
    25
100
AcDbLine
 10
19.0188733523
 20
19.0289208731
 30
0.0
 11
19.0188733523
 21
19.0348778314
 31
0.0
  0
LINE
  5
226
330
1F
100
AcDbEntity
  8
0
  6
Continuous
 62
     7
370
    25
100
AcDbLine
 10
19.0877709901
 20
15.8655864928
 30
0.0
 11
19.0188733523
 21
15.8655864928
 31
0.0
  0
LINE
  5
227
330
1F
100
AcDbEntity
  8
0
  6
Continuous
 62
     7
370
    25
100
AcDbLine
 10
19.0188733523
 20
15.8655864928
 30
0.0
 11
19.0188733523
 21
15.8715434511
 31
0.0
  0
LINE
  5
228
330
1F
100
AcDbEntity
  8
0
  6
Continuous
 62
     7
370
    25
100
AcDbLine
 10
19.0946607538
 20
17.8145596459
 30
0.0
 11
19.0946607538
 21
17.8394487509
 31
0.0
  0
LINE
  5
229
330
1F
100
AcDbEntity
  8
0
  6
Continuous
 62
     7
370
    25
100
AcDbLine
 10
19.0946607538
 20
17.0859046783
 30
0.0
 11
19.0946607538
 21
17.8145596459
 31
0.0
  0
LINE
  5
22A
330
1F
100
AcDbEntity
  8
0
  6
Continuous
 62
     7
370
    25
100
AcDbLine
 10
19.0946607538
 20
17.0610155733
 30
0.0
 11
19.0946607538
 21
17.0859046783
 31
0.0
  0
LINE
  5
22B
330
1F
100
AcDbEntity
  8
0
  6
Continuous
 62
     7
370
    25
100
AcDbLine
 10
19.0975276187
 20
17.86072621569999
 30
0.0
 11
19.0975276187
 21
17.8394487509
 31
0.0
  0
LINE
  5
22C
330
1F
100
AcDbEntity
  8
0
  6
Continuous
 62
     7
370
    25
100
AcDbLine
 10
19.0975276187
 20
17.0610155733
 30
0.0
 11
19.0975276187
 21
17.0397381085
 31
0.0
  0
LINE
  5
22D
330
1F
100
AcDbEntity
  8
0
  6
Continuous
 62
     7
370
    25
100
AcDbLine
 10
19.0877709901
 20
17.0859046783
 30
0.0
 11
19.0877709901
 21
17.8145596459
 31
0.0
  0
LINE
  5
22E
330
1F
100
AcDbEntity
  8
0
  6
Continuous
 62
     7
370
    25
100
AcDbLine
 10
19.0946607538
 20
17.8145596459
 30
0.0
 11
19.0877709901
 21
17.8145596459
 31
0.0
  0
LINE
  5
22F
330
1F
100
AcDbEntity
  8
0
  6
Continuous
 62
     7
370
    25
100
AcDbLine
 10
19.0946607538
 20
17.0859046783
 30
0.0
 11
19.0877709901
 21
17.0859046783
 31
0.0
  0
LINE
  5
230
330
1F
100
AcDbEntity
  8
0
  6
Continuous
 62
     7
370
    25
100
AcDbLine
 10
19.0877709901
 20
17.8145596459
 30
0.0
 11
19.0877709901
 21
17.8584189731
 31
0.0
  0
ARC
  5
231
330
1F
100
AcDbEntity
  8
0
  6
Continuous
 62
     7
370
    25
100
AcDbCircle
 10
19.0952404344
 20
17.848615492
 30
0.0
 40
0.0123248058778968
100
AcDbArc
 50
79.3053023917
 51
127.3044122111
  0
LINE
  5
232
330
1F
100
AcDbEntity
  8
0
  6
Continuous
 62
     7
370
    25
100
AcDbLine
 10
19.0946607538
 20
17.8394487509
 30
0.0
 11
19.0975276187
 21
17.8394487509
 31
0.0
  0
ARC
  5
233
330
1F
100
AcDbEntity
  8
0
  6
Continuous
 62
     7
370
    25
100
AcDbCircle
 10
19.0952404344
 20
17.0518488322
 30
0.0
 40
0.0123248058778968
100
AcDbArc
 50
232.6955877889
 51
280.6946976083001
  0
LINE
  5
234
330
1F
100
AcDbEntity
  8
0
  6
Continuous
 62
     7
370
    25
100
AcDbLine
 10
19.0877709901
 20
17.0420453511
 30
0.0
 11
19.0877709901
 21
17.0859046783
 31
0.0
  0
LINE
  5
235
330
1F
100
AcDbEntity
  8
0
  6
Continuous
 62
     7
370
    25
100
AcDbLine
 10
19.0975276187
 20
17.0610155733
 30
0.0
 11
19.0946607538
 21
17.0610155733
 31
0.0
  0
LINE
  5
236
330
1F
100
AcDbEntity
  8
0
  6
Continuous
 62
     7
370
    25
100
AcDbLine
 10
19.0975276187
 20
18.3781575685
 30
0.0
 11
19.0975276187
 21
17.86072621569999
 31
0.0
  0
LINE
  5
237
330
1F
100
AcDbEntity
  8
0
  6
Continuous
 62
     7
370
    25
100
AcDbLine
 10
19.0975276187
 20
18.3781575685
 30
0.0
 11
19.0976135098
 21
18.3781579657
 31
0.0
  0
LINE
  5
238
330
1F
100
AcDbEntity
  8
0
  6
Continuous
 62
     7
370
    25
100
AcDbLine
 10
19.0975276187
 20
19.1525067182
 30
0.0
 11
19.0975276187
 21
18.9352232303
 31
0.0
  0
LINE
  5
239
330
1F
100
AcDbEntity
  8
0
  6
Continuous
 62
     7
370
    25
100
AcDbLine
 10
19.0975276187
 20
15.9652410939
 30
0.0
 11
19.0975276187
 21
15.74795760599999
 31
0.0
  0
LINE
  5
23A
330
1F
100
AcDbEntity
  8
0
  6
Continuous
 62
     7
370
    25
100
AcDbLine
 10
19.0976135098
 20
16.5223063585
 30
0.0
 11
19.0975276187
 21
16.5223067557
 31
0.0
  0
LINE
  5
23B
330
1F
100
AcDbEntity
  8
0
  6
Continuous
 62
     7
370
    25
100
AcDbLine
 10
19.0975276187
 20
17.0397381085
 30
0.0
 11
19.0975276187
 21
16.5223067557
 31
0.0
  0
ARC
  5
23C
330
1F
100
AcDbEntity
  8
0
  6
Continuous
 62
     7
370
    25
100
AcDbCircle
 10
19.0975916795
 20
18.36015276
 30
0.0
 40
0.018004922459002
100
AcDbArc
 50
90.20385655549999
 51
99.36856636100001
  0
LINE
  5
23D
330
1F
100
AcDbEntity
  8
0
  6
Continuous
 62
     7
370
    25
100
AcDbLine
 10
19.0877709901
 20
17.8584189731
 30
0.0
 11
19.0877709901
 21
19.1429388319
 31
0.0
  0
ARC
  5
23E
330
1F
100
AcDbEntity
  8
0
  6
Continuous
 62
     7
370
    25
100
AcDbCircle
 10
19.0974755139
 20
19.1428013606
 30
0.0
 40
0.0097054974674518
100
AcDbArc
 50
89.6924014278
 51
179.1884197751
  0
LINE
  5
23F
330
1F
100
AcDbEntity
  8
0
  6
Continuous
 62
     7
370
    25
100
AcDbLine
 10
19.0946607538
 20
18.3779175259
 30
0.0
 11
19.0946607538
 21
18.9348390818
 31
0.0
  0
ARC
  5
240
330
1F
100
AcDbEntity
  8
0
  6
Continuous
 62
     7
370
    25
100
AcDbCircle
 10
19.0974755139
 20
15.7576629636
 30
0.0
 40
0.0097054974674466
100
AcDbArc
 50
180.8115802249
 51
270.3075985722
  0
LINE
  5
241
330
1F
100
AcDbEntity
  8
0
  6
Continuous
 62
     7
370
    25
100
AcDbLine
 10
19.0877709901
 20
15.7575254923
 30
0.0
 11
19.0877709901
 21
17.0420453511
 31
0.0
  0
ARC
  5
242
330
1F
100
AcDbEntity
  8
0
  6
Continuous
 62
     7
370
    25
100
AcDbCircle
 10
19.0975916795
 20
16.5403115642
 30
0.0
 40
0.018004922459133
100
AcDbArc
 50
260.631433639
 51
269.7961434445
  0
LINE
  5
243
330
1F
100
AcDbEntity
  8
0
  6
Continuous
 62
     7
370
    25
100
AcDbLine
 10
19.0946607538
 20
15.9656252424
 30
0.0
 11
19.0946607538
 21
16.5225467983
 31
0.0
  0
ARC
  5
244
330
1F
100
AcDbEntity
  8
0
  6
Continuous
 62
     7
370
    25
100
AcDbCircle
 10
19.0924524351
 20
16.5085945721
 30
0.0
 40
0.0141259083691746
100
AcDbArc
 50
68.57011790279999
 51
81.0059964304
  0
ARC
  5
245
330
1F
100
AcDbEntity
  8
0
  6
Continuous
 62
     7
370
    25
100
AcDbCircle
 10
19.0924524351
 20
18.3918697521
 30
0.0
 40
0.0141259083777468
100
AcDbArc
 50
278.9940035729
 51
291.4298820929
  0
ARC
  5
246
330
1F
100
AcDbEntity
  8
0
  6
Continuous
 62
     7
370
    25
100
AcDbCircle
 10
19.0919932847
 20
15.9554585047
 30
0.0
 40
0.010510848968713
100
AcDbArc
 50
58.2283372886
 51
75.2985474614
  0
ARC
  5
247
330
1F
100
AcDbEntity
  8
0
  6
Continuous
 62
     7
370
    25
100
AcDbCircle
 10
19.0919932846
 20
18.9450058197
 30
0.0
 40
0.0105108492240346
100
AcDbArc
 50
284.701452733
 51
301.771662486
  0
LINE
  5
248
330
1F
100
AcDbEntity
  8
0
  6
Continuous
 62
     7
370
    25
100
AcDbLine
 10
19.0975276187
 20
19.1564153741
 30
0.0
 11
19.0975276187
 21
19.1525067182
 31
0.0
  0
LINE
  5
249
330
1F
100
AcDbEntity
  8
0
  6
Continuous
 62
     7
370
    25
100
AcDbLine
 10
19.0975276187
 20
15.74795760599999
 30
0.0
 11
19.0975276187
 21
15.7440489501
 31
0.0
  0
ARC
  5
24A
330
1F
100
AcDbEntity
  8
0
  6
Continuous
 62
     7
370
    25
100
AcDbCircle
 10
19.0976135098
 20
19.1481523273
 30
0.0
 40
0.0098425196850416
100
AcDbArc
 50
107.4576031237
 51
180.0
  0
LINE
  5
24B
330
1F
100
AcDbEntity
  8
0
  6
Continuous
 62
     7
370
    25
100
AcDbLine
 10
19.0946607538
 20
19.1559587245
 30
0.0
 11
19.0946607538
 21
19.1575414927
 31
0.0
  0
LINE
  5
24C
330
1F
100
AcDbEntity
  8
0
  6
Continuous
 62
     7
370
    25
100
AcDbLine
 10
19.0975276187
 20
19.1564153741
 30
0.0
 11
19.0946607538
 21
19.1559587245
 31
0.0
  0
LINE
  5
24D
330
1F
100
AcDbEntity
  8
0
  6
Continuous
 62
     7
370
    25
100
AcDbLine
 10
19.0877709901
 20
19.1429388319
 30
0.0
 11
19.0877709901
 21
19.1481523273
 31
0.0
  0
LINE
  5
24E
330
1F
100
AcDbEntity
  8
0
  6
Continuous
 62
     7
370
    25
100
AcDbLine
 10
19.0946607538
 20
15.7445055997
 30
0.0
 11
19.0975276187
 21
15.7440489501
 31
0.0
  0
LINE
  5
24F
330
1F
100
AcDbEntity
  8
0
  6
Continuous
 62
     7
370
    25
100
AcDbLine
 10
19.0946607538
 20
15.7429228315
 30
0.0
 11
19.0946607538
 21
15.7445055997
 31
0.0
  0
ARC
  5
250
330
1F
100
AcDbEntity
  8
0
  6
Continuous
 62
     7
370
    25
100
AcDbCircle
 10
19.0976135098
 20
15.7523119968
 30
0.0
 40
0.0098425196850407
100
AcDbArc
 50
180.0
 51
252.5423968763
  0
LINE
  5
251
330
1F
100
AcDbEntity
  8
0
  6
Continuous
 62
     7
370
    25
100
AcDbLine
 10
19.0877709901
 20
15.7523119968
 30
0.0
 11
19.0877709901
 21
15.7575254923
 31
0.0
  0
ARC
  5
252
330
1F
100
AcDbEntity
  8
0
  6
Continuous
 62
     7
370
    25
100
AcDbCircle
 10
19.0917079979
 20
19.1669306581
 30
0.0
 40
0.00984251968504
100
AcDbArc
 50
287.4576031237
 51
306.8698976458
  0
ARC
  5
253
330
1F
100
AcDbEntity
  8
0
  6
Continuous
 62
     7
370
    25
100
AcDbCircle
 10
19.0917079979
 20
15.7335336661
 30
0.0
 40
0.009842519685041
100
AcDbArc
 50
53.1301023541
 51
72.54239687630001
  0
SPLINE
  5
254
330
1F
100
AcDbEntity
  8
0
  6
Continuous
 62
     7
370
    25
100
AcDbSpline
210
0.0
220
0.0
230
1.0
 70
     8
 71
     3
 72
    12
 73
     8
 74
     0
 42
0.00000001
 43
0.0000000001
 40
0.0
 40
0.0
 40
0.0
 40
0.0
 40
0.214699611713021
 40
0.4293943058953292
 40
0.6442165981813188
 40
0.8591220957611175
 40
1.0
 40
1.0
 40
1.0
 40
1.0
 10
19.09761350975392
 20
15.64092109231937
 30
0.0
 10
19.1064581264063
 20
15.64088236542372
 30
0.0
 10
19.12414715713186
 20
15.64080491251945
 30
0.0
 10
19.14777911558787
 20
15.6402606411458
 30
0.0
 10
19.16541953379727
 20
15.63967153467554
 30
0.0
 10
19.17542535260902
 20
15.63924936028289
 30
0.0
 10
19.17536846623842
 20
15.63925121697688
 30
0.0
 10
19.17534594120598
 20
15.63925195216338
 30
0.0
  0
LINE
  5
255
330
1F
100
AcDbEntity
  8
0
  6
Continuous
 62
     7
370
    25
100
AcDbLine
 10
19.0976135098
 20
19.2612557841
 30
0.0
 11
19.0976135098
 21
15.6409210923
 31
0.0
  0
LINE
  5
256
330
1F
100
AcDbEntity
  8
0
  6
Continuous
 62
     7
370
    25
100
AcDbLine
 10
19.2885583916
 20
19.2317282251
 30
0.0
 11
19.2885583916
 21
15.6687360991
 31
0.0
  0
ARC
  5
257
330
1F
100
AcDbEntity
  8
0
  6
Continuous
 62
     7
370
    25
100
AcDbCircle
 10
18.43681615
 20
17.3452928997
 30
0.0
 40
0.1546978544381935
100
AcDbArc
 50
11.2334069654
 51
15.9190011465
  0
ARC
  5
258
330
1F
100
AcDbEntity
  8
0
  6
Continuous
 62
     7
370
    25
100
AcDbCircle
 10
18.5822078093
 20
17.3866704498
 30
0.0
 40
0.0035340203650883
100
AcDbArc
 50
342.6700761723
 51
17.3299238277
  0
ARC
  5
259
330
1F
100
AcDbEntity
  8
0
  6
Continuous
 62
     7
370
    25
100
AcDbCircle
 10
18.4368007345
 20
17.34318359
 30
0.0
 40
0.1547137560727502
100
AcDbArc
 50
12.0297692332
 51
15.9188341309
  0
LINE
  5
25A
330
1F
100
AcDbEntity
  8
0
  6
Continuous
 62
     7
370
    25
100
AcDbLine
 10
17.6547001239
 20
17.3404588049
 30
0.0
 11
17.6547001239
 21
17.3728181167
 31
0.0
  0
LINE
  5
25B
330
1F
100
AcDbEntity
  8
0
  6
Continuous
 62
     7
370
    25
100
AcDbLine
 10
17.6547001239
 20
17.3157315025
 30
0.0
 11
17.6547001239
 21
17.3404588049
 31
0.0
  0
LINE
  5
25C
330
1F
100
AcDbEntity
  8
0
  6
Continuous
 62
     7
370
    25
100
AcDbLine
 10
17.6606056357
 20
17.3396692868
 30
0.0
 11
17.6606056357
 21
17.3098259907
 31
0.0
  0
LINE
  5
25D
330
1F
100
AcDbEntity
  8
0
  6
Continuous
 62
     7
370
    25
100
AcDbLine
 10
17.6606056357
 20
17.3787236285
 30
0.0
 11
17.6606056357
 21
17.3396692868
 31
0.0
  0
ARC
  5
25E
330
1F
100
AcDbEntity
  8
0
  6
Continuous
 62
     7
370
    25
100
AcDbCircle
 10
18.5784224375
 20
16.4291448631
 30
0.0
 40
0.0125394334774337
100
AcDbArc
 50
354.6015432347
 51
5.398456765299999
  0
ARC
  5
25F
330
1F
100
AcDbEntity
  8
0
  6
Continuous
 62
     7
370
    25
100
AcDbCircle
 10
18.5493065015
 20
16.4199635839
 30
0.0
 40
0.0423622955032093
100
AcDbArc
 50
10.8876501037
 51
31.0961681731
  0
ARC
  5
260
330
1F
100
AcDbEntity
  8
0
  6
Continuous
 62
     7
370
    25
100
AcDbCircle
 10
18.4342301717
 20
16.4349287668
 30
0.0
 40
0.1515090688697595
100
AcDbArc
 50
357.3844697689
 51
2.6155302312
  0
ARC
  5
261
330
1F
100
AcDbEntity
  8
0
  6
Continuous
 62
     7
370
    25
100
AcDbCircle
 10
18.5493065015
 20
16.4061357266
 30
0.0
 40
0.0423622955031306
100
AcDbArc
 50
10.8876501037
 51
31.0961681731
  0
ARC
  5
262
330
1F
100
AcDbEntity
  8
0
  6
Continuous
 62
     7
370
    25
100
AcDbCircle
 10
18.4467346799
 20
16.4101315593
 30
0.0
 40
0.1442272098890808
100
AcDbArc
 50
358.4084817226
 51
1.5915182774
  0
ARC
  5
263
330
1F
100
AcDbEntity
  8
0
  6
Continuous
 62
     7
370
    25
100
AcDbCircle
 10
18.4684070526
 20
16.4184530539
 30
0.0
 40
0.1231178870097739
100
AcDbArc
 50
342.1243314535
 51
354.2536155203
  0
ARC
  5
264
330
1F
100
AcDbEntity
  8
0
  6
Continuous
 62
     7
370
    25
100
AcDbCircle
 10
18.5407260084
 20
16.3768937274
 30
0.0
 40
0.0450133784107222
100
AcDbArc
 50
355.1982589123
 51
4.801741087699999
  0
ARC
  5
265
330
1F
100
AcDbEntity
  8
0
  6
Continuous
 62
     7
370
    25
100
AcDbCircle
 10
18.4684070526
 20
16.410917083
 30
0.0
 40
0.1231178870094961
100
AcDbArc
 50
342.1243314535
 51
354.2536155203
  0
ARC
  5
266
330
1F
100
AcDbEntity
  8
0
  6
Continuous
 62
     7
370
    25
100
AcDbCircle
 10
18.5784224375
 20
16.3997695992
 30
0.0
 40
0.0125394334774196
100
AcDbArc
 50
354.6015432347
 51
5.398456765299999
  0
ARC
  5
267
330
1F
100
AcDbEntity
  8
0
  6
Continuous
 62
     7
370
    25
100
AcDbCircle
 10
18.4467346799
 20
16.418782903
 30
0.0
 40
0.1442272098890808
100
AcDbArc
 50
358.4084817226
 51
1.5915182774
  0
LWPOLYLINE
  5
268
330
1F
100
AcDbEntity
  8
0
  6
Continuous
 62
     7
370
    25
100
AcDbPolyline
 90
        3
 70
   128
 43
0.0
 10
18.5902755895
 20
16.4279651344
 10
18.5905397707
 20
16.4260135164
 10
18.5909062523
 20
16.4227886208
  0
LINE
  5
269
330
1F
100
AcDbEntity
  8
0
  6
Continuous
 62
     7
370
    25
100
AcDbLine
 10
17.6547001239
 20
16.3859139241
 30
0.0
 11
17.6547001239
 21
16.4430005382
 31
0.0
  0
LINE
  5
26A
330
1F
100
AcDbEntity
  8
0
  6
Continuous
 62
     7
370
    25
100
AcDbLine
 10
17.6606056357
 20
16.4489060501
 30
0.0
 11
17.6606056357
 21
16.3800084123
 31
0.0
  0
LINE
  5
26B
330
1F
100
AcDbEntity
  8
0
  6
Continuous
 62
     7
370
    25
100
AcDbLine
 10
18.5856107232
 20
16.4279651344
 30
0.0
 11
18.5909062523
 21
16.4279651344
 31
0.0
  0
LINE
  5
26C
330
1F
100
AcDbEntity
  8
0
  6
Continuous
 62
     7
370
    25
100
AcDbLine
 10
18.5909062523
 20
16.3985898705
 30
0.0
 11
18.589913238
 21
16.3985898705
 31
0.0
  0
LINE
  5
26D
330
1F
100
AcDbEntity
  8
0
  6
Continuous
 62
     7
370
    25
100
AcDbLine
 10
18.5902755895
 20
16.4009493279
 30
0.0
 11
18.5909062523
 21
16.4009493279
 31
0.0
  0
LINE
  5
26E
330
1F
100
AcDbEntity
  8
0
  6
Continuous
 62
     7
370
    25
100
AcDbLine
 10
18.5909062523
 20
16.4147771852
 30
0.0
 11
18.5907828913
 21
16.4147771852
 31
0.0
  0
LINE
  5
26F
330
1F
100
AcDbEntity
  8
0
  6
Continuous
 62
     7
370
    25
100
AcDbLine
 10
18.5882507128
 20
16.4227886208
 30
0.0
 11
18.5909062523
 21
16.4227886208
 31
0.0
  0
SPLINE
  5
270
330
1F
100
AcDbEntity
  8
0
  6
Continuous
 62
     7
370
    25
100
AcDbSpline
210
0.0
220
0.0
230
1.0
 70
    24
 71
     3
 72
    17
 73
    13
 74
     0
 42
0.00000001
 43
0.0000000001
 40
0.0
 40
0.0
 40
0.0
 40
0.0
 40
0.1164775607226297
 40
0.2399320818910733
 40
0.3043011986810907
 40
0.3686841853134462
 40
0.4999999988834797
 40
0.6313158124535132
 40
0.695684930359989
 40
0.7600679181089268
 40
0.8835224392773707
 40
1.0
 40
1.0
 40
1.0
 40
1.0
 10
19.47359776172243
 20
16.87936602036284
 30
0.0
 10
19.47359776172243
 20
16.85031350803467
 30
0.0
 10
19.47359776172243
 20
16.79046824922414
 30
0.0
 10
19.47359776172243
 20
16.71712041188285
 30
0.0
 10
19.47359776172243
 20
16.65985749888324
 30
0.0
 10
19.47359776172243
 20
16.60383374327631
 30
0.0
 10
19.47359776172243
 20
16.54010367682314
 30
0.0
 10
19.47359776172243
 20
16.48839027692879
 30
0.0
 10
19.47359776172243
 20
16.4556341070354
 30
0.0
 10
19.47359776172243
 20
16.42967959387457
 30
0.0
 10
19.47359776172243
 20
16.40769490226193
 30
0.0
 10
19.47359776172243
 20
16.40452629933186
 30
0.0
 10
19.47359776172243
 20
16.40298806760693
 30
0.0
  0
SPLINE
  5
271
330
1F
100
AcDbEntity
  8
0
  6
Continuous
 62
     7
370
    25
100
AcDbSpline
210
0.0
220
0.0
230
1.0
 70
    24
 71
     3
 72
    17
 73
    13
 74
     0
 42
0.00000001
 43
0.0000000001
 40
0.0
 40
0.0
 40
0.0
 40
0.0
 40
0.1164775607226289
 40
0.2399320818910722
 40
0.3043011986812627
 40
0.3686841853134459
 40
0.4999999988834786
 40
0.6313158124535113
 40
0.695684930359835
 40
0.7600679181089282
 40
0.883522439277371
 40
1.0
 40
1.0
 40
1.0
 40
1.0
 10
19.47359776172243
 20
17.35574397311875
 30
0.0
 10
19.47359776172243
 20
17.35420574193222
 30
0.0
 10
19.47359776172243
 20
17.3510371401112
 30
0.0
 10
19.47359776172243
 20
17.32905344329521
 30
0.0
 10
19.47359776172243
 20
17.30309951739019
 30
0.0
 10
19.47359776172243
 20
17.27034396578692
 30
0.0
 10
19.47359776172243
 20
17.21862836685281
 30
0.0
 10
19.47359776172243
 20
17.15490098272984
 30
0.0
 10
19.47359776172243
 20
17.09887765290611
 30
0.0
 10
19.47359776172243
 20
17.04161495700989
 30
0.0
 10
19.47359776172243
 20
16.96826379595628
 30
0.0
 10
19.47359776172243
 20
16.90841853414686
 30
0.0
 10
19.47359776172243
 20
16.87936602036284
 30
0.0
  0
SPLINE
  5
272
330
1F
100
AcDbEntity
  8
0
  6
Continuous
 62
     7
370
    25
100
AcDbSpline
210
0.0
220
0.0
230
1.0
 70
    24
 71
     3
 72
    16
 73
    12
 74
     0
 42
0.00000001
 43
0.0000000001
 40
0.0
 40
0.0
 40
0.0
 40
0.0
 40
0.1164967932643231
 40
0.2399716989962044
 40
0.3043654046068947
 40
0.3687450639552888
 40
0.500082560129627
 40
0.631420056303965
 40
0.7600283010037956
 40
0.883503206735677
 40
1.0
 40
1.0
 40
1.0
 40
1.0
 10
20.10351902156495
 20
16.87936602036284
 30
0.0
 10
20.10351902156495
 20
16.90805835948325
 30
0.0
 10
20.10351902156495
 20
16.96716169764361
 30
0.0
 10
20.10351902156495
 20
17.03960383185656
 30
0.0
 10
20.10351902156495
 20
17.09615608170525
 30
0.0
 10
20.10351902156495
 20
17.15148731467008
 30
0.0
 10
20.10351902156495
 20
17.21440581003291
 30
0.0
 10
20.10351902156495
 20
17.27558564183666
 30
0.0
 10
20.10351902156495
 20
17.31899335069868
 30
0.0
 10
20.10351902156495
 20
17.34516785924206
 30
0.0
 10
20.10351902156495
 20
17.34831207068674
 30
0.0
 10
20.10351902156495
 20
17.34983846130772
 30
0.0
  0
SPLINE
  5
273
330
1F
100
AcDbEntity
  8
0
  6
Continuous
 62
     7
370
    25
100
AcDbSpline
210
0.0
220
0.0
230
1.0
 70
    24
 71
     3
 72
    16
 73
    12
 74
     0
 42
0.00000001
 43
0.0000000001
 40
0.0
 40
0.0
 40
0.0
 40
0.0
 40
0.1164967932643226
 40
0.2399716989962037
 40
0.3043654046063679
 40
0.3687450639552918
 40
0.5000825601296293
 40
0.6314200563039665
 40
0.7600283010037967
 40
0.8835032067356774
 40
1.0
 40
1.0
 40
1.0
 40
1.0
 10
20.10351902156495
 20
16.40889357941796
 30
0.0
 10
20.10351902156495
 20
16.4104127566906
 30
0.0
 10
20.10351902156495
 20
16.41354210936184
 30
0.0
 10
20.10351902156495
 20
16.43525407297394
 30
0.0
 10
20.10351902156495
 20
16.46088726836355
 30
0.0
 10
20.10351902156495
 20
16.4932355818408
 30
0.0
 10
20.10351902156495
 20
16.54432191996105
 30
0.0
 10
20.10351902156495
 20
16.61956143130883
 30
0.0
 10
20.10351902156495
 20
16.70387832784344
 30
0.0
 10
20.10351902156495
 20
16.79156257217199
 30
0.0
 10
20.10351902156495
 20
16.85067114164602
 30
0.0
 10
20.10351902156495
 20
16.87936602036284
 30
0.0
  0
SPLINE
  5
274
330
1F
100
AcDbEntity
  8
0
  6
Continuous
 62
     7
370
    25
100
AcDbSpline
210
0.0
220
0.0
230
1.0
 70
     8
 71
     3
 72
    17
 73
    13
 74
     0
 42
0.00000001
 43
0.0000000001
 40
0.0
 40
0.0
 40
0.0
 40
0.0
 40
0.0629350410855734
 40
0.1254148651590178
 40
0.2503274471315521
 40
0.3752744022568879
 40
0.500110788280301
 40
0.6249497322344521
 40
0.7497884144381165
 40
0.8745208170441893
 40
0.9373523696337361
 40
1.0
 40
1.0
 40
1.0
 40
1.0
 10
19.74918964364019
 20
16.39314587139194
 30
0.0
 10
19.74973641356995
 20
16.39328001787061
 30
0.0
 10
19.75082599857428
 20
16.39354734052973
 30
0.0
 10
19.76147941856504
 20
16.39606052768038
 30
0.0
 10
19.78576920690073
 20
16.40123364515148
 30
0.0
 10
19.82827279864059
 20
16.40733031065338
 30
0.0
 10
19.8777597574714
 20
16.40979371086739
 30
0.0
 10
19.92714141349
 20
16.40721430319452
 30
0.0
 10
19.9693642874205
 20
16.40107412567091
 30
0.0
 10
19.99335136855753
 20
16.39593611354826
 30
0.0
 10
20.00369826071863
 20
16.39348845278471
 30
0.0
 10
20.00462821458862
 20
16.3932599509536
 30
0.0
 10
20.00509250997956
 20
16.39314586750234
 30
0.0
  0
ARC
  5
275
330
1F
100
AcDbEntity
  8
0
  6
Continuous
 62
     7
370
    25
100
AcDbCircle
 10
19.6507631161
 20
15.9084762593
 30
0.0
 40
0.4876830875693992
100
AcDbArc
 50
83.6269131959
 51
96.37308680410001
  0
ARC
  5
276
330
1F
100
AcDbEntity
  8
0
  6
Continuous
 62
     7
370
    25
100
AcDbCircle
 10
20.0050927245
 20
16.3734608159
 30
0.0
 40
0.0196850516001559
100
AcDbArc
 50
90.00062432
 51
179.9999267472
  0
LINE
  5
277
330
1F
100
AcDbEntity
  8
0
  6
Continuous
 62
     7
370
    25
100
AcDbLine
 10
19.9854076729
 20
16.37346084109999
 30
0.0
 11
19.9854087853
 21
16.37346050859999
 31
0.0
  0
SPLINE
  5
278
330
1F
100
AcDbEntity
  8
0
  6
Continuous
 62
     7
370
    25
100
AcDbSpline
210
0.0
220
0.0
230
1.0
 70
     8
 71
     3
 72
     9
 73
     5
 74
     0
 42
0.00000001
 43
0.0000000001
 40
0.0
 40
0.0
 40
0.0
 40
0.0
 40
0.9875457710610271
 40
1.0
 40
1.0
 40
1.0
 40
1.0
 10
19.98540878534448
 20
16.37346050855182
 30
0.0
 10
19.98540263921896
 20
16.37347887656696
 30
0.0
 10
19.98539641558285
 20
16.37349747622652
 30
0.0
 10
19.98337512755115
 20
16.37407168614557
 30
0.0
 10
19.98334995396725
 20
16.37407883748736
 30
0.0
  0
ARC
  5
279
330
1F
100
AcDbEntity
  8
0
  6
Continuous
 62
     7
370
    25
100
AcDbCircle
 10
19.7491894265
 20
16.3734608196
 30
0.0
 40
0.0196850517490247
100
AcDbArc
 50
0.0000753326
 51
89.9993680813
  0
LINE
  5
27A
330
1F
100
AcDbEntity
  8
0
  6
Continuous
 62
     7
370
    25
100
AcDbLine
 10
19.7688744783
 20
16.3734608451
 30
0.0
 11
19.7688733523
 21
16.37346050859999
 31
0.0
  0
LINE
  5
27B
330
1F
100
AcDbEntity
  8
0
  6
Continuous
 62
     7
370
    25
100
AcDbLine
 10
19.9696607427
 20
15.7081061778
 30
0.0
 11
19.7846213838
 21
15.7081061778
 31
0.0
  0
LINE
  5
27C
330
1F
100
AcDbEntity
  8
0
  6
Continuous
 62
     7
370
    25
100
AcDbLine
 10
19.4716292578
 20
18.0210983038
 30
0.0
 11
19.4716292578
 21
18.4935392487
 31
0.0
  0
ARC
  5
27D
330
1F
100
AcDbEntity
  8
0
  6
Continuous
 62
     7
370
    25
100
AcDbCircle
 10
19.7964324074
 20
17.7682931554
 30
0.0
 40
0.2489202955849152
100
AcDbArc
 50
77.4392488292
 51
102.5607511708
  0
SPLINE
  5
27E
330
1F
100
AcDbEntity
  8
0
  6
Continuous
 62
     7
370
    25
100
AcDbSpline
210
0.0
220
0.0
230
1.0
 70
     8
 71
     3
 72
    18
 73
    14
 74
     0
 42
0.00000001
 43
0.0000000001
 40
0.0
 40
0.0
 40
0.0
 40
0.0
 40
0.0290168953417109
 40
0.1308485289296893
 40
0.234017894188981
 40
0.3417895688075974
 40
0.4508809110556639
 40
0.5552748183621886
 40
0.656392687322636
 40
0.7606137071621128
 40
0.8695023873301817
 40
0.9775715657100116
 40
1.0
 40
1.0
 40
1.0
 40
1.0
 10
19.71759233301823
 20
18.50309814084473
 30
0.0
 10
19.71732973040703
 20
18.50318227769407
 30
0.0
 10
19.71614555253531
 20
18.50356168365168
 30
0.0
 10
19.72259451051744
 20
18.50146978318659
 30
0.0
 10
19.73637643557173
 20
18.49753736368771
 30
0.0
 10
19.75763487084147
 20
18.49291494461712
 30
0.0
 10
19.78342447603405
 20
18.48994636290105
 30
0.0
 10
19.81032302091559
 20
18.49004318443617
 30
0.0
 10
19.83504588861738
 20
18.49292471459829
 30
0.0
 10
19.85609605238885
 20
18.49742472697262
 30
0.0
 10
19.87040658062678
 20
18.50150385852278
 30
0.0
 10
19.87694905089344
 20
18.5036352171598
 30
0.0
 10
19.87565916769832
 20
18.50322238823696
 30
0.0
 10
19.87543747735555
 20
18.50315143593232
 30
0.0
  0
LINE
  5
27F
330
1F
100
AcDbEntity
  8
0
  6
Continuous
 62
     7
370
    25
100
AcDbLine
 10
19.963755242
 20
18.2573187763
 30
0.0
 11
19.963755242
 21
18.0270038156
 31
0.0
  0
LINE
  5
280
330
1F
100
AcDbEntity
  8
0
  6
Continuous
 62
     7
370
    25
100
AcDbLine
 10
19.963755242
 20
18.4876337369
 30
0.0
 11
19.963755242
 21
18.2573187763
 31
0.0
  0
LINE
  5
281
330
1F
100
AcDbEntity
  8
0
  6
Continuous
 62
     7
370
    25
100
AcDbLine
 10
19.7566978913
 20
19.1923581463
 30
0.0
 11
19.8594245334
 21
19.1923581463
 31
0.0
  0
LINE
  5
282
330
1F
100
AcDbEntity
  8
0
  6
Continuous
 62
     7
370
    25
100
AcDbLine
 10
19.7334402814
 20
19.1923581463
 30
0.0
 11
19.7566978913
 21
19.1923581463
 31
0.0
  0
LINE
  5
283
330
1F
100
AcDbEntity
  8
0
  6
Continuous
 62
     7
370
    25
100
AcDbLine
 10
18.5306843759
 20
16.391451415
 30
0.0
 11
18.40273162
 21
16.391451415
 31
0.0
  0
LINE
  5
284
330
1F
100
AcDbEntity
  8
0
  6
Continuous
 62
     7
370
    25
100
AcDbLine
 10
18.5306843759
 20
16.2297597212
 30
0.0
 11
18.5306843759
 21
16.391451415
 31
0.0
  0
LINE
  5
285
330
1F
100
AcDbEntity
  8
0
  6
Continuous
 62
     7
370
    25
100
AcDbLine
 10
18.5306843759
 20
16.2297597212
 30
0.0
 11
18.40273162
 21
16.2297597212
 31
0.0
  0
LINE
  5
286
330
1F
100
AcDbEntity
  8
0
  6
Continuous
 62
     7
370
    25
100
AcDbLine
 10
18.40273162
 20
16.2297597212
 30
0.0
 11
18.40273162
 21
16.391451415
 31
0.0
  0
LINE
  5
287
330
1F
100
AcDbEntity
  8
0
  6
Continuous
 62
     7
370
    25
100
AcDbLine
 10
18.5306843759
 20
16.391451415
 30
0.0
 11
18.5405268956
 21
16.3851247653
 31
0.0
  0
LINE
  5
288
330
1F
100
AcDbEntity
  8
0
  6
Continuous
 62
     7
370
    25
100
AcDbLine
 10
18.5405268956
 20
16.3851247653
 30
0.0
 11
18.5405268956
 21
16.2396022408
 31
0.0
  0
LINE
  5
289
330
1F
100
AcDbEntity
  8
0
  6
Continuous
 62
     7
370
    25
100
AcDbLine
 10
18.5306843759
 20
16.2297597212
 30
0.0
 11
18.5405268956
 21
16.2396022408
 31
0.0
  0
LINE
  5
28A
330
1F
100
AcDbEntity
  8
0
  6
Continuous
 62
     7
370
    25
100
AcDbLine
 10
18.5306843759
 20
16.6140997629
 30
0.0
 11
18.4617867381
 21
16.6140997629
 31
0.0
  0
LINE
  5
28B
330
1F
100
AcDbEntity
  8
0
  6
Continuous
 62
     7
370
    25
100
AcDbLine
 10
18.5306843759
 20
16.391451415
 30
0.0
 11
18.5306843759
 21
16.6140997629
 31
0.0
  0
LINE
  5
28C
330
1F
100
AcDbEntity
  8
0
  6
Continuous
 62
     7
370
    25
100
AcDbLine
 10
18.4617867381
 20
16.428530583
 30
0.0
 11
18.40273162
 21
16.428530583
 31
0.0
  0
LINE
  5
28D
330
1F
100
AcDbEntity
  8
0
  6
Continuous
 62
     7
370
    25
100
AcDbLine
 10
18.4617867381
 20
16.428530583
 30
0.0
 11
18.4617867381
 21
16.6140997629
 31
0.0
  0
LINE
  5
28E
330
1F
100
AcDbEntity
  8
0
  6
Continuous
 62
     7
370
    25
100
AcDbLine
 10
18.40273162
 20
16.391451415
 30
0.0
 11
18.40273162
 21
16.428530583
 31
0.0
  0
LINE
  5
28F
330
1F
100
AcDbEntity
  8
0
  6
Continuous
 62
     7
370
    25
100
AcDbLine
 10
18.5405268956
 20
16.6077731132
 30
0.0
 11
18.5306843759
 21
16.6140997629
 31
0.0
  0
LINE
  5
290
330
1F
100
AcDbEntity
  8
0
  6
Continuous
 62
     7
370
    25
100
AcDbLine
 10
18.5405268956
 20
16.6077731132
 30
0.0
 11
18.5405268956
 21
16.3851247653
 31
0.0
  0
LINE
  5
291
330
1F
100
AcDbEntity
  8
0
  6
Continuous
 62
     7
370
    25
100
AcDbLine
 10
18.40273162
 20
16.428530583
 30
0.0
 11
18.40273162
 21
16.446109933
 31
0.0
  0
LINE
  5
292
330
1F
100
AcDbEntity
  8
0
  6
Continuous
 62
     7
370
    25
100
AcDbLine
 10
18.5306843759
 20
16.7406327569
 30
0.0
 11
18.4617867381
 21
16.7406327569
 31
0.0
  0
LINE
  5
293
330
1F
100
AcDbEntity
  8
0
  6
Continuous
 62
     7
370
    25
100
AcDbLine
 10
18.5306843759
 20
16.6140997629
 30
0.0
 11
18.5306843759
 21
16.7406327569
 31
0.0
  0
LINE
  5
294
330
1F
100
AcDbEntity
  8
0
  6
Continuous
 62
     7
370
    25
100
AcDbLine
 10
18.4617867381
 20
16.6140997629
 30
0.0
 11
18.4617867381
 21
16.7406327569
 31
0.0
  0
LINE
  5
295
330
1F
100
AcDbEntity
  8
0
  6
Continuous
 62
     7
370
    25
100
AcDbLine
 10
18.5405268956
 20
16.7406327569
 30
0.0
 11
18.5306843759
 21
16.7406327569
 31
0.0
  0
LINE
  5
296
330
1F
100
AcDbEntity
  8
0
  6
Continuous
 62
     7
370
    25
100
AcDbLine
 10
18.5405268956
 20
16.7406327569
 30
0.0
 11
18.5405268956
 21
16.6077731132
 31
0.0
  0
LINE
  5
297
330
1F
100
AcDbEntity
  8
0
  6
Continuous
 62
     7
370
    25
100
AcDbLine
 10
18.4617867381
 20
16.8793660204
 30
0.0
 11
18.5306843759
 21
16.8793660204
 31
0.0
  0
LINE
  5
298
330
1F
100
AcDbEntity
  8
0
  6
Continuous
 62
     7
370
    25
100
AcDbLine
 10
18.5306843759
 20
16.7406327569
 30
0.0
 11
18.5306843759
 21
16.8793660204
 31
0.0
  0
LINE
  5
299
330
1F
100
AcDbEntity
  8
0
  6
Continuous
 62
     7
370
    25
100
AcDbLine
 10
18.4617867381
 20
16.7406327569
 30
0.0
 11
18.4617867381
 21
16.8793660204
 31
0.0
  0
LINE
  5
29A
330
1F
100
AcDbEntity
  8
0
  6
Continuous
 62
     7
370
    25
100
AcDbLine
 10
18.4617867381
 20
17.4699172015
 30
0.0
 11
18.5306843759
 21
17.4699172015
 31
0.0
  0
LINE
  5
29B
330
1F
100
AcDbEntity
  8
0
  6
Continuous
 62
     7
370
    25
100
AcDbLine
 10
18.5306843759
 20
16.8793660204
 30
0.0
 11
18.5306843759
 21
17.4699172015
 31
0.0
  0
LINE
  5
29C
330
1F
100
AcDbEntity
  8
0
  6
Continuous
 62
     7
370
    25
100
AcDbLine
 10
18.4617867381
 20
16.8793660204
 30
0.0
 11
18.4617867381
 21
17.4699172015
 31
0.0
  0
LINE
  5
29D
330
1F
100
AcDbEntity
  8
0
  6
Continuous
 62
     7
370
    25
100
AcDbLine
 10
18.5405268956
 20
16.8793660204
 30
0.0
 11
18.5306843759
 21
16.8793660204
 31
0.0
  0
LINE
  5
29E
330
1F
100
AcDbEntity
  8
0
  6
Continuous
 62
     7
370
    25
100
AcDbLine
 10
18.5405268956
 20
17.4600746818
 30
0.0
 11
18.5306843759
 21
17.4699172015
 31
0.0
  0
LINE
  5
29F
330
1F
100
AcDbEntity
  8
0
  6
Continuous
 62
     7
370
    25
100
AcDbLine
 10
18.5405268956
 20
17.4600746818
 30
0.0
 11
18.5405268956
 21
16.8793660204
 31
0.0
  0
LINE
  5
2A0
330
1F
100
AcDbEntity
  8
0
  6
Continuous
 62
     7
370
    25
100
AcDbLine
 10
18.5405268956
 20
16.8793660204
 30
0.0
 11
18.5405268956
 21
16.7406327569
 31
0.0
  0
LINE
  5
2A1
330
1F
100
AcDbEntity
  8
0
  6
Continuous
 62
     7
370
    25
100
AcDbLine
 10
18.5995820137
 20
16.8793660204
 30
0.0
 11
18.5995820137
 21
17.3754290125
 31
0.0
  0
LINE
  5
2A2
330
1F
100
AcDbEntity
  8
0
  6
Continuous
 62
     7
370
    25
100
AcDbLine
 10
18.5995820137
 20
16.3833030282
 30
0.0
 11
18.5995820137
 21
16.8793660204
 31
0.0
  0
LINE
  5
2A3
330
1F
100
AcDbEntity
  8
0
  6
Continuous
 62
     7
370
    25
100
AcDbLine
 10
18.6291095727
 20
16.8793660204
 30
0.0
 11
18.6291095727
 21
17.3655864928
 31
0.0
  0
LINE
  5
2A4
330
1F
100
AcDbEntity
  8
0
  6
Continuous
 62
     7
370
    25
100
AcDbLine
 10
18.6291095727
 20
16.3931455479
 30
0.0
 11
18.6291095727
 21
16.8793660204
 31
0.0
  0
LINE
  5
2A5
330
1F
100
AcDbEntity
  8
0
  6
Continuous
 62
     7
370
    25
100
AcDbLine
 10
19.4361961869
 20
16.3931455479
 30
0.0
 11
19.4361961869
 21
17.3655864928
 31
0.0
  0
LINE
  5
2A6
330
1F
100
AcDbEntity
  8
0
  6
Continuous
 62
     7
370
    25
100
AcDbLine
 10
19.4460387066
 20
17.3557439731
 30
0.0
 11
19.4460387066
 21
16.4029880676
 31
0.0
  0
LINE
  5
2A7
330
1F
100
AcDbEntity
  8
0
  6
Continuous
 62
     7
370
    25
100
AcDbLine
 10
19.4361961869
 20
18.1445804837
 30
0.0
 11
19.4361961869
 21
18.5033817684
 31
0.0
  0
LINE
  5
2A8
330
1F
100
AcDbEntity
  8
0
  6
Continuous
 62
     7
370
    25
100
AcDbLine
 10
19.4361961869
 20
18.0112557841
 30
0.0
 11
19.4361961869
 21
18.1445804837
 31
0.0
  0
LINE
  5
2A9
330
1F
100
AcDbEntity
  8
0
  6
Continuous
 62
     7
370
    25
100
AcDbLine
 10
18.6271410688
 20
18.1445804837
 30
0.0
 11
18.6271410688
 21
18.5033817684
 31
0.0
  0
LINE
  5
2AA
330
1F
100
AcDbEntity
  8
0
  6
Continuous
 62
     7
370
    25
100
AcDbLine
 10
18.6271410688
 20
18.0112557841
 30
0.0
 11
18.6271410688
 21
18.1445804837
 31
0.0
  0
LINE
  5
2AB
330
1F
100
AcDbEntity
  8
0
  6
Continuous
 62
     7
370
    25
100
AcDbLine
 10
19.4460387066
 20
18.1490900154
 30
0.0
 11
19.4460387066
 21
18.0210983038
 31
0.0
  0
LINE
  5
2AC
330
1F
100
AcDbEntity
  8
0
  6
Continuous
 62
     7
370
    25
100
AcDbLine
 10
19.4460387066
 20
18.4935392487
 30
0.0
 11
19.4460387066
 21
18.1490900154
 31
0.0
  0
LINE
  5
2AD
330
1F
100
AcDbEntity
  8
0
  6
Continuous
 62
     7
370
    25
100
AcDbLine
 10
18.5149363444
 20
18.1490900154
 30
0.0
 11
18.5149363444
 21
18.4935392487
 31
0.0
  0
LINE
  5
2AE
330
1F
100
AcDbEntity
  8
0
  6
Continuous
 62
     7
370
    25
100
AcDbLine
 10
18.5149363444
 20
18.0210983038
 30
0.0
 11
18.5149363444
 21
18.1490900154
 31
0.0
  0
LINE
  5
2AF
330
1F
100
AcDbEntity
  8
0
  6
Continuous
 62
     7
370
    25
100
AcDbLine
 10
18.5247788641
 20
18.1445804837
 30
0.0
 11
18.5247788641
 21
18.5033817684
 31
0.0
  0
LINE
  5
2B0
330
1F
100
AcDbEntity
  8
0
  6
Continuous
 62
     7
370
    25
100
AcDbLine
 10
18.5247788641
 20
18.0112557841
 30
0.0
 11
18.5247788641
 21
18.1445804837
 31
0.0
  0
LINE
  5
2B1
330
1F
100
AcDbEntity
  8
0
  6
Continuous
 62
     7
370
    25
100
AcDbLine
 10
18.5680859507
 20
18.1445804837
 30
0.0
 11
18.5680859507
 21
18.5033817684
 31
0.0
  0
LINE
  5
2B2
330
1F
100
AcDbEntity
  8
0
  6
Continuous
 62
     7
370
    25
100
AcDbLine
 10
18.5680859507
 20
18.0112557841
 30
0.0
 11
18.5680859507
 21
18.1445804837
 31
0.0
  0
LINE
  5
2B3
330
1F
100
AcDbEntity
  8
0
  6
Continuous
 62
     7
370
    25
100
AcDbLine
 10
18.5779284704
 20
18.1490900154
 30
0.0
 11
18.5779284704
 21
18.0210983038
 31
0.0
  0
LINE
  5
2B4
330
1F
100
AcDbEntity
  8
0
  6
Continuous
 62
     7
370
    25
100
AcDbLine
 10
18.5779284704
 20
18.4935392487
 30
0.0
 11
18.5779284704
 21
18.1490900154
 31
0.0
  0
LINE
  5
2B5
330
1F
100
AcDbEntity
  8
0
  6
Continuous
 62
     7
370
    25
100
AcDbLine
 10
18.4066686279
 20
18.1457269075
 30
0.0
 11
18.4125741397
 21
18.1437522759
 31
0.0
  0
LINE
  5
2B6
330
1F
100
AcDbEntity
  8
0
  6
Continuous
 62
     7
370
    25
100
AcDbLine
 10
18.4066686279
 20
18.1457269075
 30
0.0
 11
18.4066686279
 21
18.3862557841
 31
0.0
  0
LINE
  5
2B7
330
1F
100
AcDbEntity
  8
0
  6
Continuous
 62
     7
370
    25
100
AcDbLine
 10
18.4125741397
 20
18.392161296
 30
0.0
 11
18.4125741397
 21
18.1437522759
 31
0.0
  0
LINE
  5
2B8
330
1F
100
AcDbEntity
  8
0
  6
Continuous
 62
     7
370
    25
100
AcDbLine
 10
18.5070623287
 20
18.1282051392
 30
0.0
 11
18.5070623287
 21
18.1224762566
 31
0.0
  0
SPLINE
  5
2B9
330
1F
100
AcDbEntity
  8
0
  6
Continuous
 62
     7
370
    25
100
AcDbSpline
210
0.0
220
0.0
230
1.0
 70
     8
 71
     3
 72
    13
 73
     9
 74
     0
 42
0.00000001
 43
0.0000000001
 40
0.0
 40
0.0
 40
0.0
 40
0.0
 40
0.1228736640937866
 40
0.2460288933337991
 40
0.3696890473270244
 40
0.4942484978742366
 40
0.7454995699238652
 40
1.0
 40
1.0
 40
1.0
 40
1.0
 10
18.47162925778542
 20
18.14375227591822
 30
0.0
 10
18.47396710047731
 20
18.14367614540321
 30
0.0
 10
18.47864814303036
 20
18.14352370992002
 30
0.0
 10
18.48537948109336
 20
18.14233126216273
 30
0.0
 10
18.49157178754731
 20
18.14054646768979
 30
0.0
 10
18.49875156780791
 20
18.13750789054892
 30
0.0
 10
18.50556033261071
 20
18.13284876923839
 30
0.0
 10
18.50655952343373
 20
18.12975963157439
 30
0.0
 10
18.50706232865156
 20
18.12820513917892
 30
0.0
  0
LINE
  5
2BA
330
1F
100
AcDbEntity
  8
0
  6
Continuous
 62
     7
370
    25
100
AcDbLine
 10
18.4125741397
 20
18.1437522759
 30
0.0
 11
18.4716292578
 21
18.1437522759
 31
0.0
  0
LINE
  5
2BB
330
1F
100
AcDbEntity
  8
0
  6
Continuous
 62
     7
370
    25
100
AcDbLine
 10
18.5070623287
 20
18.1282051392
 30
0.0
 11
18.5011568168
 21
18.133859751
 31
0.0
  0
SPLINE
  5
2BC
330
1F
100
AcDbEntity
  8
0
  6
Continuous
 62
     7
370
    25
100
AcDbSpline
210
0.0
220
0.0
230
1.0
 70
     8
 71
     3
 72
     9
 73
     5
 74
     0
 42
0.00000001
 43
0.0000000001
 40
0.0
 40
0.0
 40
0.0
 40
0.0
 40
0.8336387980939525
 40
1.0
 40
1.0
 40
1.0
 40
1.0
 10
18.50115681684054
 20
18.13385975102226
 30
0.0
 10
18.50112791114594
 20
18.13435885598784
 30
0.0
 10
18.5010932370225
 20
18.13495756248606
 30
0.0
 10
18.50039523672984
 20
18.13572188651203
 30
0.0
 10
18.50027911656223
 20
18.13584904037564
 30
0.0
  0
LINE
  5
2BD
330
1F
100
AcDbEntity
  8
0
  6
Continuous
 62
     7
370
    25
100
AcDbLine
 10
18.5011568168
 20
18.1283817684
 30
0.0
 11
18.5011568168
 21
18.133859751
 31
0.0
  0
LINE
  5
2BE
330
1F
100
AcDbEntity
  8
0
  6
Continuous
 62
     7
370
    25
100
AcDbLine
 10
19.0877709901
 20
17.0527750837
 30
0.0
 11
19.0188733523
 21
17.0527750837
 31
0.0
  0
LINE
  5
2BF
330
1F
100
AcDbEntity
  8
0
  6
Continuous
 62
     7
370
    25
100
AcDbLine
 10
19.0188733523
 20
17.1008351899
 30
0.0
 11
19.0877709901
 21
17.1008351899
 31
0.0
  0
LINE
  5
2C0
330
1F
100
AcDbEntity
  8
0
  6
Continuous
 62
     7
370
    25
100
AcDbLine
 10
19.0877709901
 20
17.7996291343
 30
0.0
 11
19.0188733523
 21
17.7996291343
 31
0.0
  0
LINE
  5
2C1
330
1F
100
AcDbEntity
  8
0
  6
Continuous
 62
     7
370
    25
100
AcDbLine
 10
19.0188733523
 20
17.8476892405
 30
0.0
 11
19.0877709901
 21
17.8476892405
 31
0.0
  0
LINE
  5
2C2
330
1F
100
AcDbEntity
  8
0
  6
Continuous
 62
     7
370
    25
100
AcDbLine
 10
19.0877709901
 20
19.0289208731
 30
0.0
 11
19.0188733523
 21
19.0289208731
 31
0.0
  0
LINE
  5
2C3
330
1F
100
AcDbEntity
  8
0
  6
Continuous
 62
     7
370
    25
100
AcDbLine
 10
19.0188733523
 20
15.8715434511
 30
0.0
 11
19.0877709901
 21
15.8715434511
 31
0.0
  0
LINE
  5
2C4
330
1F
100
AcDbEntity
  8
0
  6
Continuous
 62
     7
370
    25
100
AcDbLine
 10
19.0946607538
 20
17.8145596459
 30
0.0
 11
19.0976135098
 21
17.8145596459
 31
0.0
  0
LINE
  5
2C5
330
1F
100
AcDbEntity
  8
0
  6
Continuous
 62
     7
370
    25
100
AcDbLine
 10
19.0946607538
 20
17.0859046783
 30
0.0
 11
19.0976135098
 21
17.0859046783
 31
0.0
  0
LINE
  5
2C6
330
1F
100
AcDbEntity
  8
0
  6
Continuous
 62
     7
370
    25
100
AcDbLine
 10
19.0976135098
 20
17.8607263914
 30
0.0
 11
19.0975276187
 21
17.86072621569999
 31
0.0
  0
LINE
  5
2C7
330
1F
100
AcDbEntity
  8
0
  6
Continuous
 62
     7
370
    25
100
AcDbLine
 10
19.0976135098
 20
17.0397379328
 30
0.0
 11
19.0975276187
 21
17.0397381085
 31
0.0
  0
LINE
  5
2C8
330
1F
100
AcDbEntity
  8
0
  6
Continuous
 62
     7
370
    25
100
AcDbLine
 10
19.0975276187
 20
19.1525067182
 30
0.0
 11
19.0976135098
 21
19.1525074468
 31
0.0
  0
LINE
  5
2C9
330
1F
100
AcDbEntity
  8
0
  6
Continuous
 62
     7
370
    25
100
AcDbLine
 10
19.0975276187
 20
15.74795760599999
 30
0.0
 11
19.0976135098
 21
15.7479568773
 31
0.0
  0
LINE
  5
2CA
330
1F
100
AcDbEntity
  8
0
  6
Continuous
 62
     7
370
    25
100
AcDbLine
 10
19.2590308326
 20
15.63920854
 30
0.0
 11
19.2590308326
 21
19.2612557841
 31
0.0
  0
LINE
  5
2CB
330
1F
100
AcDbEntity
  8
0
  6
Continuous
 62
     7
370
    25
100
AcDbLine
 10
18.5588045911
 20
17.3776560713
 30
0.0
 11
18.5588045911
 21
17.4131724474
 31
0.0
  0
LINE
  5
2CC
330
1F
100
AcDbEntity
  8
0
  6
Continuous
 62
     7
370
    25
100
AcDbLine
 10
18.58297623
 20
17.3754290125
 30
0.0
 11
18.58297623
 21
17.3959847637
 31
0.0
  0
LINE
  5
2CD
330
1F
100
AcDbEntity
  8
0
  6
Continuous
 62
     7
370
    25
100
AcDbLine
 10
18.5588045911
 20
16.3675549967
 30
0.0
 11
18.5588045911
 21
16.483354869
 31
0.0
  0
LINE
  5
2CE
330
1F
100
AcDbEntity
  8
0
  6
Continuous
 62
     7
370
    25
100
AcDbLine
 10
18.58297623
 20
16.3675549967
 30
0.0
 11
18.58297623
 21
16.46616718529999
 31
0.0
  0
LINE
  5
2CF
330
1F
100
AcDbEntity
  8
0
  6
Continuous
 62
     7
370
    25
100
AcDbLine
 10
19.4834402814
 20
16.8793660204
 30
0.0
 11
19.4834402814
 21
16.3931455479
 31
0.0
  0
LINE
  5
2D0
330
1F
100
AcDbEntity
  8
0
  6
Continuous
 62
     7
370
    25
100
AcDbLine
 10
19.4834402814
 20
17.3655864928
 30
0.0
 11
19.4834402814
 21
16.8793660204
 31
0.0
  0
LINE
  5
2D1
330
1F
100
AcDbEntity
  8
0
  6
Continuous
 62
     7
370
    25
100
AcDbLine
 10
20.0877709901
 20
16.8793660204
 30
0.0
 11
20.0877709901
 21
17.3655864928
 31
0.0
  0
LINE
  5
2D2
330
1F
100
AcDbEntity
  8
0
  6
Continuous
 62
     7
370
    25
100
AcDbLine
 10
20.0877709901
 20
16.3931455479
 30
0.0
 11
20.0877709901
 21
16.8793660204
 31
0.0
  0
SPLINE
  5
2D3
330
1F
100
AcDbEntity
  8
0
  6
Continuous
 62
     7
370
    25
100
AcDbSpline
210
0.0
220
0.0
230
1.0
 70
     8
 71
     3
 72
    18
 73
    14
 74
     0
 42
0.00000001
 43
0.0000000001
 40
0.0
 40
0.0
 40
0.0
 40
0.0
 40
0.0678319921685419
 40
0.200685719727463
 40
0.3335532910810867
 40
0.4023209030990456
 40
0.4669967282850653
 40
0.5317355997475787
 40
0.6004559049968317
 40
0.7334590244944429
 40
0.8664558031105011
 40
0.9351213577154867
 40
1.0
 40
1.0
 40
1.0
 40
1.0
 10
19.98334995396725
 20
16.37407883748736
 30
0.0
 10
19.98154189177246
 20
16.37460233126727
 30
0.0
 10
19.97619261260089
 20
16.37615112443454
 30
0.0
 10
19.95560549294574
 20
16.38162093343892
 30
0.0
 10
19.92574659942536
 20
16.38700048973878
 30
0.0
 10
19.89853647441749
 20
16.38944695820793
 30
0.0
 10
19.87742296872343
 20
16.39012441454335
 30
0.0
 10
19.85629585811478
 20
16.3894799188358
 30
0.0
 10
19.82905295553827
 20
16.38707720369322
 30
0.0
 10
19.79886599031149
 20
16.3816568098546
 30
0.0
 10
19.77877532853896
 20
16.37634488865197
 30
0.0
 10
19.77015641798678
 20
16.37386180246685
 30
0.0
 10
19.76929363621676
 20
16.37359194680212
 30
0.0
 10
19.76887447828155
 20
16.37346084511782
 30
0.0
  0
LINE
  5
2D4
330
1F
100
AcDbEntity
  8
0
  6
Continuous
 62
     7
370
    25
100
AcDbLine
 10
19.7688733523
 20
15.7238542093
 30
0.0
 11
19.9854087853
 21
15.7238542093
 31
0.0
  0
LINE
  5
2D5
330
1F
100
AcDbEntity
  8
0
  6
Continuous
 62
     7
370
    25
100
AcDbLine
 10
19.4814717775
 20
18.5033817684
 30
0.0
 11
19.4814717775
 21
18.0112557841
 31
0.0
  0
LINE
  5
2D6
330
1F
100
AcDbEntity
  8
0
  6
Continuous
 62
     7
370
    25
100
AcDbLine
 10
19.9480072105
 20
18.2573187763
 30
0.0
 11
19.9480072105
 21
18.5033817684
 31
0.0
  0
LINE
  5
2D7
330
1F
100
AcDbEntity
  8
0
  6
Continuous
 62
     7
370
    25
100
AcDbLine
 10
19.9480072105
 20
18.0112557841
 30
0.0
 11
19.9480072105
 21
18.2573187763
 31
0.0
  0
LINE
  5
2D8
330
1F
100
AcDbEntity
  8
0
  6
Continuous
 62
     7
370
    25
100
AcDbLine
 10
19.7467642623
 20
19.1766101149
 30
0.0
 11
19.7176922499
 21
19.1766101149
 31
0.0
  0
LINE
  5
2D9
330
1F
100
AcDbEntity
  8
0
  6
Continuous
 62
     7
370
    25
100
AcDbLine
 10
19.8751725649
 20
19.1766101149
 30
0.0
 11
19.7467642623
 21
19.1766101149
 31
0.0
  0
LINE
  5
2DA
330
1F
100
AcDbEntity
  8
0
  6
Continuous
 62
     7
370
    25
100
AcDbLine
 10
18.5700544546
 20
17.3754290125
 30
0.0
 11
18.5700544546
 21
16.4807494625
 31
0.0
  0
LINE
  5
2DB
330
1F
100
AcDbEntity
  8
0
  6
Continuous
 62
     7
370
    25
100
AcDbLine
 10
19.465723746
 20
17.2238542093
 30
0.0
 11
19.465723746
 21
16.5348778314
 31
0.0
  0
ARC
  5
2DC
330
1F
100
AcDbEntity
  8
0
  6
Continuous
 62
     7
370
    25
100
AcDbCircle
 10
25.2328917068
 20
22.6179000551
 30
0.0
 40
0.0196850393700814
100
AcDbArc
 50
270.0
 51
90.0
  0
ARC
  5
2DD
330
1F
100
AcDbEntity
  8
0
  6
Continuous
 62
     7
370
    25
100
AcDbCircle
 10
24.7604507619
 20
22.6179000551
 30
0.0
 40
0.0196850393700814
100
AcDbArc
 50
90.0
 51
270.0
  0
LINE
  5
2DE
330
1F
100
AcDbEntity
  8
0
  6
Continuous
 62
     7
370
    25
100
AcDbLine
 10
25.2328917068
 20
22.6375850945
 30
0.0
 11
24.7604507619
 21
22.6375850945
 31
0.0
  0
LINE
  5
2DF
330
1F
100
AcDbEntity
  8
0
  6
Continuous
 62
     7
370
    25
100
AcDbLine
 10
24.7604507619
 20
22.5982150157
 30
0.0
 11
25.2328917068
 21
22.5982150157
 31
0.0
  0
LINE
  5
2E0
330
1F
100
AcDbEntity
  8
0
  6
Continuous
 62
     7
370
    25
100
AcDbLine
 10
25.7840728092
 20
22.9903629269
 30
0.0
 11
25.7766144211
 21
22.997821315
 31
0.0
  0
LINE
  5
2E1
330
1F
100
AcDbEntity
  8
0
  6
Continuous
 62
     7
370
    25
100
AcDbLine
 10
25.7127910397
 20
22.997821315
 30
0.0
 11
25.7053326517
 21
22.9903629269
 31
0.0
  0
LINE
  5
2E2
330
1F
100
AcDbEntity
  8
0
  6
Continuous
 62
     7
370
    25
100
AcDbLine
 10
25.7840728092
 20
22.2005772205
 30
0.0
 11
25.7840728092
 21
22.9903629269
 31
0.0
  0
LINE
  5
2E3
330
1F
100
AcDbEntity
  8
0
  6
Continuous
 62
     7
370
    25
100
AcDbLine
 10
25.7053326517
 20
22.9903629269
 30
0.0
 11
25.7053326517
 21
22.2005772205
 31
0.0
  0
LINE
  5
2E4
330
1F
100
AcDbEntity
  8
0
  6
Continuous
 62
     7
370
    25
100
AcDbLine
 10
24.288009817
 20
22.9903629269
 30
0.0
 11
24.280551429
 21
22.997821315
 31
0.0
  0
LINE
  5
2E5
330
1F
100
AcDbEntity
  8
0
  6
Continuous
 62
     7
370
    25
100
AcDbLine
 10
24.2167280476
 20
22.997821315
 30
0.0
 11
24.2092696595
 21
22.9903629269
 31
0.0
  0
LINE
  5
2E6
330
1F
100
AcDbEntity
  8
0
  6
Continuous
 62
     7
370
    25
100
AcDbLine
 10
24.288009817
 20
22.2005772205
 30
0.0
 11
24.288009817
 21
22.9903629269
 31
0.0
  0
LINE
  5
2E7
330
1F
100
AcDbEntity
  8
0
  6
Continuous
 62
     7
370
    25
100
AcDbLine
 10
24.2092696595
 20
22.9903629269
 30
0.0
 11
24.2092696595
 21
22.2005772205
 31
0.0
  0
LINE
  5
2E8
330
1F
100
AcDbEntity
  8
0
  6
Continuous
 62
     7
370
    25
100
AcDbLine
 10
26.8076948564
 20
21.9604197402
 30
0.0
 11
26.8076948564
 21
22.121837063
 31
0.0
  0
LINE
  5
2E9
330
1F
100
AcDbEntity
  8
0
  6
Continuous
 62
     7
370
    25
100
AcDbLine
 10
23.1856476123
 20
22.121837063
 30
0.0
 11
23.1856476123
 21
21.9604197402
 31
0.0
  0
ARC
  5
2EA
330
1F
100
AcDbEntity
  8
0
  6
Continuous
 62
     7
370
    25
100
AcDbCircle
 10
26.7781672973
 20
21.9604197402
 30
0.0
 40
0.0295275590551185
100
AcDbArc
 50
270.0
 51
0.0
  0
ARC
  5
2EB
330
1F
100
AcDbEntity
  8
0
  6
Continuous
 62
     7
370
    25
100
AcDbCircle
 10
23.2151751714
 20
21.9604197402
 30
0.0
 40
0.0295275590551185
100
AcDbArc
 50
180.0
 51
270.0
  0
LINE
  5
2EC
330
1F
100
AcDbEntity
  8
0
  6
Continuous
 62
     7
370
    25
100
AcDbLine
 10
25.3926823858
 20
22.6789236772
 30
0.0
 11
25.3926823858
 21
22.6606459816
 31
0.0
  0
LINE
  5
2ED
330
1F
100
AcDbEntity
  8
0
  6
Continuous
 62
     7
370
    25
100
AcDbLine
 10
25.5304776613
 20
22.6606459816
 30
0.0
 11
25.5304776613
 21
22.6789236772
 31
0.0
  0
ARC
  5
2EE
330
1F
100
AcDbEntity
  8
0
  6
Continuous
 62
     7
370
    25
100
AcDbCircle
 10
25.4182729369
 20
22.6606459816
 30
0.0
 40
0.0255905511811041
100
AcDbArc
 50
180.0
 51
250.8308442811
  0
ARC
  5
2EF
330
1F
100
AcDbEntity
  8
0
  6
Continuous
 62
     7
370
    25
100
AcDbCircle
 10
25.5048871102
 20
22.6606459816
 30
0.0
 40
0.0255905511811041
100
AcDbArc
 50
289.1691557189
 51
0.0
  0
ARC
  5
2F0
330
1F
100
AcDbEntity
  8
0
  6
Continuous
 62
     7
370
    25
100
AcDbCircle
 10
25.4615800236
 20
22.7852228898
 30
0.0
 40
0.1574803149606286
100
AcDbArc
 50
285.938250607
 51
289.1691557189
  0
ARC
  5
2F1
330
1F
100
AcDbEntity
  8
0
  6
Continuous
 62
     7
370
    25
100
AcDbCircle
 10
25.4615800236
 20
22.7852228898
 30
0.0
 40
0.1574803149606298
100
AcDbArc
 50
250.8308442811
 51
254.061749393
  0
LINE
  5
2F2
330
1F
100
AcDbEntity
  8
0
  6
Continuous
 62
     7
370
    25
100
AcDbLine
 10
25.4271312047
 20
23.558844937
 30
0.0
 11
25.4271312047
 21
22.7576638346
 31
0.0
  0
LINE
  5
2F3
330
1F
100
AcDbEntity
  8
0
  6
Continuous
 62
     7
370
    25
100
AcDbLine
 10
25.4960288425
 20
22.7576638346
 30
0.0
 11
25.4960288425
 21
23.558844937
 31
0.0
  0
LINE
  5
2F4
330
1F
100
AcDbEntity
  8
0
  6
Continuous
 62
     7
370
    25
100
AcDbLine
 10
25.4960288425
 20
23.558844937
 30
0.0
 11
25.4901233306
 21
23.5647504488
 31
0.0
  0
LINE
  5
2F5
330
1F
100
AcDbEntity
  8
0
  6
Continuous
 62
     7
370
    25
100
AcDbLine
 10
25.4330367165
 20
23.5647504488
 30
0.0
 11
25.4271312047
 21
23.558844937
 31
0.0
  0
LINE
  5
2F6
330
1F
100
AcDbEntity
  8
0
  6
Continuous
 62
     7
370
    25
100
AcDbLine
 10
24.4628648073
 20
22.6789236772
 30
0.0
 11
24.4628648073
 21
22.6606459816
 31
0.0
  0
ARC
  5
2F7
330
1F
100
AcDbEntity
  8
0
  6
Continuous
 62
     7
370
    25
100
AcDbCircle
 10
24.4884553585
 20
22.6606459816
 30
0.0
 40
0.0255905511811036
100
AcDbArc
 50
180.0
 51
250.8308442811
  0
ARC
  5
2F8
330
1F
100
AcDbEntity
  8
0
  6
Continuous
 62
     7
370
    25
100
AcDbCircle
 10
24.53176244510001
 20
22.7852228898
 30
0.0
 40
0.1574803149606307
100
AcDbArc
 50
250.8308442811
 51
258.5899554847
  0
LINE
  5
2F9
330
1F
100
AcDbEntity
  8
0
  6
Continuous
 62
     7
370
    25
100
AcDbLine
 10
24.4973136262
 20
23.558844937
 30
0.0
 11
24.4973136262
 21
22.7576638346
 31
0.0
  0
LINE
  5
2FA
330
1F
100
AcDbEntity
  8
0
  6
Continuous
 62
     7
370
    25
100
AcDbLine
 10
24.566211264
 20
22.7576638346
 30
0.0
 11
24.566211264
 21
23.558844937
 31
0.0
  0
LINE
  5
2FB
330
1F
100
AcDbEntity
  8
0
  6
Continuous
 62
     7
370
    25
100
AcDbLine
 10
24.566211264
 20
23.558844937
 30
0.0
 11
24.5603057522
 21
23.5647504488
 31
0.0
  0
LINE
  5
2FC
330
1F
100
AcDbEntity
  8
0
  6
Continuous
 62
     7
370
    25
100
AcDbLine
 10
24.5032191381
 20
23.5647504488
 30
0.0
 11
24.4973136262
 21
23.558844937
 31
0.0
  0
ARC
  5
2FD
330
1F
100
AcDbEntity
  8
0
  6
Continuous
 62
     7
370
    25
100
AcDbCircle
 10
25.4730491871
 20
21.7360102913
 30
0.0
 40
0.0098425196850407
100
AcDbArc
 50
0.0
 51
90.0
  0
ARC
  5
2FE
330
1F
100
AcDbEntity
  8
0
  6
Continuous
 62
     7
370
    25
100
AcDbCircle
 10
24.5202932816
 20
21.7360102913
 30
0.0
 40
0.0098425196850407
100
AcDbArc
 50
90.0
 51
180.0
  0
ARC
  5
2FF
330
1F
100
AcDbEntity
  8
0
  6
Continuous
 62
     7
370
    25
100
AcDbCircle
 10
25.4671436753
 20
21.1316795827
 30
0.0
 40
0.015748031496063
100
AcDbArc
 50
270.0
 51
0.0
  0
ARC
  5
300
330
1F
100
AcDbEntity
  8
0
  6
Continuous
 62
     7
370
    25
100
AcDbCircle
 10
24.5261987934
 20
21.1316795827
 30
0.0
 40
0.015748031496063
100
AcDbArc
 50
180.0
 51
270.0
  0
LINE
  5
301
330
1F
100
AcDbEntity
  8
0
  6
Continuous
 62
     7
370
    25
100
AcDbLine
 10
24.5104507619
 20
21.7360102913
 30
0.0
 11
24.5104507619
 21
21.1316795827
 31
0.0
  0
LINE
  5
302
330
1F
100
AcDbEntity
  8
0
  6
Continuous
 62
     7
370
    25
100
AcDbLine
 10
25.4828917068
 20
21.1316795827
 30
0.0
 11
25.4828917068
 21
21.7360102913
 31
0.0
  0
ARC
  5
303
330
1F
100
AcDbEntity
  8
0
  6
Continuous
 62
     7
370
    25
100
AcDbCircle
 10
24.7604507619
 20
21.7379787953
 30
0.0
 40
0.0098425196850407
100
AcDbArc
 50
90.0
 51
180.0
  0
ARC
  5
304
330
1F
100
AcDbEntity
  8
0
  6
Continuous
 62
     7
370
    25
100
AcDbCircle
 10
25.2328917068
 20
21.7379787953
 30
0.0
 40
0.0098425196850407
100
AcDbArc
 50
0.0
 51
90.0
  0
LINE
  5
305
330
1F
100
AcDbEntity
  8
0
  6
Continuous
 62
     7
370
    25
100
AcDbLine
 10
24.7506082422
 20
21.7379787953
 30
0.0
 11
24.7506082422
 21
21.2714433622
 31
0.0
  0
LINE
  5
306
330
1F
100
AcDbEntity
  8
0
  6
Continuous
 62
     7
370
    25
100
AcDbLine
 10
25.2427342265
 20
21.2714433622
 30
0.0
 11
25.2427342265
 21
21.7379787953
 31
0.0
  0
ARC
  5
307
330
1F
100
AcDbEntity
  8
0
  6
Continuous
 62
     7
370
    25
100
AcDbCircle
 10
25.226986195
 20
21.2714433622
 30
0.0
 40
0.0157480314960665
100
AcDbArc
 50
270.0
 51
0.0
  0
ARC
  5
308
330
1F
100
AcDbEntity
  8
0
  6
Continuous
 62
     7
370
    25
100
AcDbCircle
 10
24.7663562737
 20
21.2714433622
 30
0.0
 40
0.0157480314960665
100
AcDbArc
 50
180.0
 51
270.0
  0
ARC
  5
309
330
1F
100
AcDbEntity
  8
0
  6
Continuous
 62
     7
370
    25
100
AcDbCircle
 10
24.4710806832
 20
22.6493961181
 30
0.0
 40
0.0295275590551185
100
AcDbArc
 50
0.0
 51
90.0
  0
LINE
  5
30A
330
1F
100
AcDbEntity
  8
0
  6
Continuous
 62
     7
370
    25
100
AcDbLine
 10
24.5006082422
 20
22.6493961181
 30
0.0
 11
24.5006082422
 21
22.6198685591
 31
0.0
  0
LINE
  5
30B
330
1F
100
AcDbEntity
  8
0
  6
Continuous
 62
     7
370
    25
100
AcDbLine
 10
25.4927342265
 20
22.6198685591
 30
0.0
 11
25.4927342265
 21
22.6309003103
 31
0.0
  0
LINE
  5
30C
330
1F
100
AcDbEntity
  8
0
  6
Continuous
 62
     7
370
    25
100
AcDbLine
 10
24.5006082422
 20
22.6198685591
 30
0.0
 11
24.5104507619
 21
22.590341
 31
0.0
  0
LINE
  5
30D
330
1F
100
AcDbEntity
  8
0
  6
Continuous
 62
     7
370
    25
100
AcDbLine
 10
25.4828917068
 20
22.590341
 30
0.0
 11
25.4927342265
 21
22.6198685591
 31
0.0
  0
LINE
  5
30E
330
1F
100
AcDbEntity
  8
0
  6
Continuous
 62
     7
370
    25
100
AcDbLine
 10
24.5104507619
 20
22.590341
 30
0.0
 11
24.5104507619
 21
22.2005772205
 31
0.0
  0
LINE
  5
30F
330
1F
100
AcDbEntity
  8
0
  6
Continuous
 62
     7
370
    25
100
AcDbLine
 10
24.5104507619
 20
21.9308921811
 30
0.0
 11
24.5104507619
 21
21.7832543858
 31
0.0
  0
LINE
  5
310
330
1F
100
AcDbEntity
  8
0
  6
Continuous
 62
     7
370
    25
100
AcDbLine
 10
25.4828917068
 20
21.7832543858
 30
0.0
 11
25.4828917068
 21
21.9308921811
 31
0.0
  0
LINE
  5
311
330
1F
100
AcDbEntity
  8
0
  6
Continuous
 62
     7
370
    25
100
AcDbLine
 10
25.4828917068
 20
22.2005772205
 30
0.0
 11
25.4828917068
 21
22.590341
 31
0.0
  0
LINE
  5
312
330
1F
100
AcDbEntity
  8
0
  6
Continuous
 62
     7
370
    25
100
AcDbLine
 10
24.5104507619
 20
21.7832543858
 30
0.0
 11
24.5202932816
 21
21.7734118661
 31
0.0
  0
LINE
  5
313
330
1F
100
AcDbEntity
  8
0
  6
Continuous
 62
     7
370
    25
100
AcDbLine
 10
25.4730491871
 20
21.7734118661
 30
0.0
 11
25.4828917068
 21
21.7832543858
 31
0.0
  0
ARC
  5
314
330
1F
100
AcDbEntity
  8
0
  6
Continuous
 62
     7
370
    25
100
AcDbCircle
 10
25.3608444627
 20
21.7537268268
 30
0.0
 40
0.0196850393700778
100
AcDbArc
 50
90.0
 51
180.0
  0
ARC
  5
315
330
1F
100
AcDbEntity
  8
0
  6
Continuous
 62
     7
370
    25
100
AcDbCircle
 10
24.632498006
 20
21.7537268268
 30
0.0
 40
0.0196850393700778
100
AcDbArc
 50
0.0
 51
90.0
  0
LINE
  5
316
330
1F
100
AcDbEntity
  8
0
  6
Continuous
 62
     7
370
    25
100
AcDbLine
 10
25.3411594233
 20
21.745852811
 30
0.0
 11
25.3411594233
 21
21.7537268268
 31
0.0
  0
LINE
  5
317
330
1F
100
AcDbEntity
  8
0
  6
Continuous
 62
     7
370
    25
100
AcDbLine
 10
24.6521830454
 20
21.7537268268
 30
0.0
 11
24.6521830454
 21
21.745852811
 31
0.0
  0
LINE
  5
318
330
1F
100
AcDbEntity
  8
0
  6
Continuous
 62
     7
370
    25
100
AcDbLine
 10
25.8431279273
 20
22.6887661968
 30
0.0
 11
25.8431279273
 21
22.8167189528
 31
0.0
  0
LINE
  5
319
330
1F
100
AcDbEntity
  8
0
  6
Continuous
 62
     7
370
    25
100
AcDbLine
 10
24.1502145414
 20
22.8167189528
 30
0.0
 11
24.1502145414
 21
22.6887661968
 31
0.0
  0
LINE
  5
31A
330
1F
100
AcDbEntity
  8
0
  6
Continuous
 62
     7
370
    25
100
AcDbLine
 10
25.8332854076
 20
22.6789236772
 30
0.0
 11
25.8431279273
 21
22.6887661968
 31
0.0
  0
LINE
  5
31B
330
1F
100
AcDbEntity
  8
0
  6
Continuous
 62
     7
370
    25
100
AcDbLine
 10
24.1502145414
 20
22.6887661968
 30
0.0
 11
24.1600570611
 21
22.6789236772
 31
0.0
  0
LINE
  5
31C
330
1F
100
AcDbEntity
  8
0
  6
Continuous
 62
     7
370
    25
100
AcDbLine
 10
24.3812404069
 20
22.7576638346
 30
0.0
 11
24.3812404069
 21
22.8167189528
 31
0.0
  0
LINE
  5
31D
330
1F
100
AcDbEntity
  8
0
  6
Continuous
 62
     7
370
    25
100
AcDbLine
 10
25.6121020618
 20
22.8167189528
 30
0.0
 11
25.6121020618
 21
22.7576638346
 31
0.0
  0
LINE
  5
31E
330
1F
100
AcDbEntity
  8
0
  6
Continuous
 62
     7
370
    25
100
AcDbLine
 10
25.2427342265
 20
21.7832543858
 30
0.0
 11
25.2427342265
 21
21.9308921811
 31
0.0
  0
LINE
  5
31F
330
1F
100
AcDbEntity
  8
0
  6
Continuous
 62
     7
370
    25
100
AcDbLine
 10
25.2427342265
 20
22.2005772205
 30
0.0
 11
25.2427342265
 21
22.5923095039
 31
0.0
  0
LINE
  5
320
330
1F
100
AcDbEntity
  8
0
  6
Continuous
 62
     7
370
    25
100
AcDbLine
 10
24.7506082422
 20
22.5923095039
 30
0.0
 11
24.7506082422
 21
22.2005772205
 31
0.0
  0
LINE
  5
321
330
1F
100
AcDbEntity
  8
0
  6
Continuous
 62
     7
370
    25
100
AcDbLine
 10
24.7506082422
 20
21.9308921811
 30
0.0
 11
24.7506082422
 21
21.7832543858
 31
0.0
  0
LINE
  5
322
330
1F
100
AcDbEntity
  8
0
  6
Continuous
 62
     7
370
    25
100
AcDbLine
 10
24.7506082422
 20
21.7832543858
 30
0.0
 11
24.7604507619
 21
21.7734118661
 31
0.0
  0
LINE
  5
323
330
1F
100
AcDbEntity
  8
0
  6
Continuous
 62
     7
370
    25
100
AcDbLine
 10
25.2328917068
 20
21.7734118661
 30
0.0
 11
25.2427342265
 21
21.7832543858
 31
0.0
  0
ARC
  5
324
330
1F
100
AcDbEntity
  8
0
  6
Continuous
 62
     7
370
    25
100
AcDbCircle
 10
24.7673405257
 20
22.6356165905
 30
0.0
 40
0.0059055118110223
100
AcDbArc
 50
19.4712206345
 51
90.0
  0
ARC
  5
325
330
1F
100
AcDbEntity
  8
0
  6
Continuous
 62
     7
370
    25
100
AcDbCircle
 10
25.22600194300001
 20
22.6356165905
 30
0.0
 40
0.0059055118110223
100
AcDbArc
 50
90.0
 51
160.5287793655
  0
ARC
  5
326
330
1F
100
AcDbEntity
  8
0
  6
Continuous
 62
     7
370
    25
100
AcDbCircle
 10
24.7673405257
 20
22.5982150157
 30
0.0
 40
0.0059055118110223
100
AcDbArc
 50
270.0
 51
0.0
  0
ARC
  5
327
330
1F
100
AcDbEntity
  8
0
  6
Continuous
 62
     7
370
    25
100
AcDbCircle
 10
25.22600194300001
 20
22.5982150157
 30
0.0
 40
0.0059055118110223
100
AcDbArc
 50
180.0
 51
270.0
  0
LINE
  5
328
330
1F
100
AcDbEntity
  8
0
  6
Continuous
 62
     7
370
    25
100
AcDbLine
 10
25.1836791084
 20
21.747821315
 30
0.0
 11
25.1836791084
 21
21.7734118661
 31
0.0
  0
LINE
  5
329
330
1F
100
AcDbEntity
  8
0
  6
Continuous
 62
     7
370
    25
100
AcDbLine
 10
24.80966336030001
 20
21.7734118661
 30
0.0
 11
24.80966336030001
 21
21.747821315
 31
0.0
  0
LINE
  5
32A
330
1F
100
AcDbEntity
  8
0
  6
Continuous
 62
     7
370
    25
100
AcDbLine
 10
24.7506082422
 20
22.6946717087
 30
0.0
 11
24.7506082422
 21
22.651364622
 31
0.0
  0
LINE
  5
32B
330
1F
100
AcDbEntity
  8
0
  6
Continuous
 62
     7
370
    25
100
AcDbLine
 10
25.2427342265
 20
22.651364622
 30
0.0
 11
25.2427342265
 21
22.6946717087
 31
0.0
  0
LINE
  5
32C
330
1F
100
AcDbEntity
  8
0
  6
Continuous
 62
     7
370
    25
100
AcDbLine
 10
25.2427342265
 20
22.6946717087
 30
0.0
 11
25.2328917068
 21
22.7045142283
 31
0.0
  0
LINE
  5
32D
330
1F
100
AcDbEntity
  8
0
  6
Continuous
 62
     7
370
    25
100
AcDbLine
 10
24.7604507619
 20
22.7045142283
 30
0.0
 11
24.7506082422
 21
22.6946717087
 31
0.0
  0
LINE
  5
32E
330
1F
100
AcDbEntity
  8
0
  6
Continuous
 62
     7
370
    25
100
AcDbLine
 10
24.7506082422
 20
22.651364622
 30
0.0
 11
24.7604507619
 21
22.6415221024
 31
0.0
  0
LINE
  5
32F
330
1F
100
AcDbEntity
  8
0
  6
Continuous
 62
     7
370
    25
100
AcDbLine
 10
25.2328917068
 20
22.6415221024
 30
0.0
 11
25.2427342265
 21
22.651364622
 31
0.0
  0
LINE
  5
330
330
1F
100
AcDbEntity
  8
0
  6
Continuous
 62
     7
370
    25
100
AcDbLine
 10
24.8618287147
 20
22.8068764331
 30
0.0
 11
24.8618287147
 21
22.7045142283
 31
0.0
  0
LINE
  5
331
330
1F
100
AcDbEntity
  8
0
  6
Continuous
 62
     7
370
    25
100
AcDbLine
 10
25.131513754
 20
22.7045142283
 30
0.0
 11
25.131513754
 21
22.7123882441
 31
0.0
  0
LINE
  5
332
330
1F
100
AcDbEntity
  8
0
  6
Continuous
 62
     7
370
    25
100
AcDbLine
 10
24.8677342265
 20
22.8127819449
 30
0.0
 11
24.8618287147
 21
22.8068764331
 31
0.0
  0
LINE
  5
333
330
1F
100
AcDbEntity
  8
0
  6
Continuous
 62
     7
370
    25
100
AcDbLine
 10
25.131513754
 20
22.7123882441
 30
0.0
 11
25.1256082422
 21
22.7182937559
 31
0.0
  0
LINE
  5
334
330
1F
100
AcDbEntity
  8
0
  6
Continuous
 62
     7
370
    25
100
AcDbLine
 10
26.5124793632
 20
22.0473697344
 30
0.0
 11
25.9889133288
 21
22.0473697344
 31
0.0
  0
SPLINE
  5
335
330
1F
100
AcDbEntity
  8
0
  6
Continuous
 62
     7
370
    25
100
AcDbSpline
210
0.0
220
0.0
230
1.0
 70
     8
 71
     3
 72
    11
 73
     7
 74
     0
 42
0.00000001
 43
0.0000000001
 40
0.0
 40
0.0
 40
0.0
 40
0.0
 40
0.5054042801711783
 40
0.7379081210077631
 40
0.8723100251292382
 40
1.0
 40
1.0
 40
1.0
 40
1.0
 10
25.98891258533208
 20
22.04736973443776
 30
0.0
 10
25.98886395696209
 20
22.05006861230695
 30
0.0
 10
25.98879295782234
 20
22.0540090694329
 30
0.0
 10
25.98907665302464
 20
22.05865725886668
 30
0.0
 10
25.98854587219058
 20
22.06131056996774
 30
0.0
 10
25.98771067601854
 20
22.06243654964811
 30
0.0
 10
25.98730377223111
 20
22.06298512184211
 30
0.0
  0
SPLINE
  5
336
330
1F
100
AcDbEntity
  8
0
  6
Continuous
 62
     7
370
    25
100
AcDbSpline
210
0.0
220
0.0
230
1.0
 70
     8
 71
     3
 72
    11
 73
     7
 74
     0
 42
0.00000001
 43
0.0000000001
 40
0.0
 40
0.0
 40
0.0
 40
0.0
 40
0.089334385619604
 40
0.218623447752181
 40
0.6366138494833413
 40
1.0
 40
1.0
 40
1.0
 40
1.0
 10
26.51209669721852
 20
22.0629308764984
 30
0.0
 10
26.51216935211023
 20
22.0625770454491
 30
0.0
 10
26.51234715669031
 20
22.06171113291854
 30
0.0
 10
26.51257733799627
 20
22.05836664488822
 30
0.0
 10
26.51244955433158
 20
22.05347118121704
 30
0.0
 10
26.51246966918656
 20
22.04930653867881
 30
0.0
 10
26.51247902377968
 20
22.04736973443776
 30
0.0
  0
LINE
  5
337
330
1F
100
AcDbEntity
  8
0
  6
Continuous
 62
     7
370
    25
100
AcDbLine
 10
25.9873148435
 20
22.0473697344
 30
0.0
 11
25.9889136437
 21
22.0473697344
 31
0.0
  0
LINE
  5
338
330
1F
100
AcDbEntity
  8
0
  6
Continuous
 62
     7
370
    25
100
AcDbLine
 10
24.0041853462
 20
22.0473697344
 30
0.0
 11
23.4807032165
 21
22.0473697344
 31
0.0
  0
SPLINE
  5
339
330
1F
100
AcDbEntity
  8
0
  6
Continuous
 62
     7
370
    25
100
AcDbSpline
210
0.0
220
0.0
230
1.0
 70
     8
 71
     3
 72
    11
 73
     7
 74
     0
 42
0.00000001
 43
0.0000000001
 40
0.0
 40
0.0
 40
0.0
 40
0.0
 40
0.5054042801712184
 40
0.7379081210078212
 40
0.8723100251293063
 40
1.0
 40
1.0
 40
1.0
 40
1.0
 10
23.4807036649887
 20
22.04736973443776
 30
0.0
 10
23.48071479588523
 20
22.05006861230695
 30
0.0
 10
23.48073104738778
 20
22.0540090694329
 30
0.0
 10
23.48066611035728
 20
22.05865725886668
 30
0.0
 10
23.480787604591
 20
22.06131056996774
 30
0.0
 10
23.48097877863576
 20
22.06243654964811
 30
0.0
 10
23.48107191776339
 20
22.06298512184211
 30
0.0
  0
SPLINE
  5
33A
330
1F
100
AcDbEntity
  8
0
  6
Continuous
 62
     7
370
    25
100
AcDbSpline
210
0.0
220
0.0
230
1.0
 70
     8
 71
     3
 72
    11
 73
     7
 74
     0
 42
0.00000001
 43
0.0000000001
 40
0.0
 40
0.0
 40
0.0
 40
0.0
 40
0.0893343856196002
 40
0.2186234477521767
 40
0.6366138494833393
 40
1.0
 40
1.0
 40
1.0
 40
1.0
 10
24.00585744404486
 20
22.0629308764984
 30
0.0
 10
24.00553979623427
 20
22.0625770454491
 30
0.0
 10
24.00476243308298
 20
22.06171113291854
 30
0.0
 10
24.003756078436
 20
22.05836664488822
 30
0.0
 10
24.00431474971602
 20
22.05347118121704
 30
0.0
 10
24.00422680739721
 20
22.04930653867881
 30
0.0
 10
24.00418590903572
 20
22.04736973443776
 30
0.0
  0
LINE
  5
33B
330
1F
100
AcDbEntity
  8
0
  6
Continuous
 62
     7
370
    25
100
AcDbLine
 10
24.0041851078
 20
22.0473697344
 30
0.0
 11
24.0057837098
 21
22.0473697344
 31
0.0
  0
LINE
  5
33C
330
1F
100
AcDbEntity
  8
0
  6
Continuous
 62
     7
370
    25
100
AcDbLine
 10
25.71871578670001
 20
22.997821315
 30
0.0
 11
25.7127910397
 21
22.997821315
 31
0.0
  0
LINE
  5
33D
330
1F
100
AcDbEntity
  8
0
  6
Continuous
 62
     7
370
    25
100
AcDbLine
 10
25.7766144211
 20
22.997821315
 30
0.0
 11
25.71871578670001
 21
22.997821315
 31
0.0
  0
LINE
  5
33E
330
1F
100
AcDbEntity
  8
0
  6
Continuous
 62
     7
370
    25
100
AcDbLine
 10
24.280551429
 20
22.997821315
 30
0.0
 11
24.2167280476
 21
22.997821315
 31
0.0
  0
LINE
  5
33F
330
1F
100
AcDbEntity
  8
0
  6
Continuous
 62
     7
370
    25
100
AcDbLine
 10
25.7126421282
 20
22.9903629269
 30
0.0
 11
25.7053326517
 21
22.9903629269
 31
0.0
  0
LINE
  5
340
330
1F
100
AcDbEntity
  8
0
  6
Continuous
 62
     7
370
    25
100
AcDbLine
 10
25.7840728092
 20
22.9903629269
 30
0.0
 11
25.7126421282
 21
22.9903629269
 31
0.0
  0
LINE
  5
341
330
1F
100
AcDbEntity
  8
0
  6
Continuous
 62
     7
370
    25
100
AcDbLine
 10
24.288009817
 20
22.9903629269
 30
0.0
 11
24.2092696595
 21
22.9903629269
 31
0.0
  0
LINE
  5
342
330
1F
100
AcDbEntity
  8
0
  6
Continuous
 62
     7
370
    25
100
AcDbLine
 10
25.3460682065
 20
22.2005772205
 30
0.0
 11
25.3941283127
 21
22.2005772205
 31
0.0
  0
LINE
  5
343
330
1F
100
AcDbEntity
  8
0
  6
Continuous
 62
     7
370
    25
100
AcDbLine
 10
24.599214156
 20
22.2005772205
 30
0.0
 11
24.6472742622
 21
22.2005772205
 31
0.0
  0
LINE
  5
344
330
1F
100
AcDbEntity
  8
0
  6
Continuous
 62
     7
370
    25
100
AcDbLine
 10
24.6472742622
 20
22.2005772205
 30
0.0
 11
25.3460682065
 21
22.2005772205
 31
0.0
  0
LINE
  5
345
330
1F
100
AcDbEntity
  8
0
  6
Continuous
 62
     7
370
    25
100
AcDbLine
 10
26.5753599454
 20
22.2005772205
 30
0.0
 11
25.3941283127
 21
22.2005772205
 31
0.0
  0
LINE
  5
346
330
1F
100
AcDbEntity
  8
0
  6
Continuous
 62
     7
370
    25
100
AcDbLine
 10
24.599214156
 20
22.2005772205
 30
0.0
 11
23.4179825233
 21
22.2005772205
 31
0.0
  0
LINE
  5
347
330
1F
100
AcDbEntity
  8
0
  6
Continuous
 62
     7
370
    25
100
AcDbLine
 10
23.4120255651
 20
22.1316795827
 30
0.0
 11
23.4120255651
 21
22.2005772205
 31
0.0
  0
LINE
  5
348
330
1F
100
AcDbEntity
  8
0
  6
Continuous
 62
     7
370
    25
100
AcDbLine
 10
23.4120255651
 20
22.2005772205
 30
0.0
 11
23.4179825233
 21
22.2005772205
 31
0.0
  0
LINE
  5
349
330
1F
100
AcDbEntity
  8
0
  6
Continuous
 62
     7
370
    25
100
AcDbLine
 10
26.5813169036
 20
22.2005772205
 30
0.0
 11
26.5813169036
 21
22.1316795827
 31
0.0
  0
LINE
  5
34A
330
1F
100
AcDbEntity
  8
0
  6
Continuous
 62
     7
370
    25
100
AcDbLine
 10
26.5753599454
 20
22.2005772205
 30
0.0
 11
26.5813169036
 21
22.2005772205
 31
0.0
  0
LINE
  5
34B
330
1F
100
AcDbEntity
  8
0
  6
Continuous
 62
     7
370
    25
100
AcDbLine
 10
25.3609987182
 20
22.1247898189
 30
0.0
 11
25.3858878231
 21
22.1247898189
 31
0.0
  0
LINE
  5
34C
330
1F
100
AcDbEntity
  8
0
  6
Continuous
 62
     7
370
    25
100
AcDbLine
 10
24.6323437505
 20
22.1247898189
 30
0.0
 11
25.3609987182
 21
22.1247898189
 31
0.0
  0
LINE
  5
34D
330
1F
100
AcDbEntity
  8
0
  6
Continuous
 62
     7
370
    25
100
AcDbLine
 10
24.6074546456
 20
22.1247898189
 30
0.0
 11
24.6323437505
 21
22.1247898189
 31
0.0
  0
LINE
  5
34E
330
1F
100
AcDbEntity
  8
0
  6
Continuous
 62
     7
370
    25
100
AcDbLine
 10
25.3858878231
 20
22.1219229541
 30
0.0
 11
25.407165288
 21
22.1219229541
 31
0.0
  0
LINE
  5
34F
330
1F
100
AcDbEntity
  8
0
  6
Continuous
 62
     7
370
    25
100
AcDbLine
 10
24.6074546456
 20
22.1219229541
 30
0.0
 11
24.5861771807
 21
22.1219229541
 31
0.0
  0
LINE
  5
350
330
1F
100
AcDbEntity
  8
0
  6
Continuous
 62
     7
370
    25
100
AcDbLine
 10
25.4048580453
 20
22.1316795827
 30
0.0
 11
25.3609987182
 21
22.1316795827
 31
0.0
  0
ARC
  5
351
330
1F
100
AcDbEntity
  8
0
  6
Continuous
 62
     7
370
    25
100
AcDbCircle
 10
25.3950545643
 20
22.1242101383
 30
0.0
 40
0.0123248058779008
100
AcDbArc
 50
349.3053023916
 51
37.304412211
  0
LINE
  5
352
330
1F
100
AcDbEntity
  8
0
  6
Continuous
 62
     7
370
    25
100
AcDbLine
 10
25.3609987182
 20
22.1316795827
 30
0.0
 11
25.3609987182
 21
22.1247898189
 31
0.0
  0
LINE
  5
353
330
1F
100
AcDbEntity
  8
0
  6
Continuous
 62
     7
370
    25
100
AcDbLine
 10
25.3858878231
 20
22.1247898189
 30
0.0
 11
25.3858878231
 21
22.1219229541
 31
0.0
  0
LINE
  5
354
330
1F
100
AcDbEntity
  8
0
  6
Continuous
 62
     7
370
    25
100
AcDbLine
 10
24.6323437505
 20
22.1316795827
 30
0.0
 11
25.3609987182
 21
22.1316795827
 31
0.0
  0
LINE
  5
355
330
1F
100
AcDbEntity
  8
0
  6
Continuous
 62
     7
370
    25
100
AcDbLine
 10
24.6323437505
 20
22.1316795827
 30
0.0
 11
24.6323437505
 21
22.1247898189
 31
0.0
  0
ARC
  5
356
330
1F
100
AcDbEntity
  8
0
  6
Continuous
 62
     7
370
    25
100
AcDbCircle
 10
24.5982879044
 20
22.1242101383
 30
0.0
 40
0.0123248058779626
100
AcDbArc
 50
142.6955877891
 51
190.6946976082
  0
LINE
  5
357
330
1F
100
AcDbEntity
  8
0
  6
Continuous
 62
     7
370
    25
100
AcDbLine
 10
24.5884844234
 20
22.1316795827
 30
0.0
 11
24.6323437505
 21
22.1316795827
 31
0.0
  0
LINE
  5
358
330
1F
100
AcDbEntity
  8
0
  6
Continuous
 62
     7
370
    25
100
AcDbLine
 10
24.6074546456
 20
22.1219229541
 30
0.0
 11
24.6074546456
 21
22.1247898189
 31
0.0
  0
LINE
  5
359
330
1F
100
AcDbEntity
  8
0
  6
Continuous
 62
     7
370
    25
100
AcDbLine
 10
25.407165288
 20
22.1219229541
 30
0.0
 11
25.92459664070001
 21
22.1219229541
 31
0.0
  0
LINE
  5
35A
330
1F
100
AcDbEntity
  8
0
  6
Continuous
 62
     7
370
    25
100
AcDbLine
 10
25.92459664070001
 20
22.1219229541
 30
0.0
 11
25.9245970379
 21
22.121837063
 31
0.0
  0
LINE
  5
35B
330
1F
100
AcDbEntity
  8
0
  6
Continuous
 62
     7
370
    25
100
AcDbLine
 10
26.4816623025
 20
22.1219229541
 30
0.0
 11
26.6989457904
 21
22.1219229541
 31
0.0
  0
LINE
  5
35C
330
1F
100
AcDbEntity
  8
0
  6
Continuous
 62
     7
370
    25
100
AcDbLine
 10
23.5116801662
 20
22.1219229541
 30
0.0
 11
23.2943966783
 21
22.1219229541
 31
0.0
  0
LINE
  5
35D
330
1F
100
AcDbEntity
  8
0
  6
Continuous
 62
     7
370
    25
100
AcDbLine
 10
24.0687454308
 20
22.121837063
 30
0.0
 11
24.068745828
 21
22.1219229541
 31
0.0
  0
LINE
  5
35E
330
1F
100
AcDbEntity
  8
0
  6
Continuous
 62
     7
370
    25
100
AcDbLine
 10
24.5861771807
 20
22.1219229541
 30
0.0
 11
24.068745828
 21
22.1219229541
 31
0.0
  0
ARC
  5
35F
330
1F
100
AcDbEntity
  8
0
  6
Continuous
 62
     7
370
    25
100
AcDbCircle
 10
25.9065918322
 20
22.1218588933
 30
0.0
 40
0.018004922466265
100
AcDbArc
 50
0.2038565566
 51
9.3685663585
  0
LINE
  5
360
330
1F
100
AcDbEntity
  8
0
  6
Continuous
 62
     7
370
    25
100
AcDbLine
 10
26.6893779041
 20
22.1316795827
 30
0.0
 11
25.4048580453
 21
22.1316795827
 31
0.0
  0
ARC
  5
361
330
1F
100
AcDbEntity
  8
0
  6
Continuous
 62
     7
370
    25
100
AcDbCircle
 10
26.6892404328
 20
22.1219750588
 30
0.0
 40
0.0097054974674341
100
AcDbArc
 50
359.6924014277
 51
89.18841977520001
  0
LINE
  5
362
330
1F
100
AcDbEntity
  8
0
  6
Continuous
 62
     7
370
    25
100
AcDbLine
 10
25.9243565981
 20
22.1247898189
 30
0.0
 11
26.4812781541
 21
22.1247898189
 31
0.0
  0
ARC
  5
363
330
1F
100
AcDbEntity
  8
0
  6
Continuous
 62
     7
370
    25
100
AcDbCircle
 10
23.3041020359
 20
22.1219750588
 30
0.0
 40
0.009705497467443
100
AcDbArc
 50
90.8115802248
 51
180.3075985722
  0
LINE
  5
364
330
1F
100
AcDbEntity
  8
0
  6
Continuous
 62
     7
370
    25
100
AcDbLine
 10
23.3039645646
 20
22.1316795827
 30
0.0
 11
24.5884844234
 21
22.1316795827
 31
0.0
  0
ARC
  5
365
330
1F
100
AcDbEntity
  8
0
  6
Continuous
 62
     7
370
    25
100
AcDbCircle
 10
24.0867506365
 20
22.1218588933
 30
0.0
 40
0.018004922453479
100
AcDbArc
 50
170.6314336376
 51
179.7961434459
  0
LINE
  5
366
330
1F
100
AcDbEntity
  8
0
  6
Continuous
 62
     7
370
    25
100
AcDbLine
 10
23.5120643146
 20
22.1247898189
 30
0.0
 11
24.0689858706
 21
22.1247898189
 31
0.0
  0
ARC
  5
367
330
1F
100
AcDbEntity
  8
0
  6
Continuous
 62
     7
370
    25
100
AcDbCircle
 10
25.9383088243
 20
22.1269981376
 30
0.0
 40
0.0141259083831442
100
AcDbArc
 50
188.9940035747
 51
201.4298820899
  0
ARC
  5
368
330
1F
100
AcDbEntity
  8
0
  6
Continuous
 62
     7
370
    25
100
AcDbCircle
 10
24.0550336448
 20
22.1269981375
 30
0.0
 40
0.0141259079025783
100
AcDbArc
 50
338.5701176698
 51
351.0059966113
  0
ARC
  5
369
330
1F
100
AcDbEntity
  8
0
  6
Continuous
 62
     7
370
    25
100
AcDbCircle
 10
26.4914448917
 20
22.1274572881
 30
0.0
 40
0.0105108489695282
100
AcDbArc
 50
194.7014525393
 51
211.7716627108
  0
ARC
  5
36A
330
1F
100
AcDbEntity
  8
0
  6
Continuous
 62
     7
370
    25
100
AcDbCircle
 10
23.501897577
 20
22.1274572881
 30
0.0
 40
0.0105108489695635
100
AcDbArc
 50
328.2283372893
 51
345.2985474607
  0
LINE
  5
36B
330
1F
100
AcDbEntity
  8
0
  6
Continuous
 62
     7
370
    25
100
AcDbLine
 10
26.6989457904
 20
22.1219229541
 30
0.0
 11
26.7028544463
 21
22.1219229541
 31
0.0
  0
LINE
  5
36C
330
1F
100
AcDbEntity
  8
0
  6
Continuous
 62
     7
370
    25
100
AcDbLine
 10
23.2943966783
 20
22.1219229541
 30
0.0
 11
23.2904880224
 21
22.1219229541
 31
0.0
  0
ARC
  5
36D
330
1F
100
AcDbEntity
  8
0
  6
Continuous
 62
     7
370
    25
100
AcDbCircle
 10
26.6945913996
 20
22.121837063
 30
0.0
 40
0.0098425196850382
100
AcDbArc
 50
17.4576031237
 51
90.0
  0
LINE
  5
36E
330
1F
100
AcDbEntity
  8
0
  6
Continuous
 62
     7
370
    25
100
AcDbLine
 10
26.7023977967
 20
22.1247898189
 30
0.0
 11
26.703980565
 21
22.1247898189
 31
0.0
  0
LINE
  5
36F
330
1F
100
AcDbEntity
  8
0
  6
Continuous
 62
     7
370
    25
100
AcDbLine
 10
26.7028544463
 20
22.1219229541
 30
0.0
 11
26.7023977967
 21
22.1247898189
 31
0.0
  0
LINE
  5
370
330
1F
100
AcDbEntity
  8
0
  6
Continuous
 62
     7
370
    25
100
AcDbLine
 10
26.6945913996
 20
22.1316795827
 30
0.0
 11
26.6893779041
 21
22.1316795827
 31
0.0
  0
LINE
  5
371
330
1F
100
AcDbEntity
  8
0
  6
Continuous
 62
     7
370
    25
100
AcDbLine
 10
23.290944672
 20
22.1247898189
 30
0.0
 11
23.2904880224
 21
22.1219229541
 31
0.0
  0
LINE
  5
372
330
1F
100
AcDbEntity
  8
0
  6
Continuous
 62
     7
370
    25
100
AcDbLine
 10
23.2893619037
 20
22.1247898189
 30
0.0
 11
23.290944672
 21
22.1247898189
 31
0.0
  0
ARC
  5
373
330
1F
100
AcDbEntity
  8
0
  6
Continuous
 62
     7
370
    25
100
AcDbCircle
 10
23.2987510691
 20
22.121837063
 30
0.0
 40
0.0098425196850416
100
AcDbArc
 50
90.0
 51
162.5423968763
  0
LINE
  5
374
330
1F
100
AcDbEntity
  8
0
  6
Continuous
 62
     7
370
    25
100
AcDbLine
 10
23.2987510691
 20
22.1316795827
 30
0.0
 11
23.3039645646
 21
22.1316795827
 31
0.0
  0
ARC
  5
375
330
1F
100
AcDbEntity
  8
0
  6
Continuous
 62
     7
370
    25
100
AcDbCircle
 10
26.7133697303
 20
22.1277425748
 30
0.0
 40
0.0098425196850382
100
AcDbArc
 50
197.4576031236999
 51
216.8698976458
  0
ARC
  5
376
330
1F
100
AcDbEntity
  8
0
  6
Continuous
 62
     7
370
    25
100
AcDbCircle
 10
23.2799727384
 20
22.1277425748
 30
0.0
 40
0.0098425196850371
100
AcDbArc
 50
323.1301023542
 51
342.5423968763
  0
LINE
  5
377
330
1F
100
AcDbEntity
  8
0
  6
Continuous
 62
     7
370
    25
100
AcDbLine
 10
26.8076948564
 20
22.121837063
 30
0.0
 11
23.1856476123
 21
22.121837063
 31
0.0
  0
LINE
  5
378
330
1F
100
AcDbEntity
  8
0
  6
Continuous
 62
     7
370
    25
100
AcDbLine
 10
26.7781672973
 20
21.9308921811
 30
0.0
 11
23.2151751716
 21
21.9308921811
 31
0.0
  0
ARC
  5
379
330
1F
100
AcDbEntity
  8
0
  6
Continuous
 62
     7
370
    25
100
AcDbCircle
 10
25.418857862
 20
22.635594333
 30
0.0
 40
0.0018717677478073
100
AcDbArc
 50
247.1724212563
 51
261.1592260823
  0
ARC
  5
37A
330
1F
100
AcDbEntity
  8
0
  6
Continuous
 62
     7
370
    25
100
AcDbCircle
 10
25.4522978942
 20
22.7276336786
 30
0.0
 40
0.0991449948612846
100
AcDbArc
 50
268.0804341792
 51
271.9195658208
  0
ARC
  5
37B
330
1F
100
AcDbEntity
  8
0
  6
Continuous
 62
     7
370
    25
100
AcDbCircle
 10
25.4473588309
 20
22.6386324654
 30
0.0
 40
0.0130383835970547
100
AcDbArc
 50
309.3102707819
 51
338.5721824811
  0
ARC
  5
37C
330
1F
100
AcDbEntity
  8
0
  6
Continuous
 62
     7
370
    25
100
AcDbCircle
 10
25.4737570529
 20
22.6861103494
 30
0.0
 40
0.0576216637788791
100
AcDbArc
 50
267.4820168067
 51
272.5179831933
  0
ARC
  5
37D
330
1F
100
AcDbEntity
  8
0
  6
Continuous
 62
     7
370
    25
100
AcDbCircle
 10
25.4626169582
 20
22.782555126
 30
0.0
 40
0.1546164301206353
100
AcDbArc
 50
275.0728660774
 51
285.9203453592
  0
ARC
  5
37E
330
1F
100
AcDbEntity
  8
0
  6
Continuous
 62
     7
370
    25
100
AcDbCircle
 10
25.5039756638
 20
22.6372427634
 30
0.0
 40
0.0035340203651368
100
AcDbArc
 50
252.6700761724
 51
287.3299238275
  0
ARC
  5
37F
330
1F
100
AcDbEntity
  8
0
  6
Continuous
 62
     7
370
    25
100
AcDbCircle
 10
25.4605115764
 20
22.782555126
 30
0.0
 40
0.1546164301205537
100
AcDbArc
 50
275.0728660774
 51
285.9203453592
  0
ARC
  5
380
330
1F
100
AcDbEntity
  8
0
  6
Continuous
 62
     7
370
    25
100
AcDbCircle
 10
25.4708621529
 20
22.7276336786
 30
0.0
 40
0.0991449948611107
100
AcDbArc
 50
268.0804341792
 51
271.9195658208
  0
ARC
  5
381
330
1F
100
AcDbEntity
  8
0
  6
Continuous
 62
     7
370
    25
100
AcDbCircle
 10
25.4758012162
 20
22.6386324654
 30
0.0
 40
0.013038383597076
100
AcDbArc
 50
201.427817519
 51
230.6897292181
  0
ARC
  5
382
330
1F
100
AcDbEntity
  8
0
  6
Continuous
 62
     7
370
    25
100
AcDbCircle
 10
25.455860734
 20
22.8267022019
 30
0.0
 40
0.1929908564826297
100
AcDbArc
 50
267.682689102
 51
272.317310898
  0
ARC
  5
383
330
1F
100
AcDbEntity
  8
0
  6
Continuous
 62
     7
370
    25
100
AcDbCircle
 10
25.46019455530001
 20
22.6386324654
 30
0.0
 40
0.0130383835970782
100
AcDbArc
 50
201.427817519
 51
230.6897292181
  0
ARC
  5
384
330
1F
100
AcDbEntity
  8
0
  6
Continuous
 62
     7
370
    25
100
AcDbCircle
 10
25.4494029942
 20
22.6861103494
 30
0.0
 40
0.0576216637786413
100
AcDbArc
 50
267.4820168067
 51
272.5179831933
  0
ARC
  5
385
330
1F
100
AcDbEntity
  8
0
  6
Continuous
 62
     7
370
    25
100
AcDbCircle
 10
25.4605430889
 20
22.782555126
 30
0.0
 40
0.1546164301205022
100
AcDbArc
 50
254.0796546408
 51
264.9271339226
  0
LINE
  5
386
330
1F
100
AcDbEntity
  8
0
  6
Continuous
 62
     7
370
    25
100
AcDbLine
 10
25.451934484
 20
22.6285443204
 30
0.0
 11
25.451934484
 21
22.6337509473
 31
0.0
  0
LINE
  5
387
330
1F
100
AcDbEntity
  8
0
  6
Continuous
 62
     7
370
    25
100
AcDbLine
 10
25.4960288425
 20
23.558844937
 30
0.0
 11
25.4271312047
 21
23.558844937
 31
0.0
  0
LINE
  5
388
330
1F
100
AcDbEntity
  8
0
  6
Continuous
 62
     7
370
    25
100
AcDbLine
 10
25.4330367165
 20
23.5647504488
 30
0.0
 11
25.4901233306
 21
23.5647504488
 31
0.0
  0
LINE
  5
389
330
1F
100
AcDbEntity
  8
0
  6
Continuous
 62
     7
370
    25
100
AcDbLine
 10
25.4762885427
 20
22.6287456937
 30
0.0
 11
25.4762885427
 21
22.6285443204
 31
0.0
  0
LINE
  5
38A
330
1F
100
AcDbEntity
  8
0
  6
Continuous
 62
     7
370
    25
100
AcDbLine
 10
25.4556189023
 20
22.6337114829
 30
0.0
 11
25.4556189023
 21
22.6285443204
 31
0.0
  0
ARC
  5
38B
330
1F
100
AcDbEntity
  8
0
  6
Continuous
 62
     7
370
    25
100
AcDbCircle
 10
24.4941989414
 20
22.6787245643
 30
0.0
 40
0.0450133784112568
100
AcDbArc
 50
265.1982589123
 51
274.8017410877
  0
ARC
  5
38C
330
1F
100
AcDbEntity
  8
0
  6
Continuous
 62
     7
370
    25
100
AcDbCircle
 10
24.5285065269
 20
22.7520994584
 30
0.0
 40
0.1242101063004362
100
AcDbArc
 50
252.1490626792
 51
257.0203132732
  0
LINE
  5
38D
330
1F
100
AcDbEntity
  8
0
  6
Continuous
 62
     7
370
    25
100
AcDbLine
 10
24.5482473816
 20
23.558844937
 30
0.0
 11
24.4973136262
 21
23.558844937
 31
0.0
  0
LINE
  5
38E
330
1F
100
AcDbEntity
  8
0
  6
Continuous
 62
     7
370
    25
100
AcDbLine
 10
24.566211264
 20
23.558844937
 30
0.0
 11
24.5482473816
 21
23.558844937
 31
0.0
  0
LINE
  5
38F
330
1F
100
AcDbEntity
  8
0
  6
Continuous
 62
     7
370
    25
100
AcDbLine
 10
24.5454213925
 20
23.5647504488
 30
0.0
 11
24.5603057522
 21
23.5647504488
 31
0.0
  0
LINE
  5
390
330
1F
100
AcDbEntity
  8
0
  6
Continuous
 62
     7
370
    25
100
AcDbLine
 10
24.5032191381
 20
23.5647504488
 30
0.0
 11
24.5454213925
 21
23.5647504488
 31
0.0
  0
SPLINE
  5
391
330
1F
100
AcDbEntity
  8
0
  6
Continuous
 62
     7
370
    25
100
AcDbSpline
210
0.0
220
0.0
230
1.0
 70
    24
 71
     3
 72
    14
 73
    10
 74
     0
 42
0.00000001
 43
0.0000000001
 40
0.0
 40
0.0
 40
0.0
 40
0.0
 40
0.1763492543684907
 40
0.3632617602743978
 40
0.4607178340449888
 40
0.5581949070199745
 40
0.7570095599556797
 40
0.9558242128913846
 40
1.0
 40
1.0
 40
1.0
 40
1.0
 10
25.47304918710493
 20
21.74585281102199
 30
0.0
 10
25.47151070173813
 20
21.74585281102199
 30
0.0
 10
25.46834157633125
 20
21.74585281102199
 30
0.0
 10
25.44636131911375
 20
21.74585281102199
 30
0.0
 10
25.42039989501016
 20
21.74585281102199
 30
0.0
 10
25.38767569271308
 20
21.74585281102199
 30
0.0
 10
25.33571474972302
 20
21.74585281102199
 30
0.0
 10
25.2795992436008
 20
21.74585281102199
 30
0.0
 10
25.24484025168226
 20
21.74585281102199
 30
0.0
 10
25.23852104905509
 20
21.74585281102199
 30
0.0
  0
SPLINE
  5
392
330
1F
100
AcDbEntity
  8
0
  6
Continuous
 62
     7
370
    25
100
AcDbSpline
210
0.0
220
0.0
230
1.0
 70
    24
 71
     3
 72
    14
 73
    10
 74
     0
 42
0.00000001
 43
0.0000000001
 40
0.0
 40
0.0
 40
0.0
 40
0.0
 40
0.044301596263763
 40
0.2430900797686708
 40
0.4418785632735787
 40
0.5393218108556568
 40
0.6367860548808566
 40
0.823673958003134
 40
1.0
 40
1.0
 40
1.0
 40
1.0
 10
24.75487765272931
 20
21.74585281102199
 30
0.0
 10
24.74853947165207
 20
21.74585281102199
 30
0.0
 10
24.71376083897072
 20
21.74585281102199
 30
0.0
 10
24.65762735146962
 20
21.74585281102199
 30
0.0
 10
24.60566902972225
 20
21.74585281102199
 30
0.0
 10
24.57294414976804
 20
21.74585281102199
 30
0.0
 10
24.5469821503994
 20
21.74585281102199
 30
0.0
 10
24.52500089269133
 20
21.74585281102199
 30
0.0
 10
24.52183176706598
 20
21.74585281102199
 30
0.0
 10
24.52029328159313
 20
21.74585281102199
 30
0.0
  0
SPLINE
  5
393
330
1F
100
AcDbEntity
  8
0
  6
Continuous
 62
     7
370
    25
100
AcDbSpline
210
0.0
220
0.0
230
1.0
 70
    24
 71
     3
 72
    25
 73
    21
 74
     0
 42
0.00000001
 43
0.0000000001
 40
0.0
 40
0.0
 40
0.0
 40
0.0
 40
0.0582483966321618
 40
0.1199858494981027
 40
0.152182702303448
 40
0.1843725319776452
 40
0.2500412800648145
 40
0.3157100281519837
 40
0.3800141505018993
 40
0.4417516033678404
 40
0.500000000000002
 40
0.5582483966321638
 40
0.6199858494981049
 40
0.6521827023039031
 40
0.6843725319776432
 40
0.7500412800648125
 40
0.8157100281519815
 40
0.8800141505018972
 40
0.941751603367838
 40
1.0
 40
1.0
 40
1.0
 40
1.0
 10
24.52619879340414
 20
21.11593155117948
 30
0.0
 10
24.52771797069292
 20
21.11593155117948
 30
0.0
 10
24.53084732339739
 20
21.11593155117948
 30
0.0
 10
24.55255928679122
 20
21.11593155117948
 30
0.0
 10
24.57819248265678
 20
21.11593155117948
 30
0.0
 10
24.61054079414503
 20
21.11593155117948
 30
0.0
 10
24.6616271478337
 20
21.11593155117948
 30
0.0
 10
24.73686659506573
 20
21.11593155117948
 30
0.0
 10
24.82118372158392
 20
21.11593155117948
 30
0.0
 10
24.90886715994004
 20
21.11593155117948
 30
0.0
 10
24.99667342783406
 20
21.11593155117948
 30
0.0
 10
25.08446627204007
 20
21.11593155117948
 30
0.0
 10
25.1569091309453
 20
21.11593155117948
 30
0.0
 10
25.21346127961786
 20
21.11593155117948
 30
0.0
 10
25.26879253814031
 20
21.11593155117948
 30
0.0
 10
25.33171102077727
 20
21.11593155117948
 30
0.0
 10
25.3928908566724
 20
21.11593155117948
 30
0.0
 10
25.43629856446989
 20
21.11593155117948
 30
0.0
 10
25.46247307327761
 20
21.11593155117948
 30
0.0
 10
25.46561728468905
 20
21.11593155117948
 30
0.0
 10
25.46714367529391
 20
21.11593155117948
 30
0.0
  0
LINE
  5
394
330
1F
100
AcDbEntity
  8
0
  6
Continuous
 62
     7
370
    25
100
AcDbLine
 10
25.2328917068
 20
21.747821315
 30
0.0
 11
24.7604507619
 21
21.747821315
 31
0.0
  0
SPLINE
  5
395
330
1F
100
AcDbEntity
  8
0
  6
Continuous
 62
     7
370
    25
100
AcDbSpline
210
0.0
220
0.0
230
1.0
 70
     8
 71
     3
 72
     9
 73
     5
 74
     0
 42
0.00000001
 43
0.0000000001
 40
0.0
 40
0.0
 40
0.0
 40
0.0
 40
0.6977710696027346
 40
1.0
 40
1.0
 40
1.0
 40
1.0
 10
25.07639564379784
 20
21.4230181653527
 30
0.0
 10
25.07590327707371
 20
21.43188306854763
 30
0.0
 10
25.07519764918861
 20
21.44458766978594
 30
0.0
 10
25.06885971899027
 20
21.45523369838298
 30
0.0
 10
25.06694421312548
 20
21.45845123621884
 30
0.0
  0
SPLINE
  5
396
330
1F
100
AcDbEntity
  8
0
  6
Continuous
 62
     7
370
    25
100
AcDbSpline
210
0.0
220
0.0
230
1.0
 70
     8
 71
     3
 72
    13
 73
     9
 74
     0
 42
0.00000001
 43
0.0000000001
 40
0.0
 40
0.0
 40
0.0
 40
0.0
 40
0.0789001564327756
 40
0.2947689494326644
 40
0.5034534129864284
 40
0.7044591661450062
 40
0.9081054716805043
 40
1.0
 40
1.0
 40
1.0
 40
1.0
 10
25.04803679599348
 20
21.4826299133099
 30
0.0
 10
25.04571061961453
 20
21.48499146280647
 30
0.0
 10
25.03702008465974
 20
21.49381415081635
 30
0.0
 10
25.01634832557287
 20
21.50154047
 30
0.0
 10
24.98957172166968
 20
21.50400333678877
 30
0.0
 10
24.96423587085406
 20
21.49705293555512
 30
0.0
 10
24.94556741522246
 20
21.48632924530604
 30
0.0
 10
24.93831086120311
 20
21.47622457786564
 30
0.0
 10
24.93605453134121
 20
21.47308266466148
 30
0.0
  0
SPLINE
  5
397
330
1F
100
AcDbEntity
  8
0
  6
Continuous
 62
     7
370
    25
100
AcDbSpline
210
0.0
220
0.0
230
1.0
 70
     8
 71
     3
 72
    11
 73
     7
 74
     0
 42
0.00000001
 43
0.0000000001
 40
0.0
 40
0.0
 40
0.0
 40
0.0
 40
0.1311439325310533
 40
0.4201886684778894
 40
0.7196254809083139
 40
1.0
 40
1.0
 40
1.0
 40
1.0
 10
25.02916939790348
 20
21.35132901308241
 30
0.0
 10
25.03289846371083
 20
21.35278591029942
 30
0.0
 10
25.04484649032566
 20
21.35745384796084
 30
0.0
 10
25.06049532674413
 20
21.373356494269
 30
0.0
 10
25.07391827248097
 20
21.39656823261166
 30
0.0
 10
25.07558815342692
 20
21.41439690383464
 30
0.0
 10
25.07639564379784
 20
21.4230181653527
 30
0.0
  0
LINE
  5
398
330
1F
100
AcDbEntity
  8
0
  6
Continuous
 62
     7
370
    25
100
AcDbLine
 10
24.7663562737
 20
21.2556953307
 30
0.0
 11
25.226986195
 21
21.2556953307
 31
0.0
  0
CIRCLE
  5
399
330
1F
100
AcDbEntity
  8
0
  6
Continuous
 62
     7
370
    25
100
AcDbCircle
 10
24.9966712343
 20
21.4230181654
 30
0.0
 40
0.0787401574803136
  0
CIRCLE
  5
39A
330
1F
100
AcDbEntity
  8
0
  6
Continuous
 62
     7
370
    25
100
AcDbCircle
 10
24.9966712343
 20
21.4230181654
 30
0.0
 40
0.0629921259842509
  0
LINE
  5
39B
330
1F
100
AcDbEntity
  8
0
  6
Continuous
 62
     7
370
    25
100
AcDbLine
 10
25.48879721860001
 20
22.7576638346
 30
0.0
 11
25.5872224155
 21
22.7576638346
 31
0.0
  0
LINE
  5
39C
330
1F
100
AcDbEntity
  8
0
  6
Continuous
 62
     7
370
    25
100
AcDbLine
 10
25.5872224155
 20
22.7576638346
 30
0.0
 11
25.5872224155
 21
22.6887661968
 31
0.0
  0
LINE
  5
39D
330
1F
100
AcDbEntity
  8
0
  6
Continuous
 62
     7
370
    25
100
AcDbLine
 10
25.48879721860001
 20
22.6887661968
 30
0.0
 11
25.5872224155
 21
22.6887661968
 31
0.0
  0
LINE
  5
39E
330
1F
100
AcDbEntity
  8
0
  6
Continuous
 62
     7
370
    25
100
AcDbLine
 10
25.48879721860001
 20
22.7576638346
 30
0.0
 11
25.48879721860001
 21
22.6887661968
 31
0.0
  0
LINE
  5
39F
330
1F
100
AcDbEntity
  8
0
  6
Continuous
 62
     7
370
    25
100
AcDbLine
 10
25.2427342265
 20
22.6887661968
 30
0.0
 11
25.48879721860001
 21
22.6887661968
 31
0.0
  0
LINE
  5
3A0
330
1F
100
AcDbEntity
  8
0
  6
Continuous
 62
     7
370
    25
100
AcDbLine
 10
25.1102377347
 20
22.7576638346
 30
0.0
 11
25.48879721860001
 21
22.7576638346
 31
0.0
  0
LINE
  5
3A1
330
1F
100
AcDbEntity
  8
0
  6
Continuous
 62
     7
370
    25
100
AcDbLine
 10
24.4061200532
 20
22.6887661968
 30
0.0
 11
24.7506082422
 21
22.6887661968
 31
0.0
  0
LINE
  5
3A2
330
1F
100
AcDbEntity
  8
0
  6
Continuous
 62
     7
370
    25
100
AcDbLine
 10
24.4061200532
 20
22.7576638346
 30
0.0
 11
24.4061200532
 21
22.6887661968
 31
0.0
  0
LINE
  5
3A3
330
1F
100
AcDbEntity
  8
0
  6
Continuous
 62
     7
370
    25
100
AcDbLine
 10
24.4061200532
 20
22.7576638346
 30
0.0
 11
24.8618287147
 21
22.7576638346
 31
0.0
  0
LINE
  5
3A4
330
1F
100
AcDbEntity
  8
0
  6
Continuous
 62
     7
370
    25
100
AcDbLine
 10
25.5773798958
 20
22.6789236772
 30
0.0
 11
25.48879721860001
 21
22.6789236772
 31
0.0
  0
LINE
  5
3A5
330
1F
100
AcDbEntity
  8
0
  6
Continuous
 62
     7
370
    25
100
AcDbLine
 10
25.48879721860001
 20
22.6789236772
 30
0.0
 11
25.48879721860001
 21
22.6887661968
 31
0.0
  0
LINE
  5
3A6
330
1F
100
AcDbEntity
  8
0
  6
Continuous
 62
     7
370
    25
100
AcDbLine
 10
25.5773798958
 20
22.6789236772
 30
0.0
 11
25.5872224155
 21
22.6887661968
 31
0.0
  0
LINE
  5
3A7
330
1F
100
AcDbEntity
  8
0
  6
Continuous
 62
     7
370
    25
100
AcDbLine
 10
25.48879721860001
 20
22.6789236772
 30
0.0
 11
25.2427342265
 21
22.6789236772
 31
0.0
  0
LINE
  5
3A8
330
1F
100
AcDbEntity
  8
0
  6
Continuous
 62
     7
370
    25
100
AcDbLine
 10
24.7506082422
 20
22.6789236772
 30
0.0
 11
24.4159625729
 21
22.6789236772
 31
0.0
  0
LINE
  5
3A9
330
1F
100
AcDbEntity
  8
0
  6
Continuous
 62
     7
370
    25
100
AcDbLine
 10
24.4159625729
 20
22.6789236772
 30
0.0
 11
24.4061200532
 21
22.6887661968
 31
0.0
  0
LINE
  5
3AA
330
1F
100
AcDbEntity
  8
0
  6
Continuous
 62
     7
370
    25
100
AcDbLine
 10
24.5006082422
 20
22.6198685591
 30
0.0
 11
24.740864395
 21
22.6198685591
 31
0.0
  0
LINE
  5
3AB
330
1F
100
AcDbEntity
  8
0
  6
Continuous
 62
     7
370
    25
100
AcDbLine
 10
25.2524780737
 20
22.6198685591
 30
0.0
 11
25.4927342265
 21
22.6198685591
 31
0.0
  0
LINE
  5
3AC
330
1F
100
AcDbEntity
  8
0
  6
Continuous
 62
     7
370
    25
100
AcDbLine
 10
24.5104507619
 20
22.590341
 30
0.0
 11
24.7506082422
 21
22.590341
 31
0.0
  0
LINE
  5
3AD
330
1F
100
AcDbEntity
  8
0
  6
Continuous
 62
     7
370
    25
100
AcDbLine
 10
25.2427342265
 20
22.590341
 30
0.0
 11
25.4828917068
 21
22.590341
 31
0.0
  0
LINE
  5
3AE
330
1F
100
AcDbEntity
  8
0
  6
Continuous
 62
     7
370
    25
100
AcDbLine
 10
24.5104507619
 20
21.7832543858
 30
0.0
 11
24.7506082422
 21
21.7832543858
 31
0.0
  0
LINE
  5
3AF
330
1F
100
AcDbEntity
  8
0
  6
Continuous
 62
     7
370
    25
100
AcDbLine
 10
25.2427342265
 20
21.7832543858
 30
0.0
 11
25.4828917068
 21
21.7832543858
 31
0.0
  0
LINE
  5
3B0
330
1F
100
AcDbEntity
  8
0
  6
Continuous
 62
     7
370
    25
100
AcDbLine
 10
25.4730491871
 20
21.7734118661
 30
0.0
 11
25.2328917068
 21
21.7734118661
 31
0.0
  0
LINE
  5
3B1
330
1F
100
AcDbEntity
  8
0
  6
Continuous
 62
     7
370
    25
100
AcDbLine
 10
24.7604507619
 20
21.7734118661
 30
0.0
 11
24.5202932816
 21
21.7734118661
 31
0.0
  0
LINE
  5
3B2
330
1F
100
AcDbEntity
  8
0
  6
Continuous
 62
     7
370
    25
100
AcDbLine
 10
25.6332766589
 20
22.6887661968
 30
0.0
 11
25.6332766589
 21
22.7576638346
 31
0.0
  0
LINE
  5
3B3
330
1F
100
AcDbEntity
  8
0
  6
Continuous
 62
     7
370
    25
100
AcDbLine
 10
25.5872224155
 20
22.6887661968
 30
0.0
 11
25.6332766589
 21
22.6887661968
 31
0.0
  0
LINE
  5
3B4
330
1F
100
AcDbEntity
  8
0
  6
Continuous
 62
     7
370
    25
100
AcDbLine
 10
25.5872224155
 20
22.7576638346
 30
0.0
 11
25.6332766589
 21
22.7576638346
 31
0.0
  0
LINE
  5
3B5
330
1F
100
AcDbEntity
  8
0
  6
Continuous
 62
     7
370
    25
100
AcDbLine
 10
24.3600658098
 20
22.6887661968
 30
0.0
 11
24.4061200532
 21
22.6887661968
 31
0.0
  0
LINE
  5
3B6
330
1F
100
AcDbEntity
  8
0
  6
Continuous
 62
     7
370
    25
100
AcDbLine
 10
24.3600658098
 20
22.6887661968
 30
0.0
 11
24.3600658098
 21
22.7576638346
 31
0.0
  0
LINE
  5
3B7
330
1F
100
AcDbEntity
  8
0
  6
Continuous
 62
     7
370
    25
100
AcDbLine
 10
24.3600658098
 20
22.7576638346
 30
0.0
 11
24.4061200532
 21
22.7576638346
 31
0.0
  0
LINE
  5
3B8
330
1F
100
AcDbEntity
  8
0
  6
Continuous
 62
     7
370
    25
100
AcDbLine
 10
25.6332766589
 20
22.6887661968
 30
0.0
 11
25.6257368514
 21
22.6789236772
 31
0.0
  0
LINE
  5
3B9
330
1F
100
AcDbEntity
  8
0
  6
Continuous
 62
     7
370
    25
100
AcDbLine
 10
25.6257368514
 20
22.6789236772
 30
0.0
 11
25.5773798958
 21
22.6789236772
 31
0.0
  0
LINE
  5
3BA
330
1F
100
AcDbEntity
  8
0
  6
Continuous
 62
     7
370
    25
100
AcDbLine
 10
24.3676056173
 20
22.6789236772
 30
0.0
 11
24.3600658098
 21
22.6887661968
 31
0.0
  0
LINE
  5
3BB
330
1F
100
AcDbEntity
  8
0
  6
Continuous
 62
     7
370
    25
100
AcDbLine
 10
24.4159625729
 20
22.6789236772
 30
0.0
 11
24.3676056173
 21
22.6789236772
 31
0.0
  0
LINE
  5
3BC
330
1F
100
AcDbEntity
  8
0
  6
Continuous
 62
     7
370
    25
100
AcDbLine
 10
24.1732416632
 20
22.6887661968
 30
0.0
 11
24.2092696595
 21
22.6887661968
 31
0.0
  0
LINE
  5
3BD
330
1F
100
AcDbEntity
  8
0
  6
Continuous
 62
     7
370
    25
100
AcDbLine
 10
24.288009817
 20
22.6887661968
 30
0.0
 11
24.3600658098
 21
22.6887661968
 31
0.0
  0
LINE
  5
3BE
330
1F
100
AcDbEntity
  8
0
  6
Continuous
 62
     7
370
    25
100
AcDbLine
 10
24.1732416632
 20
22.6887661968
 30
0.0
 11
24.1732416632
 21
22.8167189528
 31
0.0
  0
LINE
  5
3BF
330
1F
100
AcDbEntity
  8
0
  6
Continuous
 62
     7
370
    25
100
AcDbLine
 10
24.1732416632
 20
22.8167189528
 30
0.0
 11
24.2043547794
 21
22.8167189528
 31
0.0
  0
LINE
  5
3C0
330
1F
100
AcDbEntity
  8
0
  6
Continuous
 62
     7
370
    25
100
AcDbLine
 10
24.2043547794
 20
22.7576638346
 30
0.0
 11
24.2043547794
 21
22.8167189528
 31
0.0
  0
LINE
  5
3C1
330
1F
100
AcDbEntity
  8
0
  6
Continuous
 62
     7
370
    25
100
AcDbLine
 10
24.2043547794
 20
22.7576638346
 30
0.0
 11
24.2092696595
 21
22.7576638346
 31
0.0
  0
LINE
  5
3C2
330
1F
100
AcDbEntity
  8
0
  6
Continuous
 62
     7
370
    25
100
AcDbLine
 10
24.288009817
 20
22.7576638346
 30
0.0
 11
24.3600658098
 21
22.7576638346
 31
0.0
  0
LINE
  5
3C3
330
1F
100
AcDbEntity
  8
0
  6
Continuous
 62
     7
370
    25
100
AcDbLine
 10
25.8201008055
 20
22.6887661968
 30
0.0
 11
25.8201008055
 21
22.8167189528
 31
0.0
  0
LINE
  5
3C4
330
1F
100
AcDbEntity
  8
0
  6
Continuous
 62
     7
370
    25
100
AcDbLine
 10
25.6332766589
 20
22.6887661968
 30
0.0
 11
25.7053326517
 21
22.6887661968
 31
0.0
  0
LINE
  5
3C5
330
1F
100
AcDbEntity
  8
0
  6
Continuous
 62
     7
370
    25
100
AcDbLine
 10
25.7840728092
 20
22.6887661968
 30
0.0
 11
25.8201008055
 21
22.6887661968
 31
0.0
  0
LINE
  5
3C6
330
1F
100
AcDbEntity
  8
0
  6
Continuous
 62
     7
370
    25
100
AcDbLine
 10
25.7889876893
 20
22.8167189528
 30
0.0
 11
25.7889876893
 21
22.7576638346
 31
0.0
  0
LINE
  5
3C7
330
1F
100
AcDbEntity
  8
0
  6
Continuous
 62
     7
370
    25
100
AcDbLine
 10
25.7889876893
 20
22.8167189528
 30
0.0
 11
25.8201008055
 21
22.8167189528
 31
0.0
  0
LINE
  5
3C8
330
1F
100
AcDbEntity
  8
0
  6
Continuous
 62
     7
370
    25
100
AcDbLine
 10
25.6332766589
 20
22.7576638346
 30
0.0
 11
25.7053326517
 21
22.7576638346
 31
0.0
  0
LINE
  5
3C9
330
1F
100
AcDbEntity
  8
0
  6
Continuous
 62
     7
370
    25
100
AcDbLine
 10
25.7840728092
 20
22.7576638346
 30
0.0
 11
25.7889876893
 21
22.7576638346
 31
0.0
  0
LINE
  5
3CA
330
1F
100
AcDbEntity
  8
0
  6
Continuous
 62
     7
370
    25
100
AcDbLine
 10
25.8201008055
 20
22.6887661968
 30
0.0
 11
25.812560998
 21
22.6789236772
 31
0.0
  0
LINE
  5
3CB
330
1F
100
AcDbEntity
  8
0
  6
Continuous
 62
     7
370
    25
100
AcDbLine
 10
25.812560998
 20
22.6789236772
 30
0.0
 11
25.7840728092
 21
22.6789236772
 31
0.0
  0
LINE
  5
3CC
330
1F
100
AcDbEntity
  8
0
  6
Continuous
 62
     7
370
    25
100
AcDbLine
 10
25.7053326517
 20
22.6789236772
 30
0.0
 11
25.6257368514
 21
22.6789236772
 31
0.0
  0
LINE
  5
3CD
330
1F
100
AcDbEntity
  8
0
  6
Continuous
 62
     7
370
    25
100
AcDbLine
 10
24.1732416632
 20
22.6887661968
 30
0.0
 11
24.1807814707
 21
22.6789236772
 31
0.0
  0
LINE
  5
3CE
330
1F
100
AcDbEntity
  8
0
  6
Continuous
 62
     7
370
    25
100
AcDbLine
 10
24.3676056173
 20
22.6789236772
 30
0.0
 11
24.288009817
 21
22.6789236772
 31
0.0
  0
LINE
  5
3CF
330
1F
100
AcDbEntity
  8
0
  6
Continuous
 62
     7
370
    25
100
AcDbLine
 10
24.2092696595
 20
22.6789236772
 30
0.0
 11
24.1807814707
 21
22.6789236772
 31
0.0
  0
LINE
  5
3D0
330
1F
100
AcDbEntity
  8
0
  6
Continuous
 62
     7
370
    25
100
AcDbLine
 10
24.2043547794
 20
22.8167189528
 30
0.0
 11
24.2092696595
 21
22.8167189528
 31
0.0
  0
LINE
  5
3D1
330
1F
100
AcDbEntity
  8
0
  6
Continuous
 62
     7
370
    25
100
AcDbLine
 10
25.7840728092
 20
22.8167189528
 30
0.0
 11
25.7889876893
 21
22.8167189528
 31
0.0
  0
LINE
  5
3D2
330
1F
100
AcDbEntity
  8
0
  6
Continuous
 62
     7
370
    25
100
AcDbLine
 10
24.3685466781
 20
22.7576638346
 30
0.0
 11
24.3685466781
 21
22.8167189528
 31
0.0
  0
LINE
  5
3D3
330
1F
100
AcDbEntity
  8
0
  6
Continuous
 62
     7
370
    25
100
AcDbLine
 10
24.3685466781
 20
22.8167189528
 30
0.0
 11
24.288009817
 21
22.8167189528
 31
0.0
  0
LINE
  5
3D4
330
1F
100
AcDbEntity
  8
0
  6
Continuous
 62
     7
370
    25
100
AcDbLine
 10
25.6247957906
 20
22.8167189528
 30
0.0
 11
25.6247957906
 21
22.7576638346
 31
0.0
  0
LINE
  5
3D5
330
1F
100
AcDbEntity
  8
0
  6
Continuous
 62
     7
370
    25
100
AcDbLine
 10
25.7053326517
 20
22.8167189528
 30
0.0
 11
25.6247957906
 21
22.8167189528
 31
0.0
  0
LINE
  5
3D6
330
1F
100
AcDbEntity
  8
0
  6
Continuous
 62
     7
370
    25
100
AcDbLine
 10
25.8201008055
 20
22.6887661968
 30
0.0
 11
25.8431279273
 21
22.6887661968
 31
0.0
  0
LINE
  5
3D7
330
1F
100
AcDbEntity
  8
0
  6
Continuous
 62
     7
370
    25
100
AcDbLine
 10
25.8201008055
 20
22.8167189528
 30
0.0
 11
25.8431279273
 21
22.8167189528
 31
0.0
  0
LINE
  5
3D8
330
1F
100
AcDbEntity
  8
0
  6
Continuous
 62
     7
370
    25
100
AcDbLine
 10
24.1502145414
 20
22.6887661968
 30
0.0
 11
24.1732416632
 21
22.6887661968
 31
0.0
  0
LINE
  5
3D9
330
1F
100
AcDbEntity
  8
0
  6
Continuous
 62
     7
370
    25
100
AcDbLine
 10
24.1502145414
 20
22.8167189528
 30
0.0
 11
24.1732416632
 21
22.8167189528
 31
0.0
  0
LINE
  5
3DA
330
1F
100
AcDbEntity
  8
0
  6
Continuous
 62
     7
370
    25
100
AcDbLine
 10
25.8332854076
 20
22.6789236772
 30
0.0
 11
25.812560998
 21
22.6789236772
 31
0.0
  0
LINE
  5
3DB
330
1F
100
AcDbEntity
  8
0
  6
Continuous
 62
     7
370
    25
100
AcDbLine
 10
24.1807814707
 20
22.6789236772
 30
0.0
 11
24.1600570611
 21
22.6789236772
 31
0.0
  0
LINE
  5
3DC
330
1F
100
AcDbEntity
  8
0
  6
Continuous
 62
     7
370
    25
100
AcDbLine
 10
24.3685466781
 20
22.8167189528
 30
0.0
 11
24.3812404069
 21
22.8167189528
 31
0.0
  0
LINE
  5
3DD
330
1F
100
AcDbEntity
  8
0
  6
Continuous
 62
     7
370
    25
100
AcDbLine
 10
25.6121020618
 20
22.8167189528
 30
0.0
 11
25.6247957906
 21
22.8167189528
 31
0.0
  0
LINE
  5
3DE
330
1F
100
AcDbEntity
  8
0
  6
Continuous
 62
     7
370
    25
100
AcDbLine
 10
24.7506082422
 20
21.7832543858
 30
0.0
 11
25.2427342265
 21
21.7832543858
 31
0.0
  0
LINE
  5
3DF
330
1F
100
AcDbEntity
  8
0
  6
Continuous
 62
     7
370
    25
100
AcDbLine
 10
24.7506082422
 20
22.5923095039
 30
0.0
 11
25.2427342265
 21
22.5923095039
 31
0.0
  0
LINE
  5
3E0
330
1F
100
AcDbEntity
  8
0
  6
Continuous
 62
     7
370
    25
100
AcDbLine
 10
25.2328917068
 20
21.7734118661
 30
0.0
 11
24.7604507619
 21
21.7734118661
 31
0.0
  0
LINE
  5
3E1
330
1F
100
AcDbEntity
  8
0
  6
Continuous
 62
     7
370
    25
100
AcDbLine
 10
24.7506082422
 20
22.6946717087
 30
0.0
 11
25.2427342265
 21
22.6946717087
 31
0.0
  0
LINE
  5
3E2
330
1F
100
AcDbEntity
  8
0
  6
Continuous
 62
     7
370
    25
100
AcDbLine
 10
24.7506082422
 20
22.651364622
 30
0.0
 11
25.2427342265
 21
22.651364622
 31
0.0
  0
LINE
  5
3E3
330
1F
100
AcDbEntity
  8
0
  6
Continuous
 62
     7
370
    25
100
AcDbLine
 10
24.7604507619
 20
22.7045142283
 30
0.0
 11
25.2328917068
 21
22.7045142283
 31
0.0
  0
LINE
  5
3E4
330
1F
100
AcDbEntity
  8
0
  6
Continuous
 62
     7
370
    25
100
AcDbLine
 10
25.2328917068
 20
22.6415221024
 30
0.0
 11
24.7604507619
 21
22.6415221024
 31
0.0
  0
LINE
  5
3E5
330
1F
100
AcDbEntity
  8
0
  6
Continuous
 62
     7
370
    25
100
AcDbLine
 10
25.131513754
 20
22.7123882441
 30
0.0
 11
25.1257848714
 21
22.7123882441
 31
0.0
  0
LINE
  5
3E6
330
1F
100
AcDbEntity
  8
0
  6
Continuous
 62
     7
370
    25
100
AcDbLine
 10
25.1102377347
 20
22.8068764331
 30
0.0
 11
24.8618287147
 21
22.8068764331
 31
0.0
  0
LINE
  5
3E7
330
1F
100
AcDbEntity
  8
0
  6
Continuous
 62
     7
370
    25
100
AcDbLine
 10
25.1102377347
 20
22.747821315
 30
0.0
 11
25.1102377347
 21
22.8068764331
 31
0.0
  0
SPLINE
  5
3E8
330
1F
100
AcDbEntity
  8
0
  6
Continuous
 62
     7
370
    25
100
AcDbSpline
210
0.0
220
0.0
230
1.0
 70
     8
 71
     3
 72
    13
 73
     9
 74
     0
 42
0.00000001
 43
0.0000000001
 40
0.0
 40
0.0
 40
0.0
 40
0.0
 40
0.2550636887844859
 40
0.5062096320808153
 40
0.6312227570789575
 40
0.7545056098379867
 40
0.8776423490195501
 40
1.0
 40
1.0
 40
1.0
 40
1.0
 10
25.12578487143845
 20
22.71238824409286
 30
0.0
 10
25.12422652830526
 20
22.71289329409603
 30
0.0
 10
25.12113377798918
 20
22.71389563659917
 30
0.0
 10
25.11646856169817
 20
22.72072244491138
 30
0.0
 10
25.11343274411018
 20
22.72790889489072
 30
0.0
 10
25.11165111939707
 20
22.73410595748877
 30
0.0
 10
25.11046471877804
 20
22.74082259439329
 30
0.0
 10
25.11031323581264
 20
22.74549334905828
 30
0.0
 10
25.11023773469916
 20
22.747821314959
 30
0.0
  0
LINE
  5
3E9
330
1F
100
AcDbEntity
  8
0
  6
Continuous
 62
     7
370
    25
100
AcDbLine
 10
24.8677342265
 20
22.8127819449
 30
0.0
 11
25.1082631031
 21
22.8127819449
 31
0.0
  0
LINE
  5
3EA
330
1F
100
AcDbEntity
  8
0
  6
Continuous
 62
     7
370
    25
100
AcDbLine
 10
25.1102377347
 20
22.8068764331
 30
0.0
 11
25.1082631031
 21
22.8127819449
 31
0.0
  0
SPLINE
  5
3EB
330
1F
100
AcDbEntity
  8
0
  6
Continuous
 62
     7
370
    25
100
AcDbSpline
210
0.0
220
0.0
230
1.0
 70
     8
 71
     3
 72
     9
 73
     5
 74
     0
 42
0.00000001
 43
0.0000000001
 40
0.0
 40
0.0
 40
0.0
 40
0.0
 40
0.161162621043025
 40
1.0
 40
1.0
 40
1.0
 40
1.0
 10
25.11814365923402
 20
22.71916762356465
 30
0.0
 10
25.11826673734229
 20
22.71905507501563
 30
0.0
 10
25.11903042626392
 20
22.71835672109033
 30
0.0
 10
25.11962853969352
 20
22.71832247924428
 30
0.0
 10
25.12013025959512
 20
22.71829375590388
 30
0.0
  0
LINE
  5
3EC
330
1F
100
AcDbEntity
  8
0
  6
Continuous
 62
     7
370
    25
100
AcDbLine
 10
25.1257848714
 20
22.7123882441
 30
0.0
 11
25.1201302596
 21
22.7182937559
 31
0.0
  0
LINE
  5
3ED
330
1F
100
AcDbEntity
  8
0
  6
Continuous
 62
     7
370
    25
100
AcDbLine
 10
25.1201302596
 20
22.7182937559
 30
0.0
 11
25.1256082422
 21
22.7182937559
 31
0.0
  0
LINE
  5
3EE
330
1F
100
AcDbEntity
  8
0
  6
Continuous
 62
     7
370
    25
100
AcDbLine
 10
25.3460682065
 20
22.1316795827
 30
0.0
 11
25.3460682065
 21
22.2005772205
 31
0.0
  0
LINE
  5
3EF
330
1F
100
AcDbEntity
  8
0
  6
Continuous
 62
     7
370
    25
100
AcDbLine
 10
25.3941283127
 20
22.2005772205
 30
0.0
 11
25.3941283127
 21
22.1316795827
 31
0.0
  0
LINE
  5
3F0
330
1F
100
AcDbEntity
  8
0
  6
Continuous
 62
     7
370
    25
100
AcDbLine
 10
24.599214156
 20
22.1316795827
 30
0.0
 11
24.599214156
 21
22.2005772205
 31
0.0
  0
LINE
  5
3F1
330
1F
100
AcDbEntity
  8
0
  6
Continuous
 62
     7
370
    25
100
AcDbLine
 10
24.6472742622
 20
22.2005772205
 30
0.0
 11
24.6472742622
 21
22.1316795827
 31
0.0
  0
LINE
  5
3F2
330
1F
100
AcDbEntity
  8
0
  6
Continuous
 62
     7
370
    25
100
AcDbLine
 10
26.5753599454
 20
22.1316795827
 30
0.0
 11
26.5753599454
 21
22.2005772205
 31
0.0
  0
LINE
  5
3F3
330
1F
100
AcDbEntity
  8
0
  6
Continuous
 62
     7
370
    25
100
AcDbLine
 10
23.4179825233
 20
22.2005772205
 30
0.0
 11
23.4179825233
 21
22.1316795827
 31
0.0
  0
LINE
  5
3F4
330
1F
100
AcDbEntity
  8
0
  6
Continuous
 62
     7
370
    25
100
AcDbLine
 10
25.3609987182
 20
22.121837063
 30
0.0
 11
25.3609987182
 21
22.1247898189
 31
0.0
  0
LINE
  5
3F5
330
1F
100
AcDbEntity
  8
0
  6
Continuous
 62
     7
370
    25
100
AcDbLine
 10
24.6323437505
 20
22.121837063
 30
0.0
 11
24.6323437505
 21
22.1247898189
 31
0.0
  0
LINE
  5
3F6
330
1F
100
AcDbEntity
  8
0
  6
Continuous
 62
     7
370
    25
100
AcDbLine
 10
25.407165288
 20
22.1219229541
 30
0.0
 11
25.4071654637
 21
22.121837063
 31
0.0
  0
LINE
  5
3F7
330
1F
100
AcDbEntity
  8
0
  6
Continuous
 62
     7
370
    25
100
AcDbLine
 10
24.5861771807
 20
22.1219229541
 30
0.0
 11
24.586177005
 21
22.121837063
 31
0.0
  0
LINE
  5
3F8
330
1F
100
AcDbEntity
  8
0
  6
Continuous
 62
     7
370
    25
100
AcDbLine
 10
26.6989465191
 20
22.121837063
 30
0.0
 11
26.6989457904
 21
22.1219229541
 31
0.0
  0
LINE
  5
3F9
330
1F
100
AcDbEntity
  8
0
  6
Continuous
 62
     7
370
    25
100
AcDbLine
 10
23.2943959496
 20
22.121837063
 30
0.0
 11
23.2943966783
 21
22.1219229541
 31
0.0
  0
LINE
  5
3FA
330
1F
100
AcDbEntity
  8
0
  6
Continuous
 62
     7
370
    25
100
AcDbLine
 10
23.1856476123
 20
21.9604197402
 30
0.0
 11
26.8076948564
 21
21.9604197402
 31
0.0
  0
LINE
  5
3FB
330
1F
100
AcDbEntity
  8
0
  6
Continuous
 62
     7
370
    25
100
AcDbLine
 10
25.3926823858
 20
22.6606459816
 30
0.0
 11
25.5304776613
 21
22.6606459816
 31
0.0
  0
LINE
  5
3FC
330
1F
100
AcDbEntity
  8
0
  6
Continuous
 62
     7
370
    25
100
AcDbLine
 10
25.4098700694
 20
22.6364743427
 30
0.0
 11
25.5132899777
 21
22.6364743427
 31
0.0
  0
LINE
  5
3FD
330
1F
100
AcDbEntity
  8
0
  6
Continuous
 62
     7
370
    25
100
AcDbLine
 10
24.4628648073
 20
22.6606459816
 30
0.0
 11
24.49838118340001
 21
22.6606459816
 31
0.0
  0
LINE
  5
3FE
330
1F
100
AcDbEntity
  8
0
  6
Continuous
 62
     7
370
    25
100
AcDbLine
 10
24.480052491
 20
22.6364743427
 30
0.0
 11
24.5006082422
 21
22.6364743427
 31
0.0
  0
LINE
  5
3FF
330
1F
100
AcDbEntity
  8
0
  6
Continuous
 62
     7
370
    25
100
AcDbLine
 10
25.4828917068
 20
21.7360102913
 30
0.0
 11
25.2427342265
 21
21.7360102913
 31
0.0
  0
LINE
  5
400
330
1F
100
AcDbEntity
  8
0
  6
Continuous
 62
     7
370
    25
100
AcDbLine
 10
24.7506082422
 20
21.7360102913
 30
0.0
 11
24.5104507619
 21
21.7360102913
 31
0.0
  0
LINE
  5
401
330
1F
100
AcDbEntity
  8
0
  6
Continuous
 62
     7
370
    25
100
AcDbLine
 10
24.5104507619
 20
21.1316795827
 30
0.0
 11
25.4828917068
 21
21.1316795827
 31
0.0
  0
LINE
  5
402
330
1F
100
AcDbEntity
  8
0
  6
Continuous
 62
     7
370
    25
100
AcDbLine
 10
25.2427342265
 20
21.7379787953
 30
0.0
 11
24.7506082422
 21
21.7379787953
 31
0.0
  0
LINE
  5
403
330
1F
100
AcDbEntity
  8
0
  6
Continuous
 62
     7
370
    25
100
AcDbLine
 10
24.7506082422
 20
21.2714433622
 30
0.0
 11
25.2427342265
 21
21.2714433622
 31
0.0
  0
LINE
  5
404
330
1F
100
AcDbEntity
  8
0
  6
Continuous
 62
     7
370
    25
100
AcDbLine
 10
25.3952877922
 20
22.6493961181
 30
0.0
 11
25.2407657225
 21
22.6493961181
 31
0.0
  0
LINE
  5
405
330
1F
100
AcDbEntity
  8
0
  6
Continuous
 62
     7
370
    25
100
AcDbLine
 10
24.7525767462
 20
22.6493961181
 30
0.0
 11
24.5006082422
 21
22.6493961181
 31
0.0
  0
LINE
  5
406
330
1F
100
AcDbEntity
  8
0
  6
Continuous
 62
     7
370
    25
100
AcDbLine
 10
25.3411594233
 20
21.7537268268
 30
0.0
 11
25.1836791084
 21
21.7537268268
 31
0.0
  0
LINE
  5
407
330
1F
100
AcDbEntity
  8
0
  6
Continuous
 62
     7
370
    25
100
AcDbLine
 10
24.80966336030001
 20
21.7537268268
 30
0.0
 11
24.6521830454
 21
21.7537268268
 31
0.0
  0
ENDSEC
  0
SECTION
  2
OBJECTS
  0
DICTIONARY
  5
C
330
0
100
AcDbDictionary
281
     1
  3
ACAD_CIP_PREVIOUS_PRODUCT_INFO
350
448
  3
ACAD_COLOR
350
43D
  3
ACAD_DETAILVIEWSTYLE
350
444
  3
ACAD_GROUP
350
D
  3
ACAD_LAYOUT
350
1A
  3
ACAD_MATERIAL
350
40B
  3
ACAD_MLEADERSTYLE
350
440
  3
ACAD_MLINESTYLE
350
17
  3
ACAD_PLOTSETTINGS
350
19
  3
ACAD_PLOTSTYLENAME
350
E
  3
ACAD_SCALELIST
350
47
  3
ACAD_SECTIONVIEWSTYLE
350
442
  3
ACAD_TABLESTYLE
350
43E
  3
ACAD_VISUALSTYLE
350
424
  3
ACDB_RECOMPOSE_DATA
350
463
  3
AcDbVariableDictionary
350
456
  0
DICTIONARY
  5
450
330
2
100
AcDbDictionary
280
     1
281
     1
  3
ACAD_LAYERSTATES
360
451
  0
DICTIONARY
  5
449
330
10
100
AcDbDictionary
280
     1
281
     1
  3
ADSK_XREC_LAYER_RECONCILED
360
44A
  0
DICTIONARY
  5
44B
330
63
100
AcDbDictionary
280
     1
281
     1
  3
ADSK_XREC_LAYER_RECONCILED
360
44C
  0
XRECORD
  5
448
102
{ACAD_REACTORS
330
C
102
}
330
C
100
AcDbXrecord
280
     1
300
ACD
300
2022
300

  0
DICTIONARY
  5
43D
102
{ACAD_REACTORS
330
C
102
}
330
C
100
AcDbDictionary
281
     1
  0
DICTIONARY
  5
444
102
{ACAD_REACTORS
330
C
102
}
330
C
100
AcDbDictionary
281
     1
  3
Imperial24
350
445
  0
DICTIONARY
  5
D
102
{ACAD_REACTORS
330
C
102
}
330
C
100
AcDbDictionary
281
     1
  0
DICTIONARY
  5
1A
102
{ACAD_REACTORS
330
C
102
}
330
C
100
AcDbDictionary
281
     1
  3
Layout1
350
1E
  3
Layout2
350
26
  3
Model
350
22
  0
DICTIONARY
  5
40B
102
{ACAD_REACTORS
330
C
102
}
330
C
100
AcDbDictionary
281
     1
  3
ByBlock
350
414
  3
ByLayer
350
40C
  3
Global
350
41C
  0
DICTIONARY
  5
440
102
{ACAD_REACTORS
330
C
102
}
330
C
100
AcDbDictionary
281
     1
  3
Standard
350
441
  0
DICTIONARY
  5
17
102
{ACAD_REACTORS
330
C
102
}
330
C
100
AcDbDictionary
281
     1
  3
Standard
350
18
  0
DICTIONARY
  5
19
102
{ACAD_REACTORS
330
C
102
}
330
C
100
AcDbDictionary
281
     1
  0
ACDBDICTIONARYWDFLT
  5
E
102
{ACAD_REACTORS
330
C
102
}
330
C
100
AcDbDictionary
281
     1
  3
Normal
350
F
100
AcDbDictionaryWithDefault
340
F
  0
DICTIONARY
  5
47
102
{ACAD_REACTORS
330
C
102
}
330
C
100
AcDbDictionary
281
     1
  3
A0
350
48
  3
A1
350
49
  3
A2
350
4A
  3
A3
350
4B
  3
A4
350
4C
  3
A5
350
4D
  3
A6
350
4E
  3
A7
350
4F
  3
A8
350
50
  3
A9
350
51
  3
B1
350
52
  3
B2
350
53
  3
B3
350
54
  3
B4
350
55
  3
B5
350
56
  3
B6
350
57
  3
B7
350
58
  0
DICTIONARY
  5
442
102
{ACAD_REACTORS
330
C
102
}
330
C
100
AcDbDictionary
281
     1
  3
Imperial24
350
443
  0
DICTIONARY
  5
43E
102
{ACAD_REACTORS
330
C
102
}
330
C
100
AcDbDictionary
281
     1
  3
Standard
350
43F
  0
DICTIONARY
  5
424
102
{ACAD_REACTORS
330
C
102
}
330
C
100
AcDbDictionary
281
     1
  3
2dWireframe
350
42A
  3
Basic
350
429
  3
Brighten
350
430
  3
ColorChange
350
434
  3
Conceptual
350
42D
  3
Dim
350
42F
  3
EdgeColorOff
350
43C
  3
Facepattern
350
433
  3
Flat
350
425
  3
FlatWithEdges
350
426
  3
Gouraud
350
427
  3
GouraudWithEdges
350
428
  3
Hidden
350
42C
  3
JitterOff
350
43A
  3
Linepattern
350
432
  3
OverhangOff
350
43B
  3
Realistic
350
42E
  3
Shaded
350
439
  3
Shaded with edges
350
438
  3
Shades of Gray
350
435
  3
Sketchy
350
436
  3
Thicken
350
431
  3
Wireframe
350
42B
  3
X-Ray
350
437
  0
XRECORD
  5
463
102
{ACAD_REACTORS
330
C
102
}
330
C
100
AcDbXrecord
280
     1
 90
        1
330
43F
  0
DICTIONARY
  5
456
102
{ACAD_REACTORS
330
C
102
}
330
C
100
AcDbDictionary
281
     1
  3
CANNOSCALE
350
45C
  3
CMLEADERSTYLE
350
458
  3
CTABLESTYLE
350
457
  3
CVIEWDETAILSTYLE
350
459
  3
CVIEWSECTIONSTYLE
350
45A
  3
LAYEREVAL
350
45E
  3
LAYERNOTIFY
350
45F
  3
LIGHTINGUNITS
350
45D
  3
MSLTSCALE
350
45B
  0
DICTIONARY
  5
451
102
{ACAD_REACTORS
330
450
102
}
330
450
100
AcDbDictionary
281
     1
  0
XRECORD
  5
44A
102
{ACAD_REACTORS
330
449
102
}
330
449
100
AcDbXrecord
280
     1
290
     1
  0
XRECORD
  5
44C
102
{ACAD_REACTORS
330
44B
102
}
330
44B
100
AcDbXrecord
280
     1
290
     1
  0
ACDBDETAILVIEWSTYLE
  5
445
102
{ACAD_REACTORS
330
444
102
}
330
444
100
AcDbModelDocViewStyle
 70
     0
  3
Imperial24
290
     0
300
Imperial24
 90
        0
100
AcDbDetailViewStyle
 70
     0
 71
     0
 90
        3
 71
     1
340
11
 62
   256
 40
0.24
340
0
 62
   256
 40
0.24
300

 40
0.36
280
     3
 71
     2
340
16
 90
       25
 62
   256
 71
     3
340
11
 62
   256
 40
0.24
 90
        1
 40
0.75
 90
        1
300
%<\AcVar ViewType \f "%tc1">% %<\AcVar ViewDetailId>%\PSCALE %<\AcVar ViewScale \f "%sn">%
 71
     4
340
16
 90
       25
 62
   256
340
16
 90
       25
 62
   256
280
     0
  0
LAYOUT
  5
1E
102
{ACAD_REACTORS
330
1A
102
}
330
1A
100
AcDbPlotSettings
  1

  2
none_device
  4

  6

 40
0.0
 41
0.0
 42
0.0
 43
0.0
 44
0.0
 45
0.0
 46
0.0
 47
0.0
 48
0.0
 49
0.0
140
0.0
141
0.0
142
1.0
143
1.0
 70
   688
 72
     0
 73
     0
 74
     5
  7

 75
    16
147
1.0
 76
     0
 77
     2
 78
   300
148
0.0
149
0.0
100
AcDbLayout
  1
Layout1
 70
     1
 71
     1
 10
0.0
 20
0.0
 11
12.0
 21
9.0
 12
0.0
 22
0.0
 32
0.0
 14
1.000000000000000E+20
 24
1.000000000000000E+20
 34
1.000000000000000E+20
 15
-1.000000000000000E+20
 25
-1.000000000000000E+20
 35
-1.000000000000000E+20
146
0.0
 13
0.0
 23
0.0
 33
0.0
 16
1.0
 26
0.0
 36
0.0
 17
0.0
 27
1.0
 37
0.0
 76
     0
330
1B
  0
LAYOUT
  5
26
102
{ACAD_REACTORS
330
1A
102
}
330
1A
100
AcDbPlotSettings
  1

  2
none_device
  4

  6

 40
0.0
 41
0.0
 42
0.0
 43
0.0
 44
0.0
 45
0.0
 46
0.0
 47
0.0
 48
0.0
 49
0.0
140
0.0
141
0.0
142
1.0
143
1.0
 70
   688
 72
     0
 73
     0
 74
     5
  7

 75
    16
147
1.0
 76
     0
 77
     2
 78
   300
148
0.0
149
0.0
100
AcDbLayout
  1
Layout2
 70
     1
 71
     2
 10
0.0
 20
0.0
 11
0.0
 21
0.0
 12
0.0
 22
0.0
 32
0.0
 14
0.0
 24
0.0
 34
0.0
 15
0.0
 25
0.0
 35
0.0
146
0.0
 13
0.0
 23
0.0
 33
0.0
 16
1.0
 26
0.0
 36
0.0
 17
0.0
 27
1.0
 37
0.0
 76
     0
330
23
  0
LAYOUT
  5
22
102
{ACAD_REACTORS
330
1A
102
}
330
1A
100
AcDbPlotSettings
  1

  2
none_device
  4
Letter_(8.50_x_11.00_Inches)
  6

 40
6.349999999999999
 41
6.349999999999999
 42
6.350005079999999
 43
6.350005079999999
 44
215.9
 45
279.4
 46
0.0
 47
0.0
 48
0.0
 49
0.0
140
0.0
141
0.0
142
1.0
143
1.0
 70
  1712
 72
     0
 73
     0
 74
     0
  7

 75
     0
147
1.0
 76
     0
 77
     2
 78
   300
148
0.0
149
0.0
100
AcDbLayout
  1
Model
 70
     1
 71
     0
 10
0.0
 20
0.0
 11
46.81102362199999
 21
33.1102362205
 12
0.0
 22
0.0
 32
0.0
 14
0.0
 24
0.0
 34
0.0
 15
46.81102362199999
 25
33.1102362205
 35
0.0
146
0.0
 13
0.0
 23
0.0
 33
0.0
 16
1.0
 26
0.0
 36
0.0
 17
0.0
 27
1.0
 37
0.0
 76
     0
330
1F
331
29
  0
MATERIAL
  5
414
102
{ACAD_XDICTIONARY
360
415
102
}
102
{ACAD_REACTORS
330
40B
102
}
330
40B
100
AcDbMaterial
  1
ByBlock
 72
     0
 43
0.0208333333333333
 43
0.0
 43
0.0
 43
0.0
 43
0.0
 43
0.0208333333333333
 43
0.0
 43
0.0
 43
0.0
 43
0.0
 43
1.0
 43
0.0
 43
0.0
 43
0.0
 43
0.0
 43
1.0
 77
     0
 47
0.0208333333333333
 47
0.0
 47
0.0
 47
0.0
 47
0.0
 47
0.0208333333333333
 47
0.0
 47
0.0
 47
0.0
 47
0.0
 47
1.0
 47
0.0
 47
0.0
 47
0.0
 47
0.0
 47
1.0
171
     0
 49
0.0208333333333333
 49
0.0
 49
0.0
 49
0.0
 49
0.0
 49
0.0208333333333333
 49
0.0
 49
0.0
 49
0.0
 49
0.0
 49
1.0
 49
0.0
 49
0.0
 49
0.0
 49
0.0
 49
1.0
175
     0
142
0.0208333333333333
142
0.0
142
0.0
142
0.0
142
0.0
142
0.0208333333333333
142
0.0
142
0.0
142
0.0
142
0.0
142
1.0
142
0.0
142
0.0
142
0.0
142
0.0
142
1.0
179
     0
144
0.0208333333333333
144
0.0
144
0.0
144
0.0
144
0.0
144
0.0208333333333333
144
0.0
144
0.0
144
0.0
144
0.0
144
1.0
144
0.0
144
0.0
144
0.0
144
0.0
144
1.0
147
0.0208333333333333
147
0.0
147
0.0
147
0.0
147
0.0
147
0.0208333333333333
147
0.0
147
0.0
147
0.0
147
0.0
147
1.0
147
0.0
147
0.0
147
0.0
147
0.0
147
1.0
  0
MATERIAL
  5
40C
102
{ACAD_XDICTIONARY
360
40D
102
}
102
{ACAD_REACTORS
330
40B
102
}
330
40B
100
AcDbMaterial
  1
ByLayer
 72
     0
 43
0.0208333333333333
 43
0.0
 43
0.0
 43
0.0
 43
0.0
 43
0.0208333333333333
 43
0.0
 43
0.0
 43
0.0
 43
0.0
 43
1.0
 43
0.0
 43
0.0
 43
0.0
 43
0.0
 43
1.0
 77
     0
 47
0.0208333333333333
 47
0.0
 47
0.0
 47
0.0
 47
0.0
 47
0.0208333333333333
 47
0.0
 47
0.0
 47
0.0
 47
0.0
 47
1.0
 47
0.0
 47
0.0
 47
0.0
 47
0.0
 47
1.0
171
     0
 49
0.0208333333333333
 49
0.0
 49
0.0
 49
0.0
 49
0.0
 49
0.0208333333333333
 49
0.0
 49
0.0
 49
0.0
 49
0.0
 49
1.0
 49
0.0
 49
0.0
 49
0.0
 49
0.0
 49
1.0
175
     0
142
0.0208333333333333
142
0.0
142
0.0
142
0.0
142
0.0
142
0.0208333333333333
142
0.0
142
0.0
142
0.0
142
0.0
142
1.0
142
0.0
142
0.0
142
0.0
142
0.0
142
1.0
179
     0
144
0.0208333333333333
144
0.0
144
0.0
144
0.0
144
0.0
144
0.0208333333333333
144
0.0
144
0.0
144
0.0
144
0.0
144
1.0
144
0.0
144
0.0
144
0.0
144
0.0
144
1.0
147
0.0208333333333333
147
0.0
147
0.0
147
0.0
147
0.0
147
0.0208333333333333
147
0.0
147
0.0
147
0.0
147
0.0
147
1.0
147
0.0
147
0.0
147
0.0
147
0.0
147
1.0
  0
MATERIAL
  5
41C
102
{ACAD_XDICTIONARY
360
41D
102
}
102
{ACAD_REACTORS
330
40B
102
}
330
40B
100
AcDbMaterial
  1
Global
 72
     0
 43
0.0208333333333333
 43
0.0
 43
0.0
 43
0.0
 43
0.0
 43
0.0208333333333333
 43
0.0
 43
0.0
 43
0.0
 43
0.0
 43
1.0
 43
0.0
 43
0.0
 43
0.0
 43
0.0
 43
1.0
 77
     0
 47
0.0208333333333333
 47
0.0
 47
0.0
 47
0.0
 47
0.0
 47
0.0208333333333333
 47
0.0
 47
0.0
 47
0.0
 47
0.0
 47
1.0
 47
0.0
 47
0.0
 47
0.0
 47
0.0
 47
1.0
171
     0
 49
0.0208333333333333
 49
0.0
 49
0.0
 49
0.0
 49
0.0
 49
0.0208333333333333
 49
0.0
 49
0.0
 49
0.0
 49
0.0
 49
1.0
 49
0.0
 49
0.0
 49
0.0
 49
0.0
 49
1.0
175
     0
142
0.0208333333333333
142
0.0
142
0.0
142
0.0
142
0.0
142
0.0208333333333333
142
0.0
142
0.0
142
0.0
142
0.0
142
1.0
142
0.0
142
0.0
142
0.0
142
0.0
142
1.0
179
     0
144
0.0208333333333333
144
0.0
144
0.0
144
0.0
144
0.0
144
0.0208333333333333
144
0.0
144
0.0
144
0.0
144
0.0
144
1.0
144
0.0
144
0.0
144
0.0
144
0.0
144
1.0
147
0.0208333333333333
147
0.0
147
0.0
147
0.0
147
0.0
147
0.0208333333333333
147
0.0
147
0.0
147
0.0
147
0.0
147
1.0
147
0.0
147
0.0
147
0.0
147
0.0
147
1.0
  0
MLEADERSTYLE
  5
441
102
{ACAD_REACTORS
330
440
102
}
330
440
100
AcDbMLeaderStyle
179
     2
170
     2
171
     1
172
     0
 90
        2
 40
0.0
 41
0.0
173
     1
 91
-1056964608
340
14
 92
       -2
290
     1
 42
0.09
291
     1
 43
0.36
  3
Standard
 44
0.18
300

342
11
174
     1
178
     6
175
     1
176
     0
 93
-1056964608
 45
0.18
292
     0
297
     0
 46
0.18
 94
-1056964608
 47
1.0
 49
1.0
140
1.0
293
     1
141
0.0
294
     1
177
     0
142
1.0
295
     0
296
     0
143
0.125
271
     0
272
     9
273
     9
298
     0
  0
MLINESTYLE
  5
18
102
{ACAD_REACTORS
330
17
102
}
330
17
100
AcDbMlineStyle
  2
STANDARD
 70
     0
  3

 62
   256
 51
90.0
 52
90.0
 71
     2
 49
0.5
 62
   256
  6
BYLAYER
 49
-0.5
 62
   256
  6
BYLAYER
  0
ACDBPLACEHOLDER
  5
F
102
{ACAD_REACTORS
330
E
102
}
330
E
  0
SCALE
  5
48
102
{ACAD_REACTORS
330
47
102
}
330
47
100
AcDbScale
 70
     0
300
1:1
140
1.0
141
1.0
290
     1
  0
SCALE
  5
49
102
{ACAD_REACTORS
330
47
102
}
330
47
100
AcDbScale
 70
     0
300
1/128" = 1'-0"
140
0.0078125
141
12.0
290
     0
  0
SCALE
  5
4A
102
{ACAD_REACTORS
330
47
102
}
330
47
100
AcDbScale
 70
     0
300
1/64" = 1'-0"
140
0.015625
141
12.0
290
     0
  0
SCALE
  5
4B
102
{ACAD_REACTORS
330
47
102
}
330
47
100
AcDbScale
 70
     0
300
1/32" = 1'-0"
140
0.03125
141
12.0
290
     0
  0
SCALE
  5
4C
102
{ACAD_REACTORS
330
47
102
}
330
47
100
AcDbScale
 70
     0
300
1/16" = 1'-0"
140
0.0625
141
12.0
290
     0
  0
SCALE
  5
4D
102
{ACAD_REACTORS
330
47
102
}
330
47
100
AcDbScale
 70
     0
300
3/32" = 1'-0"
140
0.09375
141
12.0
290
     0
  0
SCALE
  5
4E
102
{ACAD_REACTORS
330
47
102
}
330
47
100
AcDbScale
 70
     0
300
1/8" = 1'-0"
140
0.125
141
12.0
290
     0
  0
SCALE
  5
4F
102
{ACAD_REACTORS
330
47
102
}
330
47
100
AcDbScale
 70
     0
300
3/16" = 1'-0"
140
0.1875
141
12.0
290
     0
  0
SCALE
  5
50
102
{ACAD_REACTORS
330
47
102
}
330
47
100
AcDbScale
 70
     0
300
1/4" = 1'-0"
140
0.25
141
12.0
290
     0
  0
SCALE
  5
51
102
{ACAD_REACTORS
330
47
102
}
330
47
100
AcDbScale
 70
     0
300
3/8" = 1'-0"
140
0.375
141
12.0
290
     0
  0
SCALE
  5
52
102
{ACAD_REACTORS
330
47
102
}
330
47
100
AcDbScale
 70
     0
300
1/2" = 1'-0"
140
0.5
141
12.0
290
     0
  0
SCALE
  5
53
102
{ACAD_REACTORS
330
47
102
}
330
47
100
AcDbScale
 70
     0
300
3/4" = 1'-0"
140
0.75
141
12.0
290
     0
  0
SCALE
  5
54
102
{ACAD_REACTORS
330
47
102
}
330
47
100
AcDbScale
 70
     0
300
1" = 1'-0"
140
1.0
141
12.0
290
     0
  0
SCALE
  5
55
102
{ACAD_REACTORS
330
47
102
}
330
47
100
AcDbScale
 70
     0
300
1-1/2" = 1'-0"
140
1.5
141
12.0
290
     0
  0
SCALE
  5
56
102
{ACAD_REACTORS
330
47
102
}
330
47
100
AcDbScale
 70
     0
300
3" = 1'-0"
140
3.0
141
12.0
290
     0
  0
SCALE
  5
57
102
{ACAD_REACTORS
330
47
102
}
330
47
100
AcDbScale
 70
     0
300
6" = 1'-0"
140
6.0
141
12.0
290
     0
  0
SCALE
  5
58
102
{ACAD_REACTORS
330
47
102
}
330
47
100
AcDbScale
 70
     0
300
1'-0" = 1'-0"
140
12.0
141
12.0
290
     0
  0
ACDBSECTIONVIEWSTYLE
  5
443
102
{ACAD_REACTORS
330
442
102
}
330
442
100
AcDbModelDocViewStyle
 70
     0
  3
Imperial24
290
     0
300
Imperial24
 90
        0
100
AcDbSectionViewStyle
 70
     0
 71
     0
 90
       78
 71
     1
340
11
 62
   256
 40
0.24
340
0
340
0
 62
   256
 40
0.24
300
I, O, Q, S, X, Z
 40
0.48
 90
        3
 40
0.18
 90
        1
 71
     2
340
16
 90
       25
 62
   256
340
16
 90
       50
 62
   256
 40
0.24
 40
0.0
 40
0.24
 71
     3
340
11
 62
   256
 40
0.24
 90
        1
 40
0.75
 90
        1
300
%<\AcVar ViewType \f "%tc1">% %<\AcVar ViewSectionStartId>%-%<\AcVar ViewSectionEndId>%\PSCALE %<\AcVar ViewScale \f "%sn">%
 71
     4
 62
   256
 62
   257
300
ANSI31
 40
1.0
 90
        0
290
     0
290
     0
 90
        6
 40
0.0
 40
1.570796326794896
 40
0.2617993877991494
 40
1.308996938995747
 40
-0.2617993877991494
 40
1.832595714594046
  0
TABLESTYLE
  5
43F
102
{ACAD_XDICTIONARY
360
461
102
}
102
{ACAD_REACTORS
330
43E
102
}
330
43E
100
AcDbTableStyle
280
     0
  3
Standard
 70
     0
 71
     0
 40
0.06
 41
0.06
280
     0
281
     0
  7
Standard
140
0.18
170
     2
 62
     0
 63
     7
283
     0
 90
      512
 91
        0
  1

274
    -2
284
     1
 64
     0
275
    -2
285
     1
 65
     0
276
    -2
286
     1
 66
     0
277
    -2
287
     1
 67
     0
278
    -2
288
     1
 68
     0
279
    -2
289
     1
 69
     0
  7
Standard
140
0.25
170
     5
 62
     0
 63
     7
283
     0
 90
      512
 91
        0
  1

274
    -2
284
     1
 64
     0
275
    -2
285
     1
 65
     0
276
    -2
286
     1
 66
     0
277
    -2
287
     1
 67
     0
278
    -2
288
     1
 68
     0
279
    -2
289
     1
 69
     0
  7
Standard
140
0.18
170
     5
 62
     0
 63
     7
283
     0
 90
      512
 91
        0
  1

274
    -2
284
     1
 64
     0
275
    -2
285
     1
 65
     0
276
    -2
286
     1
 66
     0
277
    -2
287
     1
 67
     0
278
    -2
288
     1
 68
     0
279
    -2
289
     1
 69
     0
  0
VISUALSTYLE
  5
42A
102
{ACAD_REACTORS
330
424
102
}
330
424
100
AcDbVisualStyle
  2
2dWireframe
 70
     4
177
     3
291
     0
 70
    58
 90
        0
176
     1
 90
        2
176
     1
 90
        0
176
     1
 90
        0
176
     1
 40
0.6
176
     1
 40
30.0
176
     1
 62
     7
420
 16777215
176
     1
 90
        1
176
     1
 90
        4
176
     1
 62
     7
176
     1
 62
   257
176
     1
 90
        1
176
     1
 90
        1
176
     1
 40
1.0
176
     1
 90
        0
176
     1
 62
   257
176
     1
 40
1.0
176
     1
 90
        1
176
     1
 90
        6
176
     1
 90
        2
176
     1
 62
     7
176
     1
 90
        5
176
     1
 90
        0
176
     1
 90
        0
176
     1
290
     0
176
     1
 90
        1
176
     1
 40
0.0
176
     1
 90
        0
176
     1
290
     1
176
     1
290
     1
176
     1
290
     0
176
     1
290
     0
176
     1
290
     0
176
     1
290
     0
176
     1
290
     0
176
     1
290
     0
176
     1
290
     0
176
     1
 90
       50
176
     1
 40
0.0
176
     1
 40
1.0
176
     1
 90
        0
176
     1
 62
    18
420
        0
176
     1
 90
       50
176
     1
 90
        3
176
     1
 62
     5
420
      255
176
     1
290
     0
176
     1
 90
       50
176
     1
 90
       50
176
     1
 90
       50
176
     1
290
     0
176
     1
 90
       50
176
     1
 62
   256
176
     0
 40
1.0
176
     0
 90
        2
176
     1
  1
strokes_ogs.tif
176
     1
290
     0
176
     1
 40
1.0
176
     1
 40
1.0
176
     1
  0
VISUALSTYLE
  5
429
102
{ACAD_REACTORS
330
424
102
}
330
424
100
AcDbVisualStyle
  2
Basic
 70
     7
177
     3
291
     1
 70
    58
 90
        1
176
     1
 90
        0
176
     1
 90
        1
176
     1
 90
        0
176
     1
 40
0.6
176
     1
 40
30.0
176
     1
 62
     7
420
 16777215
176
     1
 90
        0
176
     1
 90
        4
176
     1
 62
     7
176
     1
 62
   257
176
     1
 90
        1
176
     1
 90
        1
176
     1
 40
1.0
176
     1
 90
        8
176
     1
 62
     7
176
     1
 40
1.0
176
     1
 90
        1
176
     1
 90
        6
176
     1
 90
        2
176
     1
 62
     7
176
     1
 90
        5
176
     1
 90
        0
176
     1
 90
        0
176
     1
290
     0
176
     1
 90
        1
176
     1
 40
0.0
176
     1
 90
        0
176
     1
290
     0
176
     1
290
     1
176
     1
290
     1
176
     1
290
     0
176
     1
290
     0
176
     1
290
     0
176
     1
290
     0
176
     1
290
     0
176
     1
290
     0
176
     1
 90
       50
176
     1
 40
0.0
176
     1
 40
1.0
176
     1
 90
        0
176
     1
 62
    18
420
        0
176
     1
 90
       50
176
     1
 90
        3
176
     1
 62
     5
420
      255
176
     1
290
     0
176
     1
 90
       50
176
     1
 90
       50
176
     1
 90
       50
176
     1
290
     0
176
     1
 90
       50
176
     1
 62
   256
176
     0
 40
1.0
176
     0
 90
        2
176
     1
  1
strokes_ogs.tif
176
     1
290
     0
176
     1
 40
1.0
176
     1
 40
1.0
176
     1
  0
VISUALSTYLE
  5
430
102
{ACAD_REACTORS
330
424
102
}
330
424
100
AcDbVisualStyle
  2
Brighten
 70
    12
177
     3
291
     1
 70
    58
 90
        2
176
     1
 90
        2
176
     1
 90
        0
176
     1
 90
        0
176
     1
 40
0.6
176
     1
 40
30.0
176
     1
 62
     7
420
 16777215
176
     1
 90
        1
176
     1
 90
        4
176
     1
 62
     7
176
     1
 62
   257
176
     1
 90
        1
176
     1
 90
        1
176
     1
 40
1.0
176
     1
 90
        8
176
     1
 62
     7
176
     1
 40
1.0
176
     1
 90
        1
176
     1
 90
        6
176
     1
 90
        2
176
     1
 62
     7
176
     1
 90
        5
176
     1
 90
        0
176
     1
 90
        0
176
     1
290
     0
176
     1
 90
        1
176
     1
 40
50.0
176
     1
 90
        0
176
     1
290
     0
176
     1
290
     1
176
     1
290
     1
176
     1
290
     0
176
     1
290
     0
176
     1
290
     0
176
     1
290
     0
176
     1
290
     0
176
     1
290
     0
176
     1
 90
       50
176
     1
 40
0.0
176
     1
 40
1.0
176
     1
 90
        0
176
     1
 62
    18
420
        0
176
     1
 90
       50
176
     1
 90
        3
176
     1
 62
     5
420
      255
176
     1
290
     0
176
     1
 90
       50
176
     1
 90
       50
176
     1
 90
       50
176
     1
290
     0
176
     1
 90
       50
176
     1
 62
   256
176
     0
 40
1.0
176
     0
 90
        2
176
     1
  1
strokes_ogs.tif
176
     1
290
     0
176
     1
 40
1.0
176
     1
 40
1.0
176
     1
  0
VISUALSTYLE
  5
434
102
{ACAD_REACTORS
330
424
102
}
330
424
100
AcDbVisualStyle
  2
ColorChange
 70
    16
177
     3
291
     1
 70
    58
 90
        2
176
     1
 90
        2
176
     1
 90
        3
176
     1
 90
        0
176
     1
 40
0.6
176
     1
 40
30.0
176
     1
 62
     8
420
  8421504
176
     1
 90
        1
176
     1
 90
        4
176
     1
 62
     7
176
     1
 62
   257
176
     1
 90
        1
176
     1
 90
        1
176
     1
 40
1.0
176
     1
 90
        8
176
     1
 62
     8
420
  8421504
176
     1
 40
1.0
176
     1
 90
        1
176
     1
 90
        6
176
     1
 90
        2
176
     1
 62
     7
176
     1
 90
        5
176
     1
 90
        0
176
     1
 90
        0
176
     1
290
     0
176
     1
 90
        1
176
     1
 40
0.0
176
     1
 90
        0
176
     1
290
     0
176
     1
290
     1
176
     1
290
     1
176
     1
290
     0
176
     1
290
     0
176
     1
290
     0
176
     1
290
     0
176
     1
290
     0
176
     1
290
     0
176
     1
 90
       50
176
     1
 40
0.0
176
     1
 40
1.0
176
     1
 90
        0
176
     1
 62
    18
420
        0
176
     1
 90
       50
176
     1
 90
        3
176
     1
 62
     5
420
      255
176
     1
290
     0
176
     1
 90
       50
176
     1
 90
       50
176
     1
 90
       50
176
     1
290
     0
176
     1
 90
       50
176
     1
 62
   256
176
     0
 40
1.0
176
     0
 90
        2
176
     1
  1
strokes_ogs.tif
176
     1
290
     0
176
     1
 40
1.0
176
     1
 40
1.0
176
     1
  0
VISUALSTYLE
  5
42D
102
{ACAD_REACTORS
330
424
102
}
330
424
100
AcDbVisualStyle
  2
Conceptual
 70
     9
177
     3
291
     0
 70
    58
 90
        3
176
     1
 90
        2
176
     1
 90
        0
176
     1
 90
        0
176
     1
 40
0.6
176
     1
 40
30.0
176
     1
 62
     7
420
 16777215
176
     1
 90
        2
176
     1
 90
        2
176
     1
 62
     7
176
     1
 62
   257
176
     1
 90
        1
176
     1
 90
        1
176
     1
 40
179.0
176
     1
 90
        8
176
     1
 62
     7
176
     1
 40
1.0
176
     1
 90
        1
176
     1
 90
        6
176
     1
 90
        2
176
     1
 62
     7
176
     1
 90
        3
176
     1
 90
        0
176
     1
 90
        0
176
     1
290
     0
176
     1
 90
        1
176
     1
 40
0.0
176
     1
 90
        0
176
     1
290
     0
176
     1
290
     1
176
     1
290
     1
176
     1
290
     0
176
     1
290
     0
176
     1
290
     0
176
     1
290
     0
176
     1
290
     0
176
     1
290
     0
176
     1
 90
       50
176
     1
 40
0.0
176
     1
 40
1.0
176
     1
 90
        0
176
     1
 62
    18
420
        0
176
     1
 90
       50
176
     1
 90
        3
176
     1
 62
     5
420
      255
176
     1
290
     0
176
     1
 90
       50
176
     1
 90
       50
176
     1
 90
       50
176
     1
290
     0
176
     1
 90
       50
176
     1
 62
   256
176
     0
 40
1.0
176
     0
 90
        2
176
     1
  1
strokes_ogs.tif
176
     1
290
     0
176
     1
 40
1.0
176
     1
 40
1.0
176
     1
  0
VISUALSTYLE
  5
42F
102
{ACAD_REACTORS
330
424
102
}
330
424
100
AcDbVisualStyle
  2
Dim
 70
    11
177
     3
291
     1
 70
    58
 90
        2
176
     1
 90
        2
176
     1
 90
        0
176
     1
 90
        0
176
     1
 40
0.6
176
     1
 40
30.0
176
     1
 62
     7
420
 16777215
176
     1
 90
        1
176
     1
 90
        4
176
     1
 62
     7
176
     1
 62
   257
176
     1
 90
        1
176
     1
 90
        1
176
     1
 40
1.0
176
     1
 90
        8
176
     1
 62
     7
176
     1
 40
1.0
176
     1
 90
        1
176
     1
 90
        6
176
     1
 90
        2
176
     1
 62
     7
176
     1
 90
        5
176
     1
 90
        0
176
     1
 90
        0
176
     1
290
     0
176
     1
 90
        1
176
     1
 40
-50.0
176
     1
 90
        0
176
     1
290
     0
176
     1
290
     1
176
     1
290
     1
176
     1
290
     0
176
     1
290
     0
176
     1
290
     0
176
     1
290
     0
176
     1
290
     0
176
     1
290
     0
176
     1
 90
       50
176
     1
 40
0.0
176
     1
 40
1.0
176
     1
 90
        0
176
     1
 62
    18
420
        0
176
     1
 90
       50
176
     1
 90
        3
176
     1
 62
     5
420
      255
176
     1
290
     0
176
     1
 90
       50
176
     1
 90
       50
176
     1
 90
       50
176
     1
290
     0
176
     1
 90
       50
176
     1
 62
   256
176
     0
 40
1.0
176
     0
 90
        2
176
     1
  1
strokes_ogs.tif
176
     1
290
     0
176
     1
 40
1.0
176
     1
 40
1.0
176
     1
  0
VISUALSTYLE
  5
43C
102
{ACAD_REACTORS
330
424
102
}
330
424
100
AcDbVisualStyle
  2
EdgeColorOff
 70
    22
177
     3
291
     1
 70
    58
 90
        2
176
     0
 90
        2
176
     0
 90
        0
176
     0
 90
        0
176
     0
 40
0.6
176
     0
 40
30.0
176
     0
 62
     7
420
 16777215
176
     0
 90
        1
176
     0
 90
        4
176
     0
 62
     7
176
     0
 62
   257
176
     0
 90
        1
176
     0
 90
        1
176
     0
 40
1.0
176
     0
 90
        8
176
     2
 62
     7
176
     0
 40
1.0
176
     0
 90
        1
176
     0
 90
        6
176
     0
 90
        2
176
     0
 62
     7
176
     0
 90
        5
176
     0
 90
        0
176
     0
 90
        0
176
     0
290
     0
176
     0
 90
        1
176
     0
 40
0.0
176
     0
 90
        0
176
     0
290
     0
176
     1
290
     1
176
     1
290
     1
176
     1
290
     0
176
     1
290
     0
176
     1
290
     0
176
     1
290
     0
176
     1
290
     0
176
     1
290
     0
176
     1
 90
       50
176
     0
 40
0.0
176
     0
 40
1.0
176
     0
 90
        0
176
     0
 62
    18
420
        0
176
     0
 90
       50
176
     0
 90
        3
176
     0
 62
     5
420
      255
176
     0
290
     0
176
     1
 90
       50
176
     0
 90
       50
176
     0
 90
       50
176
     0
290
     0
176
     1
 90
       50
176
     0
 62
   256
176
     0
 40
1.0
176
     0
 90
        2
176
     0
  1
strokes_ogs.tif
176
     0
290
     0
176
     1
 40
1.0
176
     0
 40
1.0
176
     0
  0
VISUALSTYLE
  5
433
102
{ACAD_REACTORS
330
424
102
}
330
424
100
AcDbVisualStyle
  2
Facepattern
 70
    15
177
     3
291
     1
 70
    58
 90
        2
176
     1
 90
        2
176
     1
 90
        0
176
     1
 90
        0
176
     1
 40
0.6
176
     1
 40
30.0
176
     1
 62
     7
420
 16777215
176
     1
 90
        1
176
     1
 90
        4
176
     1
 62
     7
176
     1
 62
   257
176
     1
 90
        1
176
     1
 90
        1
176
     1
 40
1.0
176
     1
 90
        8
176
     1
 62
     7
176
     1
 40
1.0
176
     1
 90
        1
176
     1
 90
        6
176
     1
 90
        2
176
     1
 62
     7
176
     1
 90
        5
176
     1
 90
        0
176
     1
 90
        0
176
     1
290
     0
176
     1
 90
        1
176
     1
 40
0.0
176
     1
 90
        0
176
     1
290
     0
176
     1
290
     1
176
     1
290
     1
176
     1
290
     0
176
     1
290
     0
176
     1
290
     0
176
     1
290
     0
176
     1
290
     0
176
     1
290
     0
176
     1
 90
       50
176
     1
 40
0.0
176
     1
 40
1.0
176
     1
 90
        0
176
     1
 62
    18
420
        0
176
     1
 90
       50
176
     1
 90
        3
176
     1
 62
     5
420
      255
176
     1
290
     0
176
     1
 90
       50
176
     1
 90
       50
176
     1
 90
       50
176
     1
290
     0
176
     1
 90
       50
176
     1
 62
   256
176
     0
 40
1.0
176
     0
 90
        2
176
     1
  1
strokes_ogs.tif
176
     1
290
     0
176
     1
 40
1.0
176
     1
 40
1.0
176
     1
  0
VISUALSTYLE
  5
425
102
{ACAD_REACTORS
330
424
102
}
330
424
100
AcDbVisualStyle
  2
Flat
 70
     0
177
     3
291
     1
 70
    58
 90
        2
176
     1
 90
        1
176
     1
 90
        1
176
     1
 90
        2
176
     1
 40
0.6
176
     1
 40
30.0
176
     1
 62
     7
420
 16777215
176
     1
 90
        0
176
     1
 90
        0
176
     1
 62
     7
176
     1
 62
   257
176
     1
 90
        1
176
     1
 90
        1
176
     1
 40
1.0
176
     1
 90
        8
176
     1
 62
     7
176
     1
 40
1.0
176
     1
 90
        1
176
     1
 90
        6
176
     1
 90
        2
176
     1
 62
     7
176
     1
 90
        5
176
     1
 90
        0
176
     1
 90
        0
176
     1
290
     0
176
     1
 90
       13
176
     1
 40
0.0
176
     1
 90
        0
176
     1
290
     0
176
     1
290
     1
176
     1
290
     1
176
     1
290
     0
176
     1
290
     0
176
     1
290
     0
176
     1
290
     0
176
     1
290
     0
176
     1
290
     0
176
     1
 90
       50
176
     1
 40
0.0
176
     1
 40
1.0
176
     1
 90
        0
176
     1
 62
    18
420
        0
176
     1
 90
       50
176
     1
 90
        3
176
     1
 62
     5
420
      255
176
     1
290
     0
176
     1
 90
       50
176
     1
 90
       50
176
     1
 90
       50
176
     1
290
     0
176
     1
 90
       50
176
     1
 62
   256
176
     0
 40
1.0
176
     0
 90
        2
176
     1
  1
strokes_ogs.tif
176
     1
290
     0
176
     1
 40
1.0
176
     1
 40
1.0
176
     1
  0
VISUALSTYLE
  5
426
102
{ACAD_REACTORS
330
424
102
}
330
424
100
AcDbVisualStyle
  2
FlatWithEdges
 70
     1
177
     3
291
     1
 70
    58
 90
        2
176
     1
 90
        1
176
     1
 90
        1
176
     1
 90
        2
176
     1
 40
0.6
176
     1
 40
30.0
176
     1
 62
     7
420
 16777215
176
     1
 90
        1
176
     1
 90
        0
176
     1
 62
     7
176
     1
 62
   257
176
     1
 90
        1
176
     1
 90
        1
176
     1
 40
1.0
176
     1
 90
        0
176
     1
 62
   257
176
     1
 40
1.0
176
     1
 90
        1
176
     1
 90
        6
176
     1
 90
        2
176
     1
 62
     7
176
     1
 90
        5
176
     1
 90
        0
176
     1
 90
        0
176
     1
290
     0
176
     1
 90
       13
176
     1
 40
0.0
176
     1
 90
        0
176
     1
290
     0
176
     1
290
     1
176
     1
290
     1
176
     1
290
     0
176
     1
290
     0
176
     1
290
     0
176
     1
290
     0
176
     1
290
     0
176
     1
290
     0
176
     1
 90
       50
176
     1
 40
0.0
176
     1
 40
1.0
176
     1
 90
        0
176
     1
 62
    18
420
        0
176
     1
 90
       50
176
     1
 90
        3
176
     1
 62
     5
420
      255
176
     1
290
     0
176
     1
 90
       50
176
     1
 90
       50
176
     1
 90
       50
176
     1
290
     0
176
     1
 90
       50
176
     1
 62
   256
176
     0
 40
1.0
176
     0
 90
        2
176
     1
  1
strokes_ogs.tif
176
     1
290
     0
176
     1
 40
1.0
176
     1
 40
1.0
176
     1
  0
VISUALSTYLE
  5
427
102
{ACAD_REACTORS
330
424
102
}
330
424
100
AcDbVisualStyle
  2
Gouraud
 70
     2
177
     3
291
     1
 70
    58
 90
        2
176
     1
 90
        2
176
     1
 90
        1
176
     1
 90
        2
176
     1
 40
0.6
176
     1
 40
30.0
176
     1
 62
     7
420
 16777215
176
     1
 90
        0
176
     1
 90
        0
176
     1
 62
     7
176
     1
 62
   257
176
     1
 90
        1
176
     1
 90
        1
176
     1
 40
1.0
176
     1
 90
        0
176
     1
 62
     7
176
     1
 40
1.0
176
     1
 90
        1
176
     1
 90
        6
176
     1
 90
        2
176
     1
 62
     7
176
     1
 90
        5
176
     1
 90
        0
176
     1
 90
        0
176
     1
290
     0
176
     1
 90
       13
176
     1
 40
0.0
176
     1
 90
        0
176
     1
290
     0
176
     1
290
     1
176
     1
290
     1
176
     1
290
     0
176
     1
290
     0
176
     1
290
     0
176
     1
290
     0
176
     1
290
     0
176
     1
290
     0
176
     1
 90
       50
176
     1
 40
0.0
176
     1
 40
1.0
176
     1
 90
        0
176
     1
 62
    18
420
        0
176
     1
 90
       50
176
     1
 90
        3
176
     1
 62
     5
420
      255
176
     1
290
     0
176
     1
 90
       50
176
     1
 90
       50
176
     1
 90
       50
176
     1
290
     0
176
     1
 90
       50
176
     1
 62
   256
176
     0
 40
1.0
176
     0
 90
        2
176
     1
  1
strokes_ogs.tif
176
     1
290
     0
176
     1
 40
1.0
176
     1
 40
1.0
176
     1
  0
VISUALSTYLE
  5
428
102
{ACAD_REACTORS
330
424
102
}
330
424
100
AcDbVisualStyle
  2
GouraudWithEdges
 70
     3
177
     3
291
     1
 70
    58
 90
        2
176
     1
 90
        2
176
     1
 90
        1
176
     1
 90
        2
176
     1
 40
0.6
176
     1
 40
30.0
176
     1
 62
     7
420
 16777215
176
     1
 90
        1
176
     1
 90
        0
176
     1
 62
     7
176
     1
 62
   257
176
     1
 90
        1
176
     1
 90
        1
176
     1
 40
1.0
176
     1
 90
        0
176
     1
 62
   257
176
     1
 40
1.0
176
     1
 90
        1
176
     1
 90
        6
176
     1
 90
        2
176
     1
 62
     7
176
     1
 90
        5
176
     1
 90
        0
176
     1
 90
        0
176
     1
290
     0
176
     1
 90
       13
176
     1
 40
0.0
176
     1
 90
        0
176
     1
290
     0
176
     1
290
     1
176
     1
290
     1
176
     1
290
     0
176
     1
290
     0
176
     1
290
     0
176
     1
290
     0
176
     1
290
     0
176
     1
290
     0
176
     1
 90
       50
176
     1
 40
0.0
176
     1
 40
1.0
176
     1
 90
        0
176
     1
 62
    18
420
        0
176
     1
 90
       50
176
     1
 90
        3
176
     1
 62
     5
420
      255
176
     1
290
     0
176
     1
 90
       50
176
     1
 90
       50
176
     1
 90
       50
176
     1
290
     0
176
     1
 90
       50
176
     1
 62
   256
176
     0
 40
1.0
176
     0
 90
        2
176
     1
  1
strokes_ogs.tif
176
     1
290
     0
176
     1
 40
1.0
176
     1
 40
1.0
176
     1
  0
VISUALSTYLE
  5
42C
102
{ACAD_REACTORS
330
424
102
}
330
424
100
AcDbVisualStyle
  2
Hidden
 70
     6
177
     3
291
     0
 70
    58
 90
        1
176
     1
 90
        2
176
     1
 90
        2
176
     1
 90
        0
176
     1
 40
0.6
176
     1
 40
30.0
176
     1
 62
     7
420
 16777215
176
     1
 90
        2
176
     1
 90
        2
176
     1
 62
     7
176
     1
 62
   257
176
     1
 90
        2
176
     1
 90
        1
176
     1
 40
40.0
176
     1
 90
        0
176
     1
 62
   257
176
     1
 40
1.0
176
     1
 90
        1
176
     1
 90
        6
176
     1
 90
        2
176
     1
 62
     7
176
     1
 90
        3
176
     1
 90
        0
176
     1
 90
        0
176
     1
290
     0
176
     1
 90
        1
176
     1
 40
0.0
176
     1
 90
        0
176
     1
290
     0
176
     1
290
     1
176
     1
290
     1
176
     1
290
     0
176
     1
290
     0
176
     1
290
     0
176
     1
290
     0
176
     1
290
     0
176
     1
290
     0
176
     1
 90
       50
176
     1
 40
0.0
176
     1
 40
1.0
176
     1
 90
        0
176
     1
 62
    18
420
        0
176
     1
 90
       50
176
     1
 90
        3
176
     1
 62
     5
420
      255
176
     1
290
     0
176
     1
 90
       50
176
     1
 90
       50
176
     1
 90
       50
176
     1
290
     0
176
     1
 90
       50
176
     1
 62
   256
176
     0
 40
1.0
176
     0
 90
        2
176
     1
  1
strokes_ogs.tif
176
     1
290
     0
176
     1
 40
1.0
176
     1
 40
1.0
176
     1
  0
VISUALSTYLE
  5
43A
102
{ACAD_REACTORS
330
424
102
}
330
424
100
AcDbVisualStyle
  2
JitterOff
 70
    20
177
     3
291
     1
 70
    58
 90
        2
176
     0
 90
        2
176
     0
 90
        0
176
     0
 90
        0
176
     0
 40
0.6
176
     0
 40
30.0
176
     0
 62
     7
420
 16777215
176
     0
 90
        1
176
     0
 90
        4
176
     0
 62
     7
176
     0
 62
   257
176
     0
 90
        1
176
     0
 90
        1
176
     0
 40
1.0
176
     0
 90
       10
176
     2
 62
     7
176
     0
 40
1.0
176
     0
 90
        1
176
     0
 90
        6
176
     0
 90
        2
176
     0
 62
     7
176
     0
 90
        5
176
     0
 90
        0
176
     0
 90
        0
176
     0
290
     0
176
     0
 90
        1
176
     0
 40
0.0
176
     0
 90
        0
176
     0
290
     0
176
     1
290
     1
176
     1
290
     1
176
     1
290
     0
176
     1
290
     0
176
     1
290
     0
176
     1
290
     0
176
     1
290
     0
176
     1
290
     0
176
     1
 90
       50
176
     0
 40
0.0
176
     0
 40
1.0
176
     0
 90
        0
176
     0
 62
    18
420
        0
176
     0
 90
       50
176
     0
 90
        3
176
     0
 62
     5
420
      255
176
     0
290
     0
176
     1
 90
       50
176
     0
 90
       50
176
     0
 90
       50
176
     0
290
     0
176
     1
 90
       50
176
     0
 62
   256
176
     0
 40
1.0
176
     0
 90
        2
176
     0
  1
strokes_ogs.tif
176
     0
290
     0
176
     1
 40
1.0
176
     0
 40
1.0
176
     0
  0
VISUALSTYLE
  5
432
102
{ACAD_REACTORS
330
424
102
}
330
424
100
AcDbVisualStyle
  2
Linepattern
 70
    14
177
     3
291
     1
 70
    58
 90
        2
176
     1
 90
        2
176
     1
 90
        0
176
     1
 90
        0
176
     1
 40
0.6
176
     1
 40
30.0
176
     1
 62
     7
420
 16777215
176
     1
 90
        1
176
     1
 90
        4
176
     1
 62
     7
176
     1
 62
   257
176
     1
 90
        7
176
     1
 90
        7
176
     1
 40
1.0
176
     1
 90
        8
176
     1
 62
     7
176
     1
 40
1.0
176
     1
 90
        1
176
     1
 90
        6
176
     1
 90
        2
176
     1
 62
     7
176
     1
 90
        5
176
     1
 90
        0
176
     1
 90
        0
176
     1
290
     0
176
     1
 90
        1
176
     1
 40
0.0
176
     1
 90
        0
176
     1
290
     0
176
     1
290
     1
176
     1
290
     1
176
     1
290
     0
176
     1
290
     0
176
     1
290
     0
176
     1
290
     0
176
     1
290
     0
176
     1
290
     0
176
     1
 90
       50
176
     1
 40
0.0
176
     1
 40
1.0
176
     1
 90
        0
176
     1
 62
    18
420
        0
176
     1
 90
       50
176
     1
 90
        3
176
     1
 62
     5
420
      255
176
     1
290
     0
176
     1
 90
       50
176
     1
 90
       50
176
     1
 90
       50
176
     1
290
     0
176
     1
 90
       50
176
     1
 62
   256
176
     0
 40
1.0
176
     0
 90
        2
176
     1
  1
strokes_ogs.tif
176
     1
290
     0
176
     1
 40
1.0
176
     1
 40
1.0
176
     1
  0
VISUALSTYLE
  5
43B
102
{ACAD_REACTORS
330
424
102
}
330
424
100
AcDbVisualStyle
  2
OverhangOff
 70
    21
177
     3
291
     1
 70
    58
 90
        2
176
     0
 90
        2
176
     0
 90
        0
176
     0
 90
        0
176
     0
 40
0.6
176
     0
 40
30.0
176
     0
 62
     7
420
 16777215
176
     0
 90
        1
176
     0
 90
        4
176
     0
 62
     7
176
     0
 62
   257
176
     0
 90
        1
176
     0
 90
        1
176
     0
 40
1.0
176
     0
 90
        9
176
     2
 62
     7
176
     0
 40
1.0
176
     0
 90
        1
176
     0
 90
        6
176
     0
 90
        2
176
     0
 62
     7
176
     0
 90
        5
176
     0
 90
        0
176
     0
 90
        0
176
     0
290
     0
176
     0
 90
        1
176
     0
 40
0.0
176
     0
 90
        0
176
     0
290
     0
176
     1
290
     1
176
     1
290
     1
176
     1
290
     0
176
     1
290
     0
176
     1
290
     0
176
     1
290
     0
176
     1
290
     0
176
     1
290
     0
176
     1
 90
       50
176
     0
 40
0.0
176
     0
 40
1.0
176
     0
 90
        0
176
     0
 62
    18
420
        0
176
     0
 90
       50
176
     0
 90
        3
176
     0
 62
     5
420
      255
176
     0
290
     0
176
     1
 90
       50
176
     0
 90
       50
176
     0
 90
       50
176
     0
290
     0
176
     1
 90
       50
176
     0
 62
   256
176
     0
 40
1.0
176
     0
 90
        2
176
     0
  1
strokes_ogs.tif
176
     0
290
     0
176
     1
 40
1.0
176
     0
 40
1.0
176
     0
  0
VISUALSTYLE
  5
42E
102
{ACAD_REACTORS
330
424
102
}
330
424
100
AcDbVisualStyle
  2
Realistic
 70
     8
177
     3
291
     0
 70
    58
 90
        2
176
     1
 90
        3
176
     1
 90
        0
176
     1
 90
        2
176
     1
 40
0.6
176
     1
 40
30.0
176
     1
 62
     7
420
 16777215
176
     1
 90
        0
176
     1
 90
        0
176
     1
 62
     7
176
     1
 62
   257
176
     1
 90
        1
176
     1
 90
        1
176
     1
 40
1.0
176
     1
 90
        8
176
     1
 62
   257
176
     1
 40
1.0
176
     1
 90
        1
176
     1
 90
        6
176
     1
 90
        2
176
     1
 62
     7
176
     1
 90
        3
176
     1
 90
        0
176
     1
 90
        0
176
     1
290
     0
176
     1
 90
       13
176
     1
 40
0.0
176
     1
 90
        0
176
     1
290
     0
176
     1
290
     1
176
     1
290
     1
176
     1
290
     0
176
     1
290
     0
176
     1
290
     0
176
     1
290
     0
176
     1
290
     0
176
     1
290
     0
176
     1
 90
       50
176
     1
 40
0.0
176
     1
 40
1.0
176
     1
 90
        0
176
     1
 62
    18
420
        0
176
     1
 90
       50
176
     1
 90
        3
176
     1
 62
     5
420
      255
176
     1
290
     0
176
     1
 90
       50
176
     1
 90
       50
176
     1
 90
       50
176
     1
290
     0
176
     1
 90
       50
176
     1
 62
   256
176
     0
 40
1.0
176
     0
 90
        2
176
     1
  1
strokes_ogs.tif
176
     1
290
     0
176
     1
 40
1.0
176
     1
 40
1.0
176
     1
  0
VISUALSTYLE
  5
439
102
{ACAD_REACTORS
330
424
102
}
330
424
100
AcDbVisualStyle
  2
Shaded
 70
    27
177
     3
291
     0
 70
    58
 90
        2
176
     1
 90
        2
176
     1
 90
        1
176
     1
 90
        2
176
     1
 40
0.6
176
     1
 40
30.0
176
     1
 62
     7
420
 16777215
176
     1
 90
        0
176
     1
 90
        4
176
     1
 62
     7
176
     1
 62
   257
176
     1
 90
        1
176
     1
 90
        1
176
     1
 40
1.0
176
     1
 90
        8
176
     1
 62
   257
176
     1
 40
1.0
176
     1
 90
        1
176
     1
 90
        6
176
     1
 90
        2
176
     1
 62
     8
420
  7895160
176
     1
 90
        3
176
     1
 90
        0
176
     1
 90
        0
176
     1
290
     0
176
     1
 90
        5
176
     1
 40
0.0
176
     1
 90
        0
176
     1
290
     0
176
     1
290
     1
176
     1
290
     1
176
     1
290
     0
176
     1
290
     0
176
     1
290
     0
176
     1
290
     0
176
     1
290
     0
176
     1
290
     0
176
     1
 90
       50
176
     1
 40
0.0
176
     1
 40
1.0
176
     1
 90
        0
176
     1
 62
    18
420
        0
176
     1
 90
       50
176
     1
 90
        3
176
     1
 62
     5
420
      255
176
     1
290
     0
176
     1
 90
       50
176
     1
 90
       50
176
     1
 90
       50
176
     1
290
     0
176
     1
 90
       50
176
     1
 62
   256
176
     0
 40
1.0
176
     0
 90
        2
176
     1
  1
strokes_ogs.tif
176
     1
290
     0
176
     1
 40
1.0
176
     1
 40
1.0
176
     1
  0
VISUALSTYLE
  5
438
102
{ACAD_REACTORS
330
424
102
}
330
424
100
AcDbVisualStyle
  2
Shaded with edges
 70
    26
177
     3
291
     0
 70
    58
 90
        2
176
     1
 90
        2
176
     1
 90
        1
176
     1
 90
        2
176
     1
 40
0.6
176
     1
 40
30.0
176
     1
 62
     7
420
 16777215
176
     1
 90
        1
176
     1
 90
        2
176
     1
 62
     7
176
     1
 62
   257
176
     1
 90
        2
176
     1
 90
        1
176
     1
 40
1.0
176
     1
 90
        8
176
     1
 62
   257
176
     1
 40
1.0
176
     1
 90
        1
176
     1
 90
        6
176
     1
 90
        2
176
     1
 62
     7
176
     1
 90
        3
176
     1
 90
        0
176
     1
 90
        0
176
     1
290
     0
176
     1
 90
        5
176
     1
 40
0.0
176
     1
 90
        0
176
     1
290
     0
176
     1
290
     1
176
     1
290
     1
176
     1
290
     0
176
     1
290
     0
176
     1
290
     0
176
     1
290
     0
176
     1
290
     0
176
     1
290
     0
176
     1
 90
       50
176
     1
 40
0.0
176
     1
 40
1.0
176
     1
 90
        0
176
     1
 62
    18
420
        0
176
     1
 90
       50
176
     1
 90
        3
176
     1
 62
     5
420
      255
176
     1
290
     0
176
     1
 90
       50
176
     1
 90
       50
176
     1
 90
       50
176
     1
290
     0
176
     1
 90
       50
176
     1
 62
   256
176
     0
 40
1.0
176
     0
 90
        2
176
     1
  1
strokes_ogs.tif
176
     1
290
     0
176
     1
 40
1.0
176
     1
 40
1.0
176
     1
  0
VISUALSTYLE
  5
435
102
{ACAD_REACTORS
330
424
102
}
330
424
100
AcDbVisualStyle
  2
Shades of Gray
 70
    23
177
     3
291
     0
 70
    58
 90
        2
176
     1
 90
        2
176
     1
 90
        3
176
     1
 90
        0
176
     1
 40
0.6
176
     1
 40
30.0
176
     1
 62
     7
420
 16777215
176
     1
 90
        2
176
     1
 90
        2
176
     1
 62
     7
176
     1
 62
     7
176
     1
 90
        1
176
     1
 90
        1
176
     1
 40
40.0
176
     1
 90
        8
176
     1
 62
     7
176
     1
 40
1.0
176
     1
 90
        1
176
     1
 90
        6
176
     1
 90
        2
176
     1
 62
     7
176
     1
 90
        3
176
     1
 90
        0
176
     1
 90
        0
176
     1
290
     0
176
     1
 90
        1
176
     1
 40
0.0
176
     1
 90
        0
176
     1
290
     0
176
     1
290
     1
176
     1
290
     1
176
     1
290
     0
176
     1
290
     0
176
     1
290
     0
176
     1
290
     0
176
     1
290
     0
176
     1
290
     0
176
     1
 90
       50
176
     1
 40
0.0
176
     1
 40
1.0
176
     1
 90
        0
176
     1
 62
    18
420
        0
176
     1
 90
       50
176
     1
 90
        3
176
     1
 62
     5
420
      255
176
     1
290
     0
176
     1
 90
       50
176
     1
 90
       50
176
     1
 90
       50
176
     1
290
     0
176
     1
 90
       50
176
     1
 62
   256
176
     0
 40
1.0
176
     0
 90
        2
176
     1
  1
strokes_ogs.tif
176
     1
290
     0
176
     1
 40
1.0
176
     1
 40
1.0
176
     1
  0
VISUALSTYLE
  5
436
102
{ACAD_REACTORS
330
424
102
}
330
424
100
AcDbVisualStyle
  2
Sketchy
 70
    24
177
     3
291
     0
 70
    58
 90
        1
176
     1
 90
        2
176
     1
 90
        2
176
     1
 90
        0
176
     1
 40
0.6
176
     1
 40
30.0
176
     1
 62
     7
420
 16777215
176
     1
 90
        2
176
     1
 90
        2
176
     1
 62
     7
176
     1
 62
     7
176
     1
 90
        1
176
     1
 90
        1
176
     1
 40
40.0
176
     1
 90
       11
176
     1
 62
     7
176
     1
 40
1.0
176
     1
 90
        1
176
     1
 90
        6
176
     1
 90
        2
176
     1
 62
     7
176
     1
 90
        6
176
     1
 90
        0
176
     1
 90
        0
176
     1
290
     0
176
     1
 90
        1
176
     1
 40
0.0
176
     1
 90
        0
176
     1
290
     0
176
     1
290
     1
176
     1
290
     1
176
     1
290
     0
176
     1
290
     0
176
     1
290
     0
176
     1
290
     0
176
     1
290
     0
176
     1
290
     0
176
     1
 90
       50
176
     1
 40
0.0
176
     1
 40
1.0
176
     1
 90
        0
176
     1
 62
    18
420
        0
176
     1
 90
       50
176
     1
 90
        3
176
     1
 62
     5
420
      255
176
     1
290
     0
176
     1
 90
       50
176
     1
 90
       50
176
     1
 90
       50
176
     1
290
     0
176
     1
 90
       50
176
     1
 62
   256
176
     0
 40
1.0
176
     0
 90
        2
176
     1
  1
strokes_ogs.tif
176
     1
290
     0
176
     1
 40
1.0
176
     1
 40
1.0
176
     1
  0
VISUALSTYLE
  5
431
102
{ACAD_REACTORS
330
424
102
}
330
424
100
AcDbVisualStyle
  2
Thicken
 70
    13
177
     3
291
     1
 70
    58
 90
        2
176
     1
 90
        2
176
     1
 90
        0
176
     1
 90
        0
176
     1
 40
0.6
176
     1
 40
30.0
176
     1
 62
     7
420
 16777215
176
     1
 90
        1
176
     1
 90
        4
176
     1
 62
     7
176
     1
 62
   257
176
     1
 90
        1
176
     1
 90
        1
176
     1
 40
1.0
176
     1
 90
       12
176
     1
 62
     7
176
     1
 40
1.0
176
     1
 90
        1
176
     1
 90
        6
176
     1
 90
        2
176
     1
 62
     7
176
     1
 90
        5
176
     1
 90
        0
176
     1
 90
        0
176
     1
290
     0
176
     1
 90
        1
176
     1
 40
0.0
176
     1
 90
        0
176
     1
290
     0
176
     1
290
     1
176
     1
290
     1
176
     1
290
     0
176
     1
290
     0
176
     1
290
     0
176
     1
290
     0
176
     1
290
     0
176
     1
290
     0
176
     1
 90
       50
176
     1
 40
0.0
176
     1
 40
1.0
176
     1
 90
        0
176
     1
 62
    18
420
        0
176
     1
 90
       50
176
     1
 90
        3
176
     1
 62
     5
420
      255
176
     1
290
     0
176
     1
 90
       50
176
     1
 90
       50
176
     1
 90
       50
176
     1
290
     0
176
     1
 90
       50
176
     1
 62
   256
176
     0
 40
1.0
176
     0
 90
        2
176
     1
  1
strokes_ogs.tif
176
     1
290
     0
176
     1
 40
1.0
176
     1
 40
1.0
176
     1
  0
VISUALSTYLE
  5
42B
102
{ACAD_REACTORS
330
424
102
}
330
424
100
AcDbVisualStyle
  2
Wireframe
 70
     5
177
     3
291
     0
 70
    58
 90
        0
176
     1
 90
        2
176
     1
 90
        0
176
     1
 90
        0
176
     1
 40
0.6
176
     1
 40
30.0
176
     1
 62
     7
420
 16777215
176
     1
 90
        1
176
     1
 90
        4
176
     1
 62
     7
176
     1
 62
   257
176
     1
 90
        1
176
     1
 90
        1
176
     1
 40
1.0
176
     1
 90
        0
176
     1
 62
   257
176
     1
 40
1.0
176
     1
 90
        1
176
     1
 90
        6
176
     1
 90
        2
176
     1
 62
     7
176
     1
 90
        3
176
     1
 90
        0
176
     1
 90
        0
176
     1
290
     0
176
     1
 90
        1
176
     1
 40
0.0
176
     1
 90
        0
176
     1
290
     0
176
     1
290
     1
176
     1
290
     1
176
     1
290
     0
176
     1
290
     0
176
     1
290
     0
176
     1
290
     0
176
     1
290
     0
176
     1
290
     0
176
     1
 90
       50
176
     1
 40
0.0
176
     1
 40
1.0
176
     1
 90
        0
176
     1
 62
    18
420
        0
176
     1
 90
       50
176
     1
 90
        3
176
     1
 62
     5
420
      255
176
     1
290
     0
176
     1
 90
       50
176
     1
 90
       50
176
     1
 90
       50
176
     1
290
     0
176
     1
 90
       50
176
     1
 62
   256
176
     0
 40
1.0
176
     0
 90
        2
176
     1
  1
strokes_ogs.tif
176
     1
290
     0
176
     1
 40
1.0
176
     1
 40
1.0
176
     1
  0
VISUALSTYLE
  5
437
102
{ACAD_REACTORS
330
424
102
}
330
424
100
AcDbVisualStyle
  2
X-Ray
 70
    25
177
     3
291
     0
 70
    58
 90
        2
176
     1
 90
        2
176
     1
 90
        1
176
     1
 90
        1
176
     1
 40
0.5
176
     1
 40
30.0
176
     1
 62
     7
420
 16777215
176
     1
 90
        1
176
     1
 90
        0
176
     1
 62
     7
176
     1
 62
   257
176
     1
 90
        1
176
     1
 90
        1
176
     1
 40
1.0
176
     1
 90
        8
176
     1
 62
     7
176
     1
 40
1.0
176
     1
 90
        1
176
     1
 90
        6
176
     1
 90
        2
176
     1
 62
     7
176
     1
 90
        3
176
     1
 90
        0
176
     1
 90
        0
176
     1
290
     0
176
     1
 90
       13
176
     1
 40
0.0
176
     1
 90
        0
176
     1
290
     0
176
     1
290
     1
176
     1
290
     1
176
     1
290
     0
176
     1
290
     0
176
     1
290
     0
176
     1
290
     0
176
     1
290
     0
176
     1
290
     0
176
     1
 90
       50
176
     1
 40
0.0
176
     1
 40
1.0
176
     1
 90
        0
176
     1
 62
    18
420
        0
176
     1
 90
       50
176
     1
 90
        3
176
     1
 62
     5
420
      255
176
     1
290
     0
176
     1
 90
       50
176
     1
 90
       50
176
     1
 90
       50
176
     1
290
     0
176
     1
 90
       50
176
     1
 62
   256
176
     0
 40
1.0
176
     0
 90
        2
176
     1
  1
strokes_ogs.tif
176
     1
290
     0
176
     1
 40
1.0
176
     1
 40
1.0
176
     1
  0
DICTIONARYVAR
  5
45C
102
{ACAD_REACTORS
330
456
102
}
330
456
100
DictionaryVariables
280
     0
  1
1:1
  0
DICTIONARYVAR
  5
458
102
{ACAD_REACTORS
330
456
102
}
330
456
100
DictionaryVariables
280
     0
  1
STANDARD
  0
DICTIONARYVAR
  5
457
102
{ACAD_REACTORS
330
456
102
}
330
456
100
DictionaryVariables
280
     0
  1
STANDARD
  0
DICTIONARYVAR
  5
459
102
{ACAD_REACTORS
330
456
102
}
330
456
100
DictionaryVariables
280
     0
  1
Imperial24
  0
DICTIONARYVAR
  5
45A
102
{ACAD_REACTORS
330
456
102
}
330
456
100
DictionaryVariables
280
     0
  1
Imperial24
  0
DICTIONARYVAR
  5
45E
102
{ACAD_REACTORS
330
456
102
}
330
456
100
DictionaryVariables
280
     0
  1
1
  0
DICTIONARYVAR
  5
45F
102
{ACAD_REACTORS
330
456
102
}
330
456
100
DictionaryVariables
280
     0
  1
15
  0
DICTIONARYVAR
  5
45D
102
{ACAD_REACTORS
330
456
102
}
330
456
100
DictionaryVariables
280
     0
  1
0
  0
DICTIONARYVAR
  5
45B
102
{ACAD_REACTORS
330
456
102
}
330
456
100
DictionaryVariables
280
     0
  1
0
  0
DICTIONARY
  5
415
330
414
100
AcDbDictionary
280
     1
281
     1
  3
BUMPTILE
360
417
  3
DIFFUSETILE
360
416
  3
OPACITYTILE
360
41A
  3
REFLECTIONTILE
360
419
  3
REFRACTIONTILE
360
41B
  3
SPECULARTILE
360
418
  0
DICTIONARY
  5
40D
330
40C
100
AcDbDictionary
280
     1
281
     1
  3
BUMPTILE
360
40F
  3
DIFFUSETILE
360
40E
  3
OPACITYTILE
360
412
  3
REFLECTIONTILE
360
411
  3
REFRACTIONTILE
360
413
  3
SPECULARTILE
360
410
  0
DICTIONARY
  5
41D
330
41C
100
AcDbDictionary
280
     1
281
     1
  3
BUMPTILE
360
41F
  3
DIFFUSETILE
360
41E
  3
OPACITYTILE
360
422
  3
REFLECTIONTILE
360
421
  3
REFRACTIONTILE
360
423
  3
SPECULARTILE
360
420
  0
DICTIONARY
  5
461
330
43F
100
AcDbDictionary
280
     1
281
     1
  3
ACAD_ROUNDTRIP_2008_TABLESTYLE_CELLSTYLEMAP
360
462
  0
XRECORD
  5
417
102
{ACAD_REACTORS
330
415
102
}
330
415
100
AcDbXrecord
280
     1
270
     1
271
     1
  0
XRECORD
  5
416
102
{ACAD_REACTORS
330
415
102
}
330
415
100
AcDbXrecord
280
     1
270
     1
271
     1
  0
XRECORD
  5
41A
102
{ACAD_REACTORS
330
415
102
}
330
415
100
AcDbXrecord
280
     1
270
     1
271
     1
  0
XRECORD
  5
419
102
{ACAD_REACTORS
330
415
102
}
330
415
100
AcDbXrecord
280
     1
270
     1
271
     1
  0
XRECORD
  5
41B
102
{ACAD_REACTORS
330
415
102
}
330
415
100
AcDbXrecord
280
     1
270
     1
271
     1
  0
XRECORD
  5
418
102
{ACAD_REACTORS
330
415
102
}
330
415
100
AcDbXrecord
280
     1
270
     1
271
     1
  0
XRECORD
  5
40F
102
{ACAD_REACTORS
330
40D
102
}
330
40D
100
AcDbXrecord
280
     1
270
     1
271
     1
  0
XRECORD
  5
40E
102
{ACAD_REACTORS
330
40D
102
}
330
40D
100
AcDbXrecord
280
     1
270
     1
271
     1
  0
XRECORD
  5
412
102
{ACAD_REACTORS
330
40D
102
}
330
40D
100
AcDbXrecord
280
     1
270
     1
271
     1
  0
XRECORD
  5
411
102
{ACAD_REACTORS
330
40D
102
}
330
40D
100
AcDbXrecord
280
     1
270
     1
271
     1
  0
XRECORD
  5
413
102
{ACAD_REACTORS
330
40D
102
}
330
40D
100
AcDbXrecord
280
     1
270
     1
271
     1
  0
XRECORD
  5
410
102
{ACAD_REACTORS
330
40D
102
}
330
40D
100
AcDbXrecord
280
     1
270
     1
271
     1
  0
XRECORD
  5
41F
102
{ACAD_REACTORS
330
41D
102
}
330
41D
100
AcDbXrecord
280
     1
270
     1
271
     1
  0
XRECORD
  5
41E
102
{ACAD_REACTORS
330
41D
102
}
330
41D
100
AcDbXrecord
280
     1
270
     1
271
     1
  0
XRECORD
  5
422
102
{ACAD_REACTORS
330
41D
102
}
330
41D
100
AcDbXrecord
280
     1
270
     1
271
     1
  0
XRECORD
  5
421
102
{ACAD_REACTORS
330
41D
102
}
330
41D
100
AcDbXrecord
280
     1
270
     1
271
     1
  0
XRECORD
  5
423
102
{ACAD_REACTORS
330
41D
102
}
330
41D
100
AcDbXrecord
280
     1
270
     1
271
     1
  0
XRECORD
  5
420
102
{ACAD_REACTORS
330
41D
102
}
330
41D
100
AcDbXrecord
280
     1
270
     1
271
     1
  0
CELLSTYLEMAP
  5
462
102
{ACAD_REACTORS
330
461
102
}
330
461
100
AcDbCellStyleMap
 90
        3
300
CELLSTYLE
  1
TABLEFORMAT_BEGIN
 90
        5
170
     1
 91
        0
 92
    32768
 62
   257
 93
        1
300
CONTENTFORMAT
  1
CONTENTFORMAT_BEGIN
 90
        0
 91
        0
 92
      512
 93
        0
300

 40
0.0
140
1.0
 94
        5
 62
     0
340
11
144
0.25
309
CONTENTFORMAT_END
171
     0
 94
        0
309
TABLEFORMAT_END
  1
CELLSTYLE_BEGIN
 90
        1
 91
        1
300
_TITLE
309
CELLSTYLE_END
300
CELLSTYLE
  1
TABLEFORMAT_BEGIN
 90
        5
170
     1
 91
        0
 92
        0
 62
   257
 93
        1
300
CONTENTFORMAT
  1
CONTENTFORMAT_BEGIN
 90
        0
 91
        0
 92
      512
 93
        0
300

 40
0.0
140
1.0
 94
        5
 62
     0
340
11
144
0.18
309
CONTENTFORMAT_END
171
     0
 94
        0
309
TABLEFORMAT_END
  1
CELLSTYLE_BEGIN
 90
        2
 91
        1
300
_HEADER
309
CELLSTYLE_END
300
CELLSTYLE
  1
TABLEFORMAT_BEGIN
 90
        5
170
     1
 91
        0
 92
        0
 62
   257
 93
        1
300
CONTENTFORMAT
  1
CONTENTFORMAT_BEGIN
 90
        0
 91
        0
 92
      512
 93
        0
300

 40
0.0
140
1.0
 94
        2
 62
     0
340
11
144
0.18
309
CONTENTFORMAT_END
171
     0
 94
        0
309
TABLEFORMAT_END
  1
CELLSTYLE_BEGIN
 90
        3
 91
        2
300
_DATA
309
CELLSTYLE_END
  0
ENDSEC
  0
SECTION
  2
ACDSDATA
 70
     2
 71
     8
  0
ACDSSCHEMA
 90
        0
  1
AcDb_Thumbnail_Schema
  2
AcDbDs::ID
280
    10
 91
        8
  2
Thumbnail_Data
280
    15
 91
        0
101
ACDSRECORD
 95
        0
 90
        1
  2
AcDbDs::TreatedAsObjectData
280
     1
291
     1
101
ACDSRECORD
 95
        0
 90
        2
  2
AcDbDs::Legacy
280
     1
291
     1
101
ACDSRECORD
  1
AcDbDs::ID
 90
        3
  2
AcDs:Indexable
280
     1
291
     1
101
ACDSRECORD
  1
AcDbDs::ID
 90
        4
  2
AcDbDs::HandleAttribute
280
     7
282
     1
  0
ACDSSCHEMA
 90
        1
  1
AcDbDs::TreatedAsObjectDataSchema
  2
AcDbDs::TreatedAsObjectData
280
     1
 91
        0
  0
ACDSSCHEMA
 90
        2
  1
AcDbDs::LegacySchema
  2
AcDbDs::Legacy
280
     1
 91
        0
  0
ACDSSCHEMA
 90
        3
  1
AcDbDs::IndexedPropertySchema
  2
AcDs:Indexable
280
     1
 91
        0
  0
ACDSSCHEMA
 90
        4
  1
AcDbDs::HandleAttributeSchema
  2
AcDbDs::HandleAttribute
280
     7
 91
        1
284
     1
  0
ACDSRECORD
 90
        0
  2
AcDbDs::ID
280
    10
320
22
  2
Thumbnail_Data
280
    15
 94
     1279
310
89504E470D0A1A0A0000000D49484452000001000000006D080300000079B14F6400000300504C5445212830FFFFFF2128300000000000000000000000000000000000000000000000000000330000660000990000CC0000FF0033000033330033660033990033CC0033FF0066000066330066660066990066CC0066FF0099
310
000099330099660099990099CC0099FF00CC0000CC3300CC6600CC9900CCCC00CCFF00FF0000FF3300FF6600FF9900FFCC00FFFF3300003300333300663300993300CC3300FF3333003333333333663333993333CC3333FF3366003366333366663366993366CC3366FF3399003399333399663399993399CC3399FF33CC00
310
33CC3333CC6633CC9933CCCC33CCFF33FF0033FF3333FF6633FF9933FFCC33FFFF6600006600336600666600996600CC6600FF6633006633336633666633996633CC6633FF6666006666336666666666996666CC6666FF6699006699336699666699996699CC6699FF66CC0066CC3366CC6666CC9966CCCC66CCFF66FF0066
310
FF3366FF6666FF9966FFCC66FFFF9900009900339900669900999900CC9900FF9933009933339933669933999933CC9933FF9966009966339966669966999966CC9966FF9999009999339999669999999999CC9999FF99CC0099CC3399CC6699CC9999CCCC99CCFF99FF0099FF3399FF6699FF9999FFCC99FFFFCC0000CC00
310
33CC0066CC0099CC00CCCC00FFCC3300CC3333CC3366CC3399CC33CCCC33FFCC6600CC6633CC6666CC6699CC66CCCC66FFCC9900CC9933CC9966CC9999CC99CCCC99FFCCCC00CCCC33CCCC66CCCC99CCCCCCCCCCFFCCFF00CCFF33CCFF66CCFF99CCFFCCCCFFFFFF0000FF0033FF0066FF0099FF00CCFF00FFFF3300FF3333
310
FF3366FF3399FF33CCFF33FFFF6600FF6633FF6666FF6699FF66CCFF66FFFF9900FF9933FF9966FF9999FF99CCFF99FFFFCC00FFCC33FFCC66FFCC99FFCCCCFFCCFFFFFF00FFFF33FFFF66FFFF99FFFFCCFFFFFF0000000D0D0D1A1A1A2828283535354343435050505D5D5D6B6B6B787878868686939393A1A1A1AEAEAEBB
310
BBBBC9C9C9D6D6D6E4E4E4F1F1F1FFFFFF0000000000000000000000000000000000000000000000000000000000002E4550F1000001BA4944415478DAED9BC112C2200C05F9FFFFCDDD031513B0DAD48B8FEC9E70A69D91852140D2D60000000000FE011B0D4300021080000414EBBD0501F51C5417600B08286DA0EA1A60
310
4730400002EA08B06FD4EEFDEE0A0C03C5FB7F6AA3E869B0BC001706CB0AE8C38F80B202ACB880B5451400000000000000000005EE5EE96C732174DC6CE63AB2533EAC67382C73B7F9AC8A395ED55670FCFB8C805111315E52369016E06A0443B5A01511E00B622C6407AC8480F0DCF90F918EBB45FCB2003BB3A166E05671
310
C7F4D0F2537107D44B3DFB082605CC35A26A0BE15340CB08F00D9B5F2A27602E91D45B079302E6115E46DC240341BBBC08EE2660DED8A505E41FD01670638E2000011A51E05701313CAAED822F5F6EAD41C04C5C40D807B4A4006F6D31A1B8114A0A184709F7AE49EF04BFAF05BE7FD3D8171430FA6C55674068D410E03B38
310
4500DBE034784F805F03F4AE84B20256033E0AC84C80700DF8BA12BB3403ECC33E406602FCF2C95B9C02B1FFBAB7C28923C1FB5440FF7044ED24782CDF23905FCE8C6C99194AE4C6F6CC0D664670CBEC704AC09BFA00E502813BBBB8AD2A44E28E26EFA0C9C3776F0000000000000000F08F3C00428298D85910B820000000
310
0049454E44AE426082
  0
ENDSEC
  0
EOF
